ISO-10303-21;
HEADER;
FILE_DESCRIPTION (( 'STEP AP214' ),
    '1' );
FILE_NAME ('24482.STEP',
    '2023-06-22T17:15:35',
    ( '' ),
    ( '' ),
    'SwSTEP 2.0',
    'SolidWorks 2023',
    '' );
FILE_SCHEMA (( 'AUTOMOTIVE_DESIGN' ));
ENDSEC;

DATA;
#1 = APPLICATION_CONTEXT ( 'automotive_design' ) ;
#2 = PRESENTATION_LAYER_ASSIGNMENT (  '', '', ( #297 ) ) ;
#3 = PRODUCT_DEFINITION_FORMATION_WITH_SPECIFIED_SOURCE ( 'ANY', '', #143, .NOT_KNOWN. ) ;
#4 = DIRECTION ( 'NONE',  ( 0.000000000000000000, 0.000000000000000000, -1.000000000000000000 ) ) ;
#5 = EDGE_CURVE ( 'NONE', #84, #79, #101, .T. ) ;
#6 = EDGE_LOOP ( 'NONE', ( #290, #227, #35, #81 ) ) ;
#7 = DIRECTION ( 'NONE',  ( -0.000000000000000000, -1.000000000000000000, -0.000000000000000000 ) ) ;
#8 =( GEOMETRIC_REPRESENTATION_CONTEXT ( 3 ) GLOBAL_UNCERTAINTY_ASSIGNED_CONTEXT ( ( #16 ) ) GLOBAL_UNIT_ASSIGNED_CONTEXT ( ( #111, #86, #274 ) ) REPRESENTATION_CONTEXT ( 'NONE', 'WORKASPACE' ) );
#9 = CARTESIAN_POINT ( 'NONE',  ( 4.592425496802575451E-17, 1.625000000000000000, 0.3750000000000000555 ) ) ;
#10 =( LENGTH_UNIT ( ) NAMED_UNIT ( * ) SI_UNIT ( $, .METRE. ) );
#11 = EDGE_LOOP ( 'NONE', ( #131, #30 ) ) ;
#12 = CARTESIAN_POINT ( 'NONE',  ( 0.000000000000000000, 0.000000000000000000, 0.000000000000000000 ) ) ;
#13 = DIRECTION ( 'NONE',  ( -0.000000000000000000, -1.000000000000000000, -0.000000000000000000 ) ) ;
#14 = FILL_AREA_STYLE ('',( #64 ) ) ;
#15 = DIMENSIONAL_EXPONENTS ( 1.000000000000000000, 0.000000000000000000, 0.000000000000000000, 0.000000000000000000, 0.000000000000000000, 0.000000000000000000, 0.000000000000000000 ) ;
#16 = UNCERTAINTY_MEASURE_WITH_UNIT (LENGTH_MEASURE( 1.000000000000000082E-05 ), #111, 'distance_accuracy_value', 'NONE');
#17 = CARTESIAN_POINT ( 'NONE',  ( 0.3750000000000000555, 4.000000000000000000, 4.592425496802576684E-17 ) ) ;
#18 = PRESENTATION_STYLE_ASSIGNMENT (( #253 ) ) ;
#19 = AXIS2_PLACEMENT_3D ( 'NONE', #190, #200, #263 ) ;
#20 =( NAMED_UNIT ( * ) PLANE_ANGLE_UNIT ( ) SI_UNIT ( $, .RADIAN. ) );
#21 = EDGE_CURVE ( 'NONE', #202, #34, #50, .T. ) ;
#22 = DIRECTION ( 'NONE',  ( 1.000000000000000000, 0.000000000000000000, 0.000000000000000000 ) ) ;
#23 = DIRECTION ( 'NONE',  ( -0.000000000000000000, -1.000000000000000000, -0.000000000000000000 ) ) ;
#24 = CARTESIAN_POINT ( 'NONE',  ( 0.000000000000000000, 0.000000000000000000, 0.000000000000000000 ) ) ;
#25 = EDGE_CURVE ( 'NONE', #152, #127, #282, .T. ) ;
#26 = FILL_AREA_STYLE ('',( #261 ) ) ;
#27 = PLANE ( 'NONE',  #170 ) ;
#28 = CIRCLE ( 'NONE', #180, 0.3750000000000000555 ) ;
#29 = ADVANCED_FACE ( 'NONE', ( #99 ), #53, .F. ) ;
#30 = ORIENTED_EDGE ( 'NONE', *, *, #5, .T. ) ;
#31 =( NAMED_UNIT ( * ) PLANE_ANGLE_UNIT ( ) SI_UNIT ( $, .RADIAN. ) );
#32 = ORIENTED_EDGE ( 'NONE', *, *, #303, .F. ) ;
#33 = VECTOR ( 'NONE', #70, 39.37007874015748143 ) ;
#34 = VERTEX_POINT ( 'NONE', #151 ) ;
#35 = ORIENTED_EDGE ( 'NONE', *, *, #218, .T. ) ;
#36 = DIRECTION ( 'NONE',  ( -1.000000000000000000, 0.000000000000000000, 0.000000000000000000 ) ) ;
#37 =( LENGTH_UNIT ( ) NAMED_UNIT ( * ) SI_UNIT ( $, .METRE. ) );
#38 = VECTOR ( 'NONE', #142, 39.37007874015748143 ) ;
#39 =( GEOMETRIC_REPRESENTATION_CONTEXT ( 3 ) GLOBAL_UNCERTAINTY_ASSIGNED_CONTEXT ( ( #141 ) ) GLOBAL_UNIT_ASSIGNED_CONTEXT ( ( #244, #215, #198 ) ) REPRESENTATION_CONTEXT ( 'NONE', 'WORKASPACE' ) );
#40 = EDGE_CURVE ( 'NONE', #152, #102, #112, .T. ) ;
#41 = SURFACE_STYLE_USAGE ( .BOTH. , #301 ) ;
#42 = EDGE_CURVE ( 'NONE', #250, #102, #28, .T. ) ;
#43 =( CONVERSION_BASED_UNIT ( 'INCH', #308 ) LENGTH_UNIT ( ) NAMED_UNIT ( #59 ) );
#44 = DIRECTION ( 'NONE',  ( -0.000000000000000000, -1.000000000000000000, -0.000000000000000000 ) ) ;
#45 = CARTESIAN_POINT ( 'NONE',  ( -1.224646799147352714E-16, 4.000000000000000000, 0.000000000000000000 ) ) ;
#46 = PRODUCT_DEFINITION_SHAPE ( 'NONE', 'NONE',  #281 ) ;
#47 = PRESENTATION_LAYER_ASSIGNMENT (  '', '', ( #266 ) ) ;
#48 =( NAMED_UNIT ( * ) SI_UNIT ( $, .STERADIAN. ) SOLID_ANGLE_UNIT ( ) );
#49 = PRESENTATION_LAYER_ASSIGNMENT (  '', '', ( #89 ) ) ;
#50 = CIRCLE ( 'NONE', #144, 0.3750000000000000555 ) ;
#51 = PRESENTATION_LAYER_ASSIGNMENT (  '', '', ( #234 ) ) ;
#52 = EDGE_LOOP ( 'NONE', ( #245, #247, #105, #226 ) ) ;
#53 = PLANE ( 'NONE',  #94 ) ;
#54 = COLOUR_RGB ( '',1.000000000000000000, 0.000000000000000000, 0.000000000000000000 ) ;
#55 = AXIS2_PLACEMENT_3D ( 'NONE', #125, #97, #4 ) ;
#56 = DIRECTION ( 'NONE',  ( -1.000000000000000000, -5.156407575357275916E-17, 0.000000000000000000 ) ) ;
#57 = EDGE_LOOP ( 'NONE', ( #174, #293 ) ) ;
#58 = AXIS2_PLACEMENT_3D ( 'NONE', #182, #67, #62 ) ;
#59 = DIMENSIONAL_EXPONENTS ( 1.000000000000000000, 0.000000000000000000, 0.000000000000000000, 0.000000000000000000, 0.000000000000000000, 0.000000000000000000, 0.000000000000000000 ) ;
#60 = SURFACE_STYLE_FILL_AREA ( #260 ) ;
#61 = SURFACE_STYLE_USAGE ( .BOTH. , #107 ) ;
#62 = DIRECTION ( 'NONE',  ( -1.000000000000000000, 0.000000000000000000, 0.000000000000000000 ) ) ;
#63 =( LENGTH_UNIT ( ) NAMED_UNIT ( * ) SI_UNIT ( $, .METRE. ) );
#64 = FILL_AREA_STYLE_COLOUR ( '', #88 ) ;
#65 = FACE_OUTER_BOUND ( 'NONE', #52, .T. ) ;
#66 =( GEOMETRIC_REPRESENTATION_CONTEXT ( 3 ) GLOBAL_UNCERTAINTY_ASSIGNED_CONTEXT ( ( #179 ) ) GLOBAL_UNIT_ASSIGNED_CONTEXT ( ( #295, #31, #220 ) ) REPRESENTATION_CONTEXT ( 'NONE', 'WORKASPACE' ) );
#67 = DIRECTION ( 'NONE',  ( -5.156407575357275299E-17, 1.000000000000000000, -0.000000000000000000 ) ) ;
#68 = PRODUCT_CONTEXT ( 'NONE', #1, 'mechanical' ) ;
#69 = DIRECTION ( 'NONE',  ( -5.156407575357275299E-17, 1.000000000000000000, -0.000000000000000000 ) ) ;
#70 = DIRECTION ( 'NONE',  ( -0.000000000000000000, -1.000000000000000000, -0.000000000000000000 ) ) ;
#71 = SURFACE_STYLE_FILL_AREA ( #76 ) ;
#72 = CARTESIAN_POINT ( 'NONE',  ( 0.000000000000000000, 0.000000000000000000, 0.000000000000000000 ) ) ;
#73 = APPLICATION_PROTOCOL_DEFINITION ( 'draft international standard', 'automotive_design', 1998, #280 ) ;
#74 = LENGTH_MEASURE_WITH_UNIT ( LENGTH_MEASURE( 0.02539999999999999897 ), #307 );
#75 = EDGE_CURVE ( 'NONE', #202, #79, #162, .T. ) ;
#76 = FILL_AREA_STYLE ('',( #283 ) ) ;
#77 = SURFACE_STYLE_FILL_AREA ( #193 ) ;
#78 = ADVANCED_BREP_SHAPE_REPRESENTATION ( '24482', ( #191, #83, #117 ), #8 ) ;
#79 = VERTEX_POINT ( 'NONE', #118 ) ;
#80 = AXIS2_PLACEMENT_3D ( 'NONE', #275, #279, #233 ) ;
#81 = ORIENTED_EDGE ( 'NONE', *, *, #158, .F. ) ;
#82 = CARTESIAN_POINT ( 'NONE',  ( 4.985351078100356093E-34, 1.625000000000000000, 0.000000000000000000 ) ) ;
#83 = MANIFOLD_SOLID_BREP ( 'Revolve - Tool Body (Straight Shanked)', #241 ) ;
#84 = VERTEX_POINT ( 'NONE', #17 ) ;
#85 = AXIS2_PLACEMENT_3D ( 'NONE', #12, #7, #252 ) ;
#86 =( NAMED_UNIT ( * ) PLANE_ANGLE_UNIT ( ) SI_UNIT ( $, .RADIAN. ) );
#87 = LENGTH_MEASURE_WITH_UNIT ( LENGTH_MEASURE( 0.02539999999999999897 ), #93 );
#88 = COLOUR_RGB ( '',0.7921568627450980005, 0.8196078431372548767, 0.9333333333333333481 ) ;
#89 = STYLED_ITEM ( 'NONE', ( #264 ), #209 ) ;
#90 = EDGE_CURVE ( 'NONE', #34, #84, #115, .T. ) ;
#91 = CYLINDRICAL_SURFACE ( 'NONE', #58, 0.3750000000000001110 ) ;
#92 = PRODUCT_DEFINITION_CONTEXT ( 'detailed design', #280, 'design' ) ;
#93 =( LENGTH_UNIT ( ) NAMED_UNIT ( * ) SI_UNIT ( $, .METRE. ) );
#94 = AXIS2_PLACEMENT_3D ( 'NONE', #82, #224, #56 ) ;
#95 =( LENGTH_UNIT ( ) NAMED_UNIT ( * ) SI_UNIT ( $, .METRE. ) );
#96 = ADVANCED_FACE ( 'NONE', ( #159 ), #185, .F. ) ;
#97 = DIRECTION ( 'NONE',  ( -0.000000000000000000, -1.000000000000000000, -0.000000000000000000 ) ) ;
#98 = ADVANCED_FACE ( 'NONE', ( #298 ), #91, .T. ) ;
#99 = FACE_OUTER_BOUND ( 'NONE', #203, .T. ) ;
#100 = ORIENTED_EDGE ( 'NONE', *, *, #218, .F. ) ;
#101 = CIRCLE ( 'NONE', #116, 0.3750000000000001665 ) ;
#102 = VERTEX_POINT ( 'NONE', #164 ) ;
#103 = DIRECTION ( 'NONE',  ( 0.000000000000000000, -0.000000000000000000, 1.000000000000000000 ) ) ;
#104 = EDGE_LOOP ( 'NONE', ( #129, #269, #271, #100 ) ) ;
#105 = ORIENTED_EDGE ( 'NONE', *, *, #75, .T. ) ;
#106 = PRODUCT_RELATED_PRODUCT_CATEGORY ( 'part', '', ( #143 ) ) ;
#107 = SURFACE_SIDE_STYLE ('',( #289 ) ) ;
#108 = MECHANICAL_DESIGN_GEOMETRIC_PRESENTATION_REPRESENTATION (  '', ( #216 ), #235 ) ;
#109 = DIRECTION ( 'NONE',  ( -1.000000000000000000, 0.000000000000000000, 0.000000000000000000 ) ) ;
#110 = DIRECTION ( 'NONE',  ( -5.156407575357275299E-17, 1.000000000000000000, -0.000000000000000000 ) ) ;
#111 =( CONVERSION_BASED_UNIT ( 'INCH', #206 ) LENGTH_UNIT ( ) NAMED_UNIT ( #15 ) );
#112 = LINE ( 'NONE', #210, #285 ) ;
#113 = PRESENTATION_STYLE_ASSIGNMENT (( #41 ) ) ;
#114 =( NAMED_UNIT ( * ) SI_UNIT ( $, .STERADIAN. ) SOLID_ANGLE_UNIT ( ) );
#115 = LINE ( 'NONE', #207, #38 ) ;
#116 = AXIS2_PLACEMENT_3D ( 'NONE', #230, #110, #217 ) ;
#117 = AXIS2_PLACEMENT_3D ( 'NONE', #72, #138, #22 ) ;
#118 = CARTESIAN_POINT ( 'NONE',  ( -0.3750000000000002776, 4.000000000000000000, 0.000000000000000000 ) ) ;
#119 = LINE ( 'NONE', #302, #33 ) ;
#120 = PRESENTATION_STYLE_ASSIGNMENT (( #262 ) ) ;
#121 = DIRECTION ( 'NONE',  ( 0.000000000000000000, 0.000000000000000000, -1.000000000000000000 ) ) ;
#122 =( NAMED_UNIT ( * ) PLANE_ANGLE_UNIT ( ) SI_UNIT ( $, .RADIAN. ) );
#123 = SURFACE_STYLE_FILL_AREA ( #26 ) ;
#124 = COLOUR_RGB ( '',1.000000000000000000, 0.000000000000000000, 0.000000000000000000 ) ;
#125 = CARTESIAN_POINT ( 'NONE',  ( 0.000000000000000000, 0.000000000000000000, 0.000000000000000000 ) ) ;
#126 = PLANE ( 'NONE',  #186 ) ;
#127 = VERTEX_POINT ( 'NONE', #258 ) ;
#128 = CARTESIAN_POINT ( 'NONE',  ( 0.000000000000000000, 1.625000000000000000, 0.000000000000000000 ) ) ;
#129 = ORIENTED_EDGE ( 'NONE', *, *, #303, .T. ) ;
#130 = EDGE_CURVE ( 'NONE', #79, #84, #176, .T. ) ;
#131 = ORIENTED_EDGE ( 'NONE', *, *, #130, .T. ) ;
#132 = FILL_AREA_STYLE ('',( #173 ) ) ;
#133 = MECHANICAL_DESIGN_GEOMETRIC_PRESENTATION_REPRESENTATION (  '', ( #266 ), #305 ) ;
#134 = STYLED_ITEM ( 'NONE', ( #18 ), #221 ) ;
#135 = UNCERTAINTY_MEASURE_WITH_UNIT (LENGTH_MEASURE( 1.000000000000000082E-05 ), #270, 'distance_accuracy_value', 'NONE');
#136 =( NAMED_UNIT ( * ) PLANE_ANGLE_UNIT ( ) SI_UNIT ( $, .RADIAN. ) );
#137 = CYLINDRICAL_SURFACE ( 'NONE', #55, 0.3750000000000000555 ) ;
#138 = DIRECTION ( 'NONE',  ( 0.000000000000000000, 0.000000000000000000, 1.000000000000000000 ) ) ;
#139 = CARTESIAN_POINT ( 'NONE',  ( -0.3750000000000002220, 4.000000000000000000, 0.000000000000000000 ) ) ;
#140 = AXIS2_PLACEMENT_3D ( 'NONE', #265, #69, #109 ) ;
#141 = UNCERTAINTY_MEASURE_WITH_UNIT (LENGTH_MEASURE( 1.000000000000000082E-05 ), #244, 'distance_accuracy_value', 'NONE');
#142 = DIRECTION ( 'NONE',  ( -5.156407575357275916E-17, 1.000000000000000000, -0.000000000000000000 ) ) ;
#143 = PRODUCT ( '24482', '24482', '', ( #68 ) ) ;
#144 = AXIS2_PLACEMENT_3D ( 'NONE', #148, #268, #36 ) ;
#145 = ADVANCED_FACE ( 'NONE', ( #309 ), #27, .T. ) ;
#146 = SURFACE_SIDE_STYLE ('',( #71 ) ) ;
#147 = CARTESIAN_POINT ( 'NONE',  ( 0.000000000000000000, 1.625000000000000000, 0.000000000000000000 ) ) ;
#148 = CARTESIAN_POINT ( 'NONE',  ( 3.032960542342103792E-32, 1.625000000000000000, 0.000000000000000000 ) ) ;
#149 = COLOUR_RGB ( '',0.7921568627450980005, 0.8196078431372548767, 0.9333333333333333481 ) ;
#150 = PRESENTATION_STYLE_ASSIGNMENT (( #156 ) ) ;
#151 = CARTESIAN_POINT ( 'NONE',  ( 0.3750000000000000555, 1.625000000000000000, 4.592425496802576684E-17 ) ) ;
#152 = VERTEX_POINT ( 'NONE', #9 ) ;
#153 = CIRCLE ( 'NONE', #194, 0.3750000000000000555 ) ;
#154 = ADVANCED_FACE ( 'NONE', ( #65 ), #259, .T. ) ;
#155 = ORIENTED_EDGE ( 'NONE', *, *, #90, .T. ) ;
#156 = SURFACE_STYLE_USAGE ( .BOTH. , #214 ) ;
#157 = DIRECTION ( 'NONE',  ( 0.000000000000000000, 0.000000000000000000, -1.000000000000000000 ) ) ;
#158 = EDGE_CURVE ( 'NONE', #102, #250, #153, .T. ) ;
#159 = FACE_OUTER_BOUND ( 'NONE', #11, .T. ) ;
#160 = DIMENSIONAL_EXPONENTS ( 1.000000000000000000, 0.000000000000000000, 0.000000000000000000, 0.000000000000000000, 0.000000000000000000, 0.000000000000000000, 0.000000000000000000 ) ;
#161 = SURFACE_SIDE_STYLE ('',( #60 ) ) ;
#162 = LINE ( 'NONE', #139, #211 ) ;
#163 =( GEOMETRIC_REPRESENTATION_CONTEXT ( 3 ) GLOBAL_UNCERTAINTY_ASSIGNED_CONTEXT ( ( #135 ) ) GLOBAL_UNIT_ASSIGNED_CONTEXT ( ( #270, #291, #249 ) ) REPRESENTATION_CONTEXT ( 'NONE', 'WORKASPACE' ) );
#164 = CARTESIAN_POINT ( 'NONE',  ( 4.592425496802575451E-17, 0.000000000000000000, 0.3750000000000000555 ) ) ;
#165 = DIRECTION ( 'NONE',  ( 0.000000000000000000, 0.000000000000000000, -1.000000000000000000 ) ) ;
#166 = FILL_AREA_STYLE_COLOUR ( '', #238 ) ;
#167 =( LENGTH_UNIT ( ) NAMED_UNIT ( * ) SI_UNIT ( $, .METRE. ) );
#168 = SURFACE_SIDE_STYLE ('',( #77 ) ) ;
#169 = FACE_OUTER_BOUND ( 'NONE', #104, .T. ) ;
#170 = AXIS2_PLACEMENT_3D ( 'NONE', #128, #223, #103 ) ;
#171 = DIRECTION ( 'NONE',  ( -0.000000000000000000, -1.000000000000000000, -0.000000000000000000 ) ) ;
#172 = DIRECTION ( 'NONE',  ( -1.000000000000000000, 0.000000000000000000, 0.000000000000000000 ) ) ;
#173 = FILL_AREA_STYLE_COLOUR ( '', #149 ) ;
#174 = ORIENTED_EDGE ( 'NONE', *, *, #42, .T. ) ;
#175 = ORIENTED_EDGE ( 'NONE', *, *, #75, .F. ) ;
#176 = CIRCLE ( 'NONE', #201, 0.3750000000000001665 ) ;
#177 = EDGE_LOOP ( 'NONE', ( #32, #248 ) ) ;
#178 = CARTESIAN_POINT ( 'NONE',  ( 0.000000000000000000, 0.000000000000000000, -0.3750000000000000555 ) ) ;
#179 = UNCERTAINTY_MEASURE_WITH_UNIT (LENGTH_MEASURE( 1.000000000000000082E-05 ), #295, 'distance_accuracy_value', 'NONE');
#180 = AXIS2_PLACEMENT_3D ( 'NONE', #231, #44, #304 ) ;
#181 =( NAMED_UNIT ( * ) SI_UNIT ( $, .STERADIAN. ) SOLID_ANGLE_UNIT ( ) );
#182 = CARTESIAN_POINT ( 'NONE',  ( -1.224646799147352714E-16, 4.000000000000000000, 0.000000000000000000 ) ) ;
#183 = DIMENSIONAL_EXPONENTS ( 1.000000000000000000, 0.000000000000000000, 0.000000000000000000, 0.000000000000000000, 0.000000000000000000, 0.000000000000000000, 0.000000000000000000 ) ;
#184 = ADVANCED_FACE ( 'NONE', ( #169 ), #213, .T. ) ;
#185 = PLANE ( 'NONE',  #80 ) ;
#186 = AXIS2_PLACEMENT_3D ( 'NONE', #188, #278, #165 ) ;
#187 = APPLICATION_PROTOCOL_DEFINITION ( 'draft international standard', 'automotive_design', 1998, #1 ) ;
#188 = CARTESIAN_POINT ( 'NONE',  ( 0.000000000000000000, 0.000000000000000000, 0.000000000000000000 ) ) ;
#189 = DIRECTION ( 'NONE',  ( 0.000000000000000000, 0.000000000000000000, -1.000000000000000000 ) ) ;
#190 = CARTESIAN_POINT ( 'NONE',  ( -1.224646799147352714E-16, 4.000000000000000000, 0.000000000000000000 ) ) ;
#191 = MANIFOLD_SOLID_BREP ( 'Revolve - Cutting Edge', #257 ) ;
#192 = SURFACE_STYLE_USAGE ( .BOTH. , #146 ) ;
#193 = FILL_AREA_STYLE ('',( #284 ) ) ;
#194 = AXIS2_PLACEMENT_3D ( 'NONE', #24, #197, #121 ) ;
#195 = COLOUR_RGB ( '',1.000000000000000000, 0.000000000000000000, 0.000000000000000000 ) ;
#196 = LENGTH_MEASURE_WITH_UNIT ( LENGTH_MEASURE( 0.02539999999999999897 ), #63 );
#197 = DIRECTION ( 'NONE',  ( -0.000000000000000000, -1.000000000000000000, -0.000000000000000000 ) ) ;
#198 =( NAMED_UNIT ( * ) SI_UNIT ( $, .STERADIAN. ) SOLID_ANGLE_UNIT ( ) );
#199 = FACE_OUTER_BOUND ( 'NONE', #57, .T. ) ;
#200 = DIRECTION ( 'NONE',  ( -5.156407575357275299E-17, 1.000000000000000000, -0.000000000000000000 ) ) ;
#201 = AXIS2_PLACEMENT_3D ( 'NONE', #45, #219, #172 ) ;
#202 = VERTEX_POINT ( 'NONE', #239 ) ;
#203 = EDGE_LOOP ( 'NONE', ( #287, #222 ) ) ;
#204 = EDGE_LOOP ( 'NONE', ( #273, #155, #246, #175 ) ) ;
#205 = SURFACE_STYLE_FILL_AREA ( #14 ) ;
#206 = LENGTH_MEASURE_WITH_UNIT ( LENGTH_MEASURE( 0.02539999999999999897 ), #37 );
#207 = CARTESIAN_POINT ( 'NONE',  ( 0.3749999999999999445, 4.000000000000000000, 4.592425496802576068E-17 ) ) ;
#208 = CIRCLE ( 'NONE', #243, 0.3750000000000000555 ) ;
#209 = ADVANCED_FACE ( 'NONE', ( #199 ), #126, .T. ) ;
#210 = CARTESIAN_POINT ( 'NONE',  ( 4.592425496802575451E-17, 0.000000000000000000, 0.3750000000000000555 ) ) ;
#211 = VECTOR ( 'NONE', #256, 39.37007874015748143 ) ;
#212 = CIRCLE ( 'NONE', #140, 0.3750000000000000555 ) ;
#213 = CYLINDRICAL_SURFACE ( 'NONE', #85, 0.3750000000000000555 ) ;
#214 = SURFACE_SIDE_STYLE ('',( #123 ) ) ;
#215 =( NAMED_UNIT ( * ) PLANE_ANGLE_UNIT ( ) SI_UNIT ( $, .RADIAN. ) );
#216 = STYLED_ITEM ( 'NONE', ( #255 ), #191 ) ;
#217 = DIRECTION ( 'NONE',  ( -1.000000000000000000, 0.000000000000000000, 0.000000000000000000 ) ) ;
#218 = EDGE_CURVE ( 'NONE', #127, #250, #119, .T. ) ;
#219 = DIRECTION ( 'NONE',  ( -5.156407575357275299E-17, 1.000000000000000000, -0.000000000000000000 ) ) ;
#220 =( NAMED_UNIT ( * ) SI_UNIT ( $, .STERADIAN. ) SOLID_ANGLE_UNIT ( ) );
#221 = ADVANCED_FACE ( 'NONE', ( #296 ), #137, .T. ) ;
#222 = ORIENTED_EDGE ( 'NONE', *, *, #236, .F. ) ;
#223 = DIRECTION ( 'NONE',  ( 0.000000000000000000, 1.000000000000000000, 0.000000000000000000 ) ) ;
#224 = DIRECTION ( 'NONE',  ( -5.156407575357275916E-17, 1.000000000000000000, 0.000000000000000000 ) ) ;
#225 = CARTESIAN_POINT ( 'NONE',  ( 0.000000000000000000, 1.625000000000000000, 0.000000000000000000 ) ) ;
#226 = ORIENTED_EDGE ( 'NONE', *, *, #5, .F. ) ;
#227 = ORIENTED_EDGE ( 'NONE', *, *, #25, .T. ) ;
#228 = UNCERTAINTY_MEASURE_WITH_UNIT (LENGTH_MEASURE( 1.000000000000000082E-05 ), #240, 'distance_accuracy_value', 'NONE');
#229 = DIMENSIONAL_EXPONENTS ( 1.000000000000000000, 0.000000000000000000, 0.000000000000000000, 0.000000000000000000, 0.000000000000000000, 0.000000000000000000, 0.000000000000000000 ) ;
#230 = CARTESIAN_POINT ( 'NONE',  ( -1.224646799147352714E-16, 4.000000000000000000, 0.000000000000000000 ) ) ;
#231 = CARTESIAN_POINT ( 'NONE',  ( 0.000000000000000000, 0.000000000000000000, 0.000000000000000000 ) ) ;
#232 = LENGTH_MEASURE_WITH_UNIT ( LENGTH_MEASURE( 0.02539999999999999897 ), #95 );
#233 = DIRECTION ( 'NONE',  ( 1.000000000000000000, 5.156407575357275916E-17, 0.000000000000000000 ) ) ;
#234 = STYLED_ITEM ( 'NONE', ( #150 ), #184 ) ;
#235 =( GEOMETRIC_REPRESENTATION_CONTEXT ( 3 ) GLOBAL_UNCERTAINTY_ASSIGNED_CONTEXT ( ( #228 ) ) GLOBAL_UNIT_ASSIGNED_CONTEXT ( ( #240, #122, #48 ) ) REPRESENTATION_CONTEXT ( 'NONE', 'WORKASPACE' ) );
#236 = EDGE_CURVE ( 'NONE', #34, #202, #212, .T. ) ;
#237 = MECHANICAL_DESIGN_GEOMETRIC_PRESENTATION_REPRESENTATION (  '', ( #297 ), #66 ) ;
#238 = COLOUR_RGB ( '',1.000000000000000000, 0.000000000000000000, 0.000000000000000000 ) ;
#239 = CARTESIAN_POINT ( 'NONE',  ( -0.3750000000000000555, 1.625000000000000000, 0.000000000000000000 ) ) ;
#240 =( CONVERSION_BASED_UNIT ( 'INCH', #196 ) LENGTH_UNIT ( ) NAMED_UNIT ( #183 ) );
#241 = CLOSED_SHELL ( 'NONE', ( #98, #29, #154, #96 ) ) ;
#242 = PRESENTATION_LAYER_ASSIGNMENT (  '', '', ( #216 ) ) ;
#243 = AXIS2_PLACEMENT_3D ( 'NONE', #225, #23, #189 ) ;
#244 =( CONVERSION_BASED_UNIT ( 'INCH', #74 ) LENGTH_UNIT ( ) NAMED_UNIT ( #160 ) );
#245 = ORIENTED_EDGE ( 'NONE', *, *, #90, .F. ) ;
#246 = ORIENTED_EDGE ( 'NONE', *, *, #130, .F. ) ;
#247 = ORIENTED_EDGE ( 'NONE', *, *, #236, .T. ) ;
#248 = ORIENTED_EDGE ( 'NONE', *, *, #25, .F. ) ;
#249 =( NAMED_UNIT ( * ) SI_UNIT ( $, .STERADIAN. ) SOLID_ANGLE_UNIT ( ) );
#250 = VERTEX_POINT ( 'NONE', #178 ) ;
#251 = AXIS2_PLACEMENT_3D ( 'NONE', #147, #171, #157 ) ;
#252 = DIRECTION ( 'NONE',  ( 0.000000000000000000, 0.000000000000000000, -1.000000000000000000 ) ) ;
#253 = SURFACE_STYLE_USAGE ( .BOTH. , #161 ) ;
#254 = DIMENSIONAL_EXPONENTS ( 1.000000000000000000, 0.000000000000000000, 0.000000000000000000, 0.000000000000000000, 0.000000000000000000, 0.000000000000000000, 0.000000000000000000 ) ;
#255 = PRESENTATION_STYLE_ASSIGNMENT (( #61 ) ) ;
#256 = DIRECTION ( 'NONE',  ( -5.156407575357275916E-17, 1.000000000000000000, -0.000000000000000000 ) ) ;
#257 = CLOSED_SHELL ( 'NONE', ( #184, #145, #221, #209 ) ) ;
#258 = CARTESIAN_POINT ( 'NONE',  ( 0.000000000000000000, 1.625000000000000000, -0.3750000000000000555 ) ) ;
#259 = CYLINDRICAL_SURFACE ( 'NONE', #19, 0.3750000000000001110 ) ;
#260 = FILL_AREA_STYLE ('',( #166 ) ) ;
#261 = FILL_AREA_STYLE_COLOUR ( '', #54 ) ;
#262 = SURFACE_STYLE_USAGE ( .BOTH. , #168 ) ;
#263 = DIRECTION ( 'NONE',  ( -1.000000000000000000, 0.000000000000000000, 0.000000000000000000 ) ) ;
#264 = PRESENTATION_STYLE_ASSIGNMENT (( #192 ) ) ;
#265 = CARTESIAN_POINT ( 'NONE',  ( 3.032960542342103792E-32, 1.625000000000000000, 0.000000000000000000 ) ) ;
#266 = STYLED_ITEM ( 'NONE', ( #113 ), #83 ) ;
#267 = MECHANICAL_DESIGN_GEOMETRIC_PRESENTATION_REPRESENTATION (  '', ( #134 ), #39 ) ;
#268 = DIRECTION ( 'NONE',  ( -5.156407575357275299E-17, 1.000000000000000000, -0.000000000000000000 ) ) ;
#269 = ORIENTED_EDGE ( 'NONE', *, *, #40, .T. ) ;
#270 =( CONVERSION_BASED_UNIT ( 'INCH', #288 ) LENGTH_UNIT ( ) NAMED_UNIT ( #229 ) );
#271 = ORIENTED_EDGE ( 'NONE', *, *, #42, .F. ) ;
#272 = UNCERTAINTY_MEASURE_WITH_UNIT (LENGTH_MEASURE( 1.000000000000000082E-05 ), #43, 'distance_accuracy_value', 'NONE');
#273 = ORIENTED_EDGE ( 'NONE', *, *, #21, .T. ) ;
#274 =( NAMED_UNIT ( * ) SI_UNIT ( $, .STERADIAN. ) SOLID_ANGLE_UNIT ( ) );
#275 = CARTESIAN_POINT ( 'NONE',  ( 0.3750000000000000555, 4.000000000000000000, 0.000000000000000000 ) ) ;
#276 =( GEOMETRIC_REPRESENTATION_CONTEXT ( 3 ) GLOBAL_UNCERTAINTY_ASSIGNED_CONTEXT ( ( #272 ) ) GLOBAL_UNIT_ASSIGNED_CONTEXT ( ( #43, #20, #114 ) ) REPRESENTATION_CONTEXT ( 'NONE', 'WORKASPACE' ) );
#277 =( CONVERSION_BASED_UNIT ( 'INCH', #87 ) LENGTH_UNIT ( ) NAMED_UNIT ( #254 ) );
#278 = DIRECTION ( 'NONE',  ( 0.000000000000000000, -1.000000000000000000, -0.000000000000000000 ) ) ;
#279 = DIRECTION ( 'NONE',  ( 5.156407575357275916E-17, -1.000000000000000000, 0.000000000000000000 ) ) ;
#280 = APPLICATION_CONTEXT ( 'automotive_design' ) ;
#281 = PRODUCT_DEFINITION ( 'UNKNOWN', '', #3, #92 ) ;
#282 = CIRCLE ( 'NONE', #251, 0.3750000000000000555 ) ;
#283 = FILL_AREA_STYLE_COLOUR ( '', #195 ) ;
#284 = FILL_AREA_STYLE_COLOUR ( '', #124 ) ;
#285 = VECTOR ( 'NONE', #13, 39.37007874015748143 ) ;
#286 = MECHANICAL_DESIGN_GEOMETRIC_PRESENTATION_REPRESENTATION (  '', ( #89 ), #276 ) ;
#287 = ORIENTED_EDGE ( 'NONE', *, *, #21, .F. ) ;
#288 = LENGTH_MEASURE_WITH_UNIT ( LENGTH_MEASURE( 0.02539999999999999897 ), #10 );
#289 = SURFACE_STYLE_FILL_AREA ( #132 ) ;
#290 = ORIENTED_EDGE ( 'NONE', *, *, #40, .F. ) ;
#291 =( NAMED_UNIT ( * ) PLANE_ANGLE_UNIT ( ) SI_UNIT ( $, .RADIAN. ) );
#292 = MECHANICAL_DESIGN_GEOMETRIC_PRESENTATION_REPRESENTATION (  '', ( #234 ), #163 ) ;
#293 = ORIENTED_EDGE ( 'NONE', *, *, #158, .T. ) ;
#294 = DIMENSIONAL_EXPONENTS ( 1.000000000000000000, 0.000000000000000000, 0.000000000000000000, 0.000000000000000000, 0.000000000000000000, 0.000000000000000000, 0.000000000000000000 ) ;
#295 =( CONVERSION_BASED_UNIT ( 'INCH', #232 ) LENGTH_UNIT ( ) NAMED_UNIT ( #294 ) );
#296 = FACE_OUTER_BOUND ( 'NONE', #6, .T. ) ;
#297 = STYLED_ITEM ( 'NONE', ( #120 ), #145 ) ;
#298 = FACE_OUTER_BOUND ( 'NONE', #204, .T. ) ;
#299 = SHAPE_DEFINITION_REPRESENTATION ( #46, #78 ) ;
#300 = UNCERTAINTY_MEASURE_WITH_UNIT (LENGTH_MEASURE( 1.000000000000000082E-05 ), #277, 'distance_accuracy_value', 'NONE');
#301 = SURFACE_SIDE_STYLE ('',( #205 ) ) ;
#302 = CARTESIAN_POINT ( 'NONE',  ( 0.000000000000000000, 0.000000000000000000, -0.3750000000000000555 ) ) ;
#303 = EDGE_CURVE ( 'NONE', #127, #152, #208, .T. ) ;
#304 = DIRECTION ( 'NONE',  ( 0.000000000000000000, 0.000000000000000000, -1.000000000000000000 ) ) ;
#305 =( GEOMETRIC_REPRESENTATION_CONTEXT ( 3 ) GLOBAL_UNCERTAINTY_ASSIGNED_CONTEXT ( ( #300 ) ) GLOBAL_UNIT_ASSIGNED_CONTEXT ( ( #277, #136, #181 ) ) REPRESENTATION_CONTEXT ( 'NONE', 'WORKASPACE' ) );
#306 = PRESENTATION_LAYER_ASSIGNMENT (  '', '', ( #134 ) ) ;
#307 =( LENGTH_UNIT ( ) NAMED_UNIT ( * ) SI_UNIT ( $, .METRE. ) );
#308 = LENGTH_MEASURE_WITH_UNIT ( LENGTH_MEASURE( 0.02539999999999999897 ), #167 );
#309 = FACE_OUTER_BOUND ( 'NONE', #177, .T. ) ;
ENDSEC;
END-ISO-10303-21;
