ISO-10303-21;
HEADER;
FILE_DESCRIPTION (( 'STEP AP214' ),
    '1' );
FILE_NAME ('59638.STEP',
    '2023-07-24T15:51:14',
    ( '' ),
    ( '' ),
    'SwSTEP 2.0',
    'SolidWorks 2023',
    '' );
FILE_SCHEMA (( 'AUTOMOTIVE_DESIGN' ));
ENDSEC;

DATA;
#1 = DIRECTION ( 'NONE',  ( 1.000000000000000000, -3.061616997868382402E-17, 0.000000000000000000 ) ) ;
#2 = APPLICATION_CONTEXT ( 'automotive_design' ) ;
#3 = CARTESIAN_POINT ( 'NONE',  ( 0.000000000000000000, 0.000000000000000000, -5.000000000000000000 ) ) ;
#4 = ORIENTED_EDGE ( 'NONE', *, *, #175, .F. ) ;
#5 = DIRECTION ( 'NONE',  ( -0.000000000000000000, -1.000000000000000000, -0.000000000000000000 ) ) ;
#6 = ORIENTED_EDGE ( 'NONE', *, *, #126, .F. ) ;
#7 = ORIENTED_EDGE ( 'NONE', *, *, #115, .F. ) ;
#8 = FILL_AREA_STYLE_COLOUR ( '', #151 ) ;
#9 = FACE_OUTER_BOUND ( 'NONE', #166, .T. ) ;
#10 = CARTESIAN_POINT ( 'NONE',  ( 0.000000000000000000, 15.00000000000000000, -5.000000000000000000 ) ) ;
#11 = STYLED_ITEM ( 'NONE', ( #28 ), #285 ) ;
#12 = MECHANICAL_DESIGN_GEOMETRIC_PRESENTATION_REPRESENTATION (  '', ( #219 ), #287 ) ;
#13 =( LENGTH_UNIT ( ) NAMED_UNIT ( * ) SI_UNIT ( .MILLI., .METRE. ) );
#14 = SURFACE_STYLE_FILL_AREA ( #63 ) ;
#15 = CARTESIAN_POINT ( 'NONE',  ( -4.999999999999996447, 63.00000000000000000, 0.000000000000000000 ) ) ;
#16 = DIRECTION ( 'NONE',  ( -0.000000000000000000, -1.000000000000000000, -0.000000000000000000 ) ) ;
#17 = CIRCLE ( 'NONE', #248, 5.000000000000000000 ) ;
#18 =( NAMED_UNIT ( * ) SI_UNIT ( $, .STERADIAN. ) SOLID_ANGLE_UNIT ( ) );
#19 = APPLICATION_CONTEXT ( 'automotive_design' ) ;
#20 = CYLINDRICAL_SURFACE ( 'NONE', #178, 4.999999999999999112 ) ;
#21 = CARTESIAN_POINT ( 'NONE',  ( 5.000000000000000000, 63.00000000000000000, 0.000000000000000000 ) ) ;
#22 = DIRECTION ( 'NONE',  ( 1.000000000000000000, 0.000000000000000000, 0.000000000000000000 ) ) ;
#23 = CARTESIAN_POINT ( 'NONE',  ( 6.123233995736766282E-16, 15.00000000000000000, 5.000000000000000000 ) ) ;
#24 = EDGE_LOOP ( 'NONE', ( #112, #255 ) ) ;
#25 = PRESENTATION_LAYER_ASSIGNMENT (  '', '', ( #184 ) ) ;
#26 = EDGE_CURVE ( 'NONE', #246, #54, #251, .T. ) ;
#27 = CARTESIAN_POINT ( 'NONE',  ( 0.000000000000000000, 0.000000000000000000, -5.000000000000000000 ) ) ;
#28 = PRESENTATION_STYLE_ASSIGNMENT (( #228 ) ) ;
#29 = AXIS2_PLACEMENT_3D ( 'NONE', #179, #270, #282 ) ;
#30 = ADVANCED_FACE ( 'NONE', ( #36 ), #93, .F. ) ;
#31 = COLOUR_RGB ( '',1.000000000000000000, 0.000000000000000000, 0.000000000000000000 ) ;
#32 = ORIENTED_EDGE ( 'NONE', *, *, #126, .T. ) ;
#33 = DIRECTION ( 'NONE',  ( 3.061616997868382402E-17, 1.000000000000000000, -0.000000000000000000 ) ) ;
#34 =( NAMED_UNIT ( * ) SI_UNIT ( $, .STERADIAN. ) SOLID_ANGLE_UNIT ( ) );
#35 = PRODUCT ( '59638', '59638', '', ( #92 ) ) ;
#36 = FACE_OUTER_BOUND ( 'NONE', #140, .T. ) ;
#37 = AXIS2_PLACEMENT_3D ( 'NONE', #249, #271, #22 ) ;
#38 = AXIS2_PLACEMENT_3D ( 'NONE', #148, #235, #84 ) ;
#39 = UNCERTAINTY_MEASURE_WITH_UNIT (LENGTH_MEASURE( 1.000000000000000082E-05 ), #214, 'distance_accuracy_value', 'NONE');
#40 = CARTESIAN_POINT ( 'NONE',  ( 0.000000000000000000, 15.00000000000000000, 0.000000000000000000 ) ) ;
#41 = CARTESIAN_POINT ( 'NONE',  ( 0.000000000000000000, 15.00000000000000000, 0.000000000000000000 ) ) ;
#42 =( LENGTH_UNIT ( ) NAMED_UNIT ( * ) SI_UNIT ( .MILLI., .METRE. ) );
#43 = DIRECTION ( 'NONE',  ( 3.061616997868382402E-17, 1.000000000000000000, -0.000000000000000000 ) ) ;
#44 = AXIS2_PLACEMENT_3D ( 'NONE', #258, #168, #284 ) ;
#45 = LINE ( 'NONE', #91, #231 ) ;
#46 = APPLICATION_PROTOCOL_DEFINITION ( 'draft international standard', 'automotive_design', 1998, #2 ) ;
#47 = CARTESIAN_POINT ( 'NONE',  ( 1.469576158976823750E-15, 63.00000000000000000, 0.000000000000000000 ) ) ;
#48 = ORIENTED_EDGE ( 'NONE', *, *, #196, .T. ) ;
#49 = APPLICATION_PROTOCOL_DEFINITION ( 'draft international standard', 'automotive_design', 1998, #19 ) ;
#50 = PRESENTATION_STYLE_ASSIGNMENT (( #139 ) ) ;
#51 = AXIS2_PLACEMENT_3D ( 'NONE', #21, #223, #1 ) ;
#52 = AXIS2_PLACEMENT_3D ( 'NONE', #40, #124, #58 ) ;
#53 = SURFACE_SIDE_STYLE ('',( #229 ) ) ;
#54 = VERTEX_POINT ( 'NONE', #10 ) ;
#55 = AXIS2_PLACEMENT_3D ( 'NONE', #114, #150, #104 ) ;
#56 = EDGE_LOOP ( 'NONE', ( #109, #176 ) ) ;
#57 = CLOSED_SHELL ( 'NONE', ( #285, #85, #277, #154 ) ) ;
#58 = DIRECTION ( 'NONE',  ( 0.000000000000000000, -0.000000000000000000, 1.000000000000000000 ) ) ;
#59 = CARTESIAN_POINT ( 'NONE',  ( 0.000000000000000000, 15.00000000000000000, 0.000000000000000000 ) ) ;
#60 = DIRECTION ( 'NONE',  ( 3.061616997868382402E-17, 1.000000000000000000, -0.000000000000000000 ) ) ;
#61 = AXIS2_PLACEMENT_3D ( 'NONE', #90, #174, #125 ) ;
#62 = COLOUR_RGB ( '',1.000000000000000000, 0.000000000000000000, 0.000000000000000000 ) ;
#63 = FILL_AREA_STYLE ('',( #181 ) ) ;
#64 = CYLINDRICAL_SURFACE ( 'NONE', #38, 4.999999999999999112 ) ;
#65 = CARTESIAN_POINT ( 'NONE',  ( 5.000000000000000000, 15.00000000000000000, 6.123233995736766282E-16 ) ) ;
#66 =( GEOMETRIC_REPRESENTATION_CONTEXT ( 3 ) GLOBAL_UNCERTAINTY_ASSIGNED_CONTEXT ( ( #107 ) ) GLOBAL_UNIT_ASSIGNED_CONTEXT ( ( #250, #209, #142 ) ) REPRESENTATION_CONTEXT ( 'NONE', 'WORKASPACE' ) );
#67 = PLANE ( 'NONE',  #51 ) ;
#68 = FACE_OUTER_BOUND ( 'NONE', #71, .T. ) ;
#69 = VECTOR ( 'NONE', #43, 1000.000000000000000 ) ;
#70 = AXIS2_PLACEMENT_3D ( 'NONE', #212, #60, #145 ) ;
#71 = EDGE_LOOP ( 'NONE', ( #244, #186, #224, #4 ) ) ;
#72 = MANIFOLD_SOLID_BREP ( 'Revolve - Cutting Edge', #57 ) ;
#73 = DIRECTION ( 'NONE',  ( -0.000000000000000000, -1.000000000000000000, -0.000000000000000000 ) ) ;
#74 =( GEOMETRIC_REPRESENTATION_CONTEXT ( 3 ) GLOBAL_UNCERTAINTY_ASSIGNED_CONTEXT ( ( #220 ) ) GLOBAL_UNIT_ASSIGNED_CONTEXT ( ( #135, #210, #158 ) ) REPRESENTATION_CONTEXT ( 'NONE', 'WORKASPACE' ) );
#75 = DIRECTION ( 'NONE',  ( 0.000000000000000000, 0.000000000000000000, -1.000000000000000000 ) ) ;
#76 = PRESENTATION_LAYER_ASSIGNMENT (  '', '', ( #103 ) ) ;
#77 = LINE ( 'NONE', #105, #273 ) ;
#78 = DIRECTION ( 'NONE',  ( 0.000000000000000000, 0.000000000000000000, -1.000000000000000000 ) ) ;
#79 = UNCERTAINTY_MEASURE_WITH_UNIT (LENGTH_MEASURE( 1.000000000000000082E-05 ), #185, 'distance_accuracy_value', 'NONE');
#80 = PRESENTATION_STYLE_ASSIGNMENT (( #119 ) ) ;
#81 = SURFACE_SIDE_STYLE ('',( #195 ) ) ;
#82 = COLOUR_RGB ( '',0.7921568627450980005, 0.8196078431372548767, 0.9333333333333333481 ) ;
#83 = CIRCLE ( 'NONE', #55, 4.999999999999998224 ) ;
#84 = DIRECTION ( 'NONE',  ( -1.000000000000000000, 0.000000000000000000, 0.000000000000000000 ) ) ;
#85 = ADVANCED_FACE ( 'NONE', ( #206 ), #208, .T. ) ;
#86 = CARTESIAN_POINT ( 'NONE',  ( 0.000000000000000000, 0.000000000000000000, 0.000000000000000000 ) ) ;
#87 = LINE ( 'NONE', #3, #205 ) ;
#88 = AXIS2_PLACEMENT_3D ( 'NONE', #161, #73, #75 ) ;
#89 = CLOSED_SHELL ( 'NONE', ( #230, #30, #110, #239 ) ) ;
#90 = CARTESIAN_POINT ( 'NONE',  ( 0.000000000000000000, 15.00000000000000000, 0.000000000000000000 ) ) ;
#91 = CARTESIAN_POINT ( 'NONE',  ( -4.999999999999997335, 63.00000000000000000, 0.000000000000000000 ) ) ;
#92 = PRODUCT_CONTEXT ( 'NONE', #2, 'mechanical' ) ;
#93 = PLANE ( 'NONE',  #29 ) ;
#94 = FILL_AREA_STYLE_COLOUR ( '', #31 ) ;
#95 = PRESENTATION_LAYER_ASSIGNMENT (  '', '', ( #11 ) ) ;
#96 = CYLINDRICAL_SURFACE ( 'NONE', #121, 5.000000000000000000 ) ;
#97 = PRESENTATION_LAYER_ASSIGNMENT (  '', '', ( #232 ) ) ;
#98 = EDGE_LOOP ( 'NONE', ( #188, #266, #153, #222 ) ) ;
#99 = SURFACE_STYLE_FILL_AREA ( #183 ) ;
#100 = VERTEX_POINT ( 'NONE', #238 ) ;
#101 = ORIENTED_EDGE ( 'NONE', *, *, #133, .T. ) ;
#102 = PRODUCT_RELATED_PRODUCT_CATEGORY ( 'part', '', ( #35 ) ) ;
#103 = STYLED_ITEM ( 'NONE', ( #200 ), #277 ) ;
#104 = DIRECTION ( 'NONE',  ( -1.000000000000000000, 0.000000000000000000, 0.000000000000000000 ) ) ;
#105 = CARTESIAN_POINT ( 'NONE',  ( 6.123233995736766282E-16, 0.000000000000000000, 5.000000000000000000 ) ) ;
#106 = MECHANICAL_DESIGN_GEOMETRIC_PRESENTATION_REPRESENTATION (  '', ( #232 ), #167 ) ;
#107 = UNCERTAINTY_MEASURE_WITH_UNIT (LENGTH_MEASURE( 1.000000000000000082E-05 ), #250, 'distance_accuracy_value', 'NONE');
#108 = DIRECTION ( 'NONE',  ( 3.061616997868382402E-17, 1.000000000000000000, -0.000000000000000000 ) ) ;
#109 = ORIENTED_EDGE ( 'NONE', *, *, #243, .T. ) ;
#110 = ADVANCED_FACE ( 'NONE', ( #191 ), #64, .T. ) ;
#111 = ORIENTED_EDGE ( 'NONE', *, *, #267, .T. ) ;
#112 = ORIENTED_EDGE ( 'NONE', *, *, #196, .F. ) ;
#113 = AXIS2_PLACEMENT_3D ( 'NONE', #279, #16, #190 ) ;
#114 = CARTESIAN_POINT ( 'NONE',  ( 1.469576158976823750E-15, 63.00000000000000000, 0.000000000000000000 ) ) ;
#115 = EDGE_CURVE ( 'NONE', #198, #100, #171, .T. ) ;
#116 =( LENGTH_UNIT ( ) NAMED_UNIT ( * ) SI_UNIT ( .MILLI., .METRE. ) );
#117 = CIRCLE ( 'NONE', #134, 5.000000000000000000 ) ;
#118 = DIRECTION ( 'NONE',  ( -0.000000000000000000, -1.000000000000000000, -0.000000000000000000 ) ) ;
#119 = SURFACE_STYLE_USAGE ( .BOTH. , #143 ) ;
#120 = SURFACE_STYLE_USAGE ( .BOTH. , #81 ) ;
#121 = AXIS2_PLACEMENT_3D ( 'NONE', #86, #118, #199 ) ;
#122 =( GEOMETRIC_REPRESENTATION_CONTEXT ( 3 ) GLOBAL_UNCERTAINTY_ASSIGNED_CONTEXT ( ( #241 ) ) GLOBAL_UNIT_ASSIGNED_CONTEXT ( ( #42, #218, #34 ) ) REPRESENTATION_CONTEXT ( 'NONE', 'WORKASPACE' ) );
#123 = FACE_OUTER_BOUND ( 'NONE', #128, .T. ) ;
#124 = DIRECTION ( 'NONE',  ( 0.000000000000000000, 1.000000000000000000, 0.000000000000000000 ) ) ;
#125 = DIRECTION ( 'NONE',  ( -1.000000000000000000, 0.000000000000000000, 0.000000000000000000 ) ) ;
#126 = EDGE_CURVE ( 'NONE', #280, #226, #157, .T. ) ;
#127 = CYLINDRICAL_SURFACE ( 'NONE', #88, 5.000000000000000000 ) ;
#128 = EDGE_LOOP ( 'NONE', ( #32, #130 ) ) ;
#129 = FACE_OUTER_BOUND ( 'NONE', #56, .T. ) ;
#130 = ORIENTED_EDGE ( 'NONE', *, *, #175, .T. ) ;
#131 =( NAMED_UNIT ( * ) SI_UNIT ( $, .STERADIAN. ) SOLID_ANGLE_UNIT ( ) );
#132 = PRODUCT_DEFINITION_FORMATION_WITH_SPECIFIED_SOURCE ( 'ANY', '', #35, .NOT_KNOWN. ) ;
#133 = EDGE_CURVE ( 'NONE', #246, #226, #77, .T. ) ;
#134 = AXIS2_PLACEMENT_3D ( 'NONE', #41, #242, #240 ) ;
#135 =( LENGTH_UNIT ( ) NAMED_UNIT ( * ) SI_UNIT ( .MILLI., .METRE. ) );
#136 = SURFACE_STYLE_FILL_AREA ( #274 ) ;
#137 = PRESENTATION_STYLE_ASSIGNMENT (( #254 ) ) ;
#138 = VERTEX_POINT ( 'NONE', #256 ) ;
#139 = SURFACE_STYLE_USAGE ( .BOTH. , #180 ) ;
#140 = EDGE_LOOP ( 'NONE', ( #264, #7 ) ) ;
#141 =( GEOMETRIC_REPRESENTATION_CONTEXT ( 3 ) GLOBAL_UNCERTAINTY_ASSIGNED_CONTEXT ( ( #189 ) ) GLOBAL_UNIT_ASSIGNED_CONTEXT ( ( #116, #275, #164 ) ) REPRESENTATION_CONTEXT ( 'NONE', 'WORKASPACE' ) );
#142 =( NAMED_UNIT ( * ) SI_UNIT ( $, .STERADIAN. ) SOLID_ANGLE_UNIT ( ) );
#143 = SURFACE_SIDE_STYLE ('',( #14 ) ) ;
#144 = EDGE_LOOP ( 'NONE', ( #233, #202, #111, #213 ) ) ;
#145 = DIRECTION ( 'NONE',  ( -1.000000000000000000, 0.000000000000000000, 0.000000000000000000 ) ) ;
#146 = PRODUCT_DEFINITION_SHAPE ( 'NONE', 'NONE',  #252 ) ;
#147 = UNCERTAINTY_MEASURE_WITH_UNIT (LENGTH_MEASURE( 1.000000000000000082E-05 ), #13, 'distance_accuracy_value', 'NONE');
#148 = CARTESIAN_POINT ( 'NONE',  ( 1.469576158976823750E-15, 63.00000000000000000, 0.000000000000000000 ) ) ;
#149 = EDGE_CURVE ( 'NONE', #138, #211, #193, .T. ) ;
#150 = DIRECTION ( 'NONE',  ( 3.061616997868382402E-17, 1.000000000000000000, -0.000000000000000000 ) ) ;
#151 = COLOUR_RGB ( '',0.7921568627450980005, 0.8196078431372548767, 0.9333333333333333481 ) ;
#152 = CARTESIAN_POINT ( 'NONE',  ( 6.123233995736766282E-16, 0.000000000000000000, 5.000000000000000000 ) ) ;
#153 = ORIENTED_EDGE ( 'NONE', *, *, #243, .F. ) ;
#154 = ADVANCED_FACE ( 'NONE', ( #123 ), #169, .T. ) ;
#155 = FILL_AREA_STYLE_COLOUR ( '', #225 ) ;
#156 = PRESENTATION_LAYER_ASSIGNMENT (  '', '', ( #173 ) ) ;
#157 = CIRCLE ( 'NONE', #113, 5.000000000000000000 ) ;
#158 =( NAMED_UNIT ( * ) SI_UNIT ( $, .STERADIAN. ) SOLID_ANGLE_UNIT ( ) );
#159 = MANIFOLD_SOLID_BREP ( 'Revolve - Tool Body (Straight Shanked)', #89 ) ;
#160 =( GEOMETRIC_REPRESENTATION_CONTEXT ( 3 ) GLOBAL_UNCERTAINTY_ASSIGNED_CONTEXT ( ( #39 ) ) GLOBAL_UNIT_ASSIGNED_CONTEXT ( ( #214, #234, #18 ) ) REPRESENTATION_CONTEXT ( 'NONE', 'WORKASPACE' ) );
#161 = CARTESIAN_POINT ( 'NONE',  ( 0.000000000000000000, 0.000000000000000000, 0.000000000000000000 ) ) ;
#162 = CARTESIAN_POINT ( 'NONE',  ( 0.000000000000000000, 0.000000000000000000, 0.000000000000000000 ) ) ;
#163 = EDGE_CURVE ( 'NONE', #54, #280, #87, .T. ) ;
#164 =( NAMED_UNIT ( * ) SI_UNIT ( $, .STERADIAN. ) SOLID_ANGLE_UNIT ( ) );
#165 = CIRCLE ( 'NONE', #61, 5.000000000000000000 ) ;
#166 = EDGE_LOOP ( 'NONE', ( #48, #101, #6, #278 ) ) ;
#167 =( GEOMETRIC_REPRESENTATION_CONTEXT ( 3 ) GLOBAL_UNCERTAINTY_ASSIGNED_CONTEXT ( ( #147 ) ) GLOBAL_UNIT_ASSIGNED_CONTEXT ( ( #13, #257, #215 ) ) REPRESENTATION_CONTEXT ( 'NONE', 'WORKASPACE' ) );
#168 = DIRECTION ( 'NONE',  ( 0.000000000000000000, -1.000000000000000000, -0.000000000000000000 ) ) ;
#169 = PLANE ( 'NONE',  #44 ) ;
#170 = FILL_AREA_STYLE ('',( #260 ) ) ;
#171 = CIRCLE ( 'NONE', #269, 5.000000000000000000 ) ;
#172 = LINE ( 'NONE', #261, #69 ) ;
#173 = STYLED_ITEM ( 'NONE', ( #50 ), #72 ) ;
#174 = DIRECTION ( 'NONE',  ( 3.061616997868382402E-17, 1.000000000000000000, -0.000000000000000000 ) ) ;
#175 = EDGE_CURVE ( 'NONE', #226, #280, #17, .T. ) ;
#176 = ORIENTED_EDGE ( 'NONE', *, *, #149, .T. ) ;
#177 = DIRECTION ( 'NONE',  ( 3.061616997868382402E-17, 1.000000000000000000, -0.000000000000000000 ) ) ;
#178 = AXIS2_PLACEMENT_3D ( 'NONE', #47, #108, #197 ) ;
#179 = CARTESIAN_POINT ( 'NONE',  ( 2.343374660409151486E-33, 15.00000000000000000, 0.000000000000000000 ) ) ;
#180 = SURFACE_SIDE_STYLE ('',( #99 ) ) ;
#181 = FILL_AREA_STYLE_COLOUR ( '', #82 ) ;
#182 = FILL_AREA_STYLE ('',( #94 ) ) ;
#183 = FILL_AREA_STYLE ('',( #8 ) ) ;
#184 = STYLED_ITEM ( 'NONE', ( #137 ), #85 ) ;
#185 =( LENGTH_UNIT ( ) NAMED_UNIT ( * ) SI_UNIT ( .MILLI., .METRE. ) );
#186 = ORIENTED_EDGE ( 'NONE', *, *, #26, .T. ) ;
#187 = MECHANICAL_DESIGN_GEOMETRIC_PRESENTATION_REPRESENTATION (  '', ( #103 ), #74 ) ;
#188 = ORIENTED_EDGE ( 'NONE', *, *, #227, .T. ) ;
#189 = UNCERTAINTY_MEASURE_WITH_UNIT (LENGTH_MEASURE( 1.000000000000000082E-05 ), #116, 'distance_accuracy_value', 'NONE');
#190 = DIRECTION ( 'NONE',  ( 0.000000000000000000, 0.000000000000000000, -1.000000000000000000 ) ) ;
#191 = FACE_OUTER_BOUND ( 'NONE', #144, .T. ) ;
#192 = PRESENTATION_LAYER_ASSIGNMENT (  '', '', ( #219 ) ) ;
#193 = CIRCLE ( 'NONE', #70, 4.999999999999998224 ) ;
#194 = FILL_AREA_STYLE ('',( #155 ) ) ;
#195 = SURFACE_STYLE_FILL_AREA ( #170 ) ;
#196 = EDGE_CURVE ( 'NONE', #54, #246, #117, .T. ) ;
#197 = DIRECTION ( 'NONE',  ( -1.000000000000000000, 0.000000000000000000, 0.000000000000000000 ) ) ;
#198 = VERTEX_POINT ( 'NONE', #65 ) ;
#199 = DIRECTION ( 'NONE',  ( 0.000000000000000000, 0.000000000000000000, -1.000000000000000000 ) ) ;
#200 = PRESENTATION_STYLE_ASSIGNMENT (( #245 ) ) ;
#201 = SHAPE_DEFINITION_REPRESENTATION ( #146, #203 ) ;
#202 = ORIENTED_EDGE ( 'NONE', *, *, #115, .T. ) ;
#203 = ADVANCED_BREP_SHAPE_REPRESENTATION ( '59638', ( #72, #159, #37 ), #160 ) ;
#204 = FACE_OUTER_BOUND ( 'NONE', #98, .T. ) ;
#205 = VECTOR ( 'NONE', #217, 1000.000000000000000 ) ;
#206 = FACE_OUTER_BOUND ( 'NONE', #24, .T. ) ;
#207 = MECHANICAL_DESIGN_GEOMETRIC_PRESENTATION_REPRESENTATION (  '', ( #184 ), #122 ) ;
#208 = PLANE ( 'NONE',  #52 ) ;
#209 =( NAMED_UNIT ( * ) PLANE_ANGLE_UNIT ( ) SI_UNIT ( $, .RADIAN. ) );
#210 =( NAMED_UNIT ( * ) PLANE_ANGLE_UNIT ( ) SI_UNIT ( $, .RADIAN. ) );
#211 = VERTEX_POINT ( 'NONE', #15 ) ;
#212 = CARTESIAN_POINT ( 'NONE',  ( 1.469576158976823750E-15, 63.00000000000000000, 0.000000000000000000 ) ) ;
#213 = ORIENTED_EDGE ( 'NONE', *, *, #149, .F. ) ;
#214 =( LENGTH_UNIT ( ) NAMED_UNIT ( * ) SI_UNIT ( .MILLI., .METRE. ) );
#215 =( NAMED_UNIT ( * ) SI_UNIT ( $, .STERADIAN. ) SOLID_ANGLE_UNIT ( ) );
#216 = EDGE_CURVE ( 'NONE', #198, #138, #172, .T. ) ;
#217 = DIRECTION ( 'NONE',  ( -0.000000000000000000, -1.000000000000000000, -0.000000000000000000 ) ) ;
#218 =( NAMED_UNIT ( * ) PLANE_ANGLE_UNIT ( ) SI_UNIT ( $, .RADIAN. ) );
#219 = STYLED_ITEM ( 'NONE', ( #80 ), #159 ) ;
#220 = UNCERTAINTY_MEASURE_WITH_UNIT (LENGTH_MEASURE( 1.000000000000000082E-05 ), #135, 'distance_accuracy_value', 'NONE');
#221 = SURFACE_STYLE_FILL_AREA ( #194 ) ;
#222 = ORIENTED_EDGE ( 'NONE', *, *, #267, .F. ) ;
#223 = DIRECTION ( 'NONE',  ( -3.061616997868382402E-17, -1.000000000000000000, 0.000000000000000000 ) ) ;
#224 = ORIENTED_EDGE ( 'NONE', *, *, #163, .T. ) ;
#225 = COLOUR_RGB ( '',1.000000000000000000, 0.000000000000000000, 0.000000000000000000 ) ;
#226 = VERTEX_POINT ( 'NONE', #152 ) ;
#227 = EDGE_CURVE ( 'NONE', #100, #198, #165, .T. ) ;
#228 = SURFACE_STYLE_USAGE ( .BOTH. , #272 ) ;
#229 = SURFACE_STYLE_FILL_AREA ( #182 ) ;
#230 = ADVANCED_FACE ( 'NONE', ( #204 ), #20, .T. ) ;
#231 = VECTOR ( 'NONE', #177, 1000.000000000000000 ) ;
#232 = STYLED_ITEM ( 'NONE', ( #236 ), #154 ) ;
#233 = ORIENTED_EDGE ( 'NONE', *, *, #216, .F. ) ;
#234 =( NAMED_UNIT ( * ) PLANE_ANGLE_UNIT ( ) SI_UNIT ( $, .RADIAN. ) );
#235 = DIRECTION ( 'NONE',  ( 3.061616997868382402E-17, 1.000000000000000000, -0.000000000000000000 ) ) ;
#236 = PRESENTATION_STYLE_ASSIGNMENT (( #120 ) ) ;
#237 = DIRECTION ( 'NONE',  ( -0.000000000000000000, -1.000000000000000000, -0.000000000000000000 ) ) ;
#238 = CARTESIAN_POINT ( 'NONE',  ( -5.000000000000000000, 15.00000000000000000, 0.000000000000000000 ) ) ;
#239 = ADVANCED_FACE ( 'NONE', ( #129 ), #67, .F. ) ;
#240 = DIRECTION ( 'NONE',  ( 0.000000000000000000, 0.000000000000000000, -1.000000000000000000 ) ) ;
#241 = UNCERTAINTY_MEASURE_WITH_UNIT (LENGTH_MEASURE( 1.000000000000000082E-05 ), #42, 'distance_accuracy_value', 'NONE');
#242 = DIRECTION ( 'NONE',  ( -0.000000000000000000, -1.000000000000000000, -0.000000000000000000 ) ) ;
#243 = EDGE_CURVE ( 'NONE', #211, #138, #83, .T. ) ;
#244 = ORIENTED_EDGE ( 'NONE', *, *, #133, .F. ) ;
#245 = SURFACE_STYLE_USAGE ( .BOTH. , #265 ) ;
#246 = VERTEX_POINT ( 'NONE', #23 ) ;
#247 = MECHANICAL_DESIGN_GEOMETRIC_PRESENTATION_REPRESENTATION (  '', ( #173 ), #141 ) ;
#248 = AXIS2_PLACEMENT_3D ( 'NONE', #162, #5, #262 ) ;
#249 = CARTESIAN_POINT ( 'NONE',  ( 0.000000000000000000, 0.000000000000000000, 0.000000000000000000 ) ) ;
#250 =( LENGTH_UNIT ( ) NAMED_UNIT ( * ) SI_UNIT ( .MILLI., .METRE. ) );
#251 = CIRCLE ( 'NONE', #263, 5.000000000000000000 ) ;
#252 = PRODUCT_DEFINITION ( 'UNKNOWN', '', #132, #283 ) ;
#253 = FILL_AREA_STYLE_COLOUR ( '', #268 ) ;
#254 = SURFACE_STYLE_USAGE ( .BOTH. , #53 ) ;
#255 = ORIENTED_EDGE ( 'NONE', *, *, #26, .F. ) ;
#256 = CARTESIAN_POINT ( 'NONE',  ( 5.000000000000000000, 63.00000000000000000, 6.123233995736766282E-16 ) ) ;
#257 =( NAMED_UNIT ( * ) PLANE_ANGLE_UNIT ( ) SI_UNIT ( $, .RADIAN. ) );
#258 = CARTESIAN_POINT ( 'NONE',  ( 0.000000000000000000, 0.000000000000000000, 0.000000000000000000 ) ) ;
#259 = MECHANICAL_DESIGN_GEOMETRIC_PRESENTATION_REPRESENTATION (  '', ( #11 ), #66 ) ;
#260 = FILL_AREA_STYLE_COLOUR ( '', #62 ) ;
#261 = CARTESIAN_POINT ( 'NONE',  ( 5.000000000000000888, 63.00000000000000000, 6.123233995736765296E-16 ) ) ;
#262 = DIRECTION ( 'NONE',  ( 0.000000000000000000, 0.000000000000000000, -1.000000000000000000 ) ) ;
#263 = AXIS2_PLACEMENT_3D ( 'NONE', #59, #237, #78 ) ;
#264 = ORIENTED_EDGE ( 'NONE', *, *, #227, .F. ) ;
#265 = SURFACE_SIDE_STYLE ('',( #221 ) ) ;
#266 = ORIENTED_EDGE ( 'NONE', *, *, #216, .T. ) ;
#267 = EDGE_CURVE ( 'NONE', #100, #211, #45, .T. ) ;
#268 = COLOUR_RGB ( '',1.000000000000000000, 0.000000000000000000, 0.000000000000000000 ) ;
#269 = AXIS2_PLACEMENT_3D ( 'NONE', #288, #33, #286 ) ;
#270 = DIRECTION ( 'NONE',  ( 3.061616997868382402E-17, 1.000000000000000000, -0.000000000000000000 ) ) ;
#271 = DIRECTION ( 'NONE',  ( 0.000000000000000000, 0.000000000000000000, 1.000000000000000000 ) ) ;
#272 = SURFACE_SIDE_STYLE ('',( #136 ) ) ;
#273 = VECTOR ( 'NONE', #281, 1000.000000000000000 ) ;
#274 = FILL_AREA_STYLE ('',( #253 ) ) ;
#275 =( NAMED_UNIT ( * ) PLANE_ANGLE_UNIT ( ) SI_UNIT ( $, .RADIAN. ) );
#276 =( NAMED_UNIT ( * ) PLANE_ANGLE_UNIT ( ) SI_UNIT ( $, .RADIAN. ) );
#277 = ADVANCED_FACE ( 'NONE', ( #68 ), #127, .T. ) ;
#278 = ORIENTED_EDGE ( 'NONE', *, *, #163, .F. ) ;
#279 = CARTESIAN_POINT ( 'NONE',  ( 0.000000000000000000, 0.000000000000000000, 0.000000000000000000 ) ) ;
#280 = VERTEX_POINT ( 'NONE', #27 ) ;
#281 = DIRECTION ( 'NONE',  ( -0.000000000000000000, -1.000000000000000000, -0.000000000000000000 ) ) ;
#282 = DIRECTION ( 'NONE',  ( -1.000000000000000000, 3.061616997868382402E-17, 0.000000000000000000 ) ) ;
#283 = PRODUCT_DEFINITION_CONTEXT ( 'detailed design', #19, 'design' ) ;
#284 = DIRECTION ( 'NONE',  ( 0.000000000000000000, 0.000000000000000000, -1.000000000000000000 ) ) ;
#285 = ADVANCED_FACE ( 'NONE', ( #9 ), #96, .T. ) ;
#286 = DIRECTION ( 'NONE',  ( -1.000000000000000000, 0.000000000000000000, 0.000000000000000000 ) ) ;
#287 =( GEOMETRIC_REPRESENTATION_CONTEXT ( 3 ) GLOBAL_UNCERTAINTY_ASSIGNED_CONTEXT ( ( #79 ) ) GLOBAL_UNIT_ASSIGNED_CONTEXT ( ( #185, #276, #131 ) ) REPRESENTATION_CONTEXT ( 'NONE', 'WORKASPACE' ) );
#288 = CARTESIAN_POINT ( 'NONE',  ( 0.000000000000000000, 15.00000000000000000, 0.000000000000000000 ) ) ;
ENDSEC;
END-ISO-10303-21;
