ISO-10303-21;
HEADER;
FILE_DESCRIPTION (( 'STEP AP214' ),
    '1' );
FILE_NAME ('30422.STEP',
    '2023-06-22T18:29:28',
    ( '' ),
    ( '' ),
    'SwSTEP 2.0',
    'SolidWorks 2023',
    '' );
FILE_SCHEMA (( 'AUTOMOTIVE_DESIGN' ));
ENDSEC;

DATA;
#1 = EDGE_CURVE ( 'NONE', #154, #42, #196, .T. ) ;
#2 =( NAMED_UNIT ( * ) SI_UNIT ( $, .STERADIAN. ) SOLID_ANGLE_UNIT ( ) );
#3 = SURFACE_STYLE_FILL_AREA ( #93 ) ;
#4 = CYLINDRICAL_SURFACE ( 'NONE', #158, 0.2187500000000000000 ) ;
#5 = UNCERTAINTY_MEASURE_WITH_UNIT (LENGTH_MEASURE( 1.000000000000000082E-05 ), #292, 'distance_accuracy_value', 'NONE');
#6 =( NAMED_UNIT ( * ) PLANE_ANGLE_UNIT ( ) SI_UNIT ( $, .RADIAN. ) );
#7 = PRESENTATION_LAYER_ASSIGNMENT (  '', '', ( #39 ) ) ;
#8 = VECTOR ( 'NONE', #92, 39.37007874015748143 ) ;
#9 = SURFACE_SIDE_STYLE ('',( #220 ) ) ;
#10 = CARTESIAN_POINT ( 'NONE',  ( 0.2187500000000000000, 2.750000000000000000, 0.000000000000000000 ) ) ;
#11 = PRESENTATION_STYLE_ASSIGNMENT (( #82 ) ) ;
#12 = CARTESIAN_POINT ( 'NONE',  ( 0.000000000000000000, 0.000000000000000000, -0.2187500000000000000 ) ) ;
#13 = ORIENTED_EDGE ( 'NONE', *, *, #304, .T. ) ;
#14 = DIRECTION ( 'NONE',  ( -0.000000000000000000, -1.000000000000000000, -0.000000000000000000 ) ) ;
#15 = ORIENTED_EDGE ( 'NONE', *, *, #228, .T. ) ;
#16 = CARTESIAN_POINT ( 'NONE',  ( 0.000000000000000000, 0.000000000000000000, 0.000000000000000000 ) ) ;
#17 = CARTESIAN_POINT ( 'NONE',  ( 0.000000000000000000, 0.8750000000000000000, 0.000000000000000000 ) ) ;
#18 = DIRECTION ( 'NONE',  ( -1.000000000000000000, 0.000000000000000000, 0.000000000000000000 ) ) ;
#19 = MECHANICAL_DESIGN_GEOMETRIC_PRESENTATION_REPRESENTATION (  '', ( #294 ), #272 ) ;
#20 = EDGE_LOOP ( 'NONE', ( #305, #44, #15, #226 ) ) ;
#21 = DIRECTION ( 'NONE',  ( -1.000000000000000000, 1.632862398863142519E-17, 0.000000000000000000 ) ) ;
#22 = DIRECTION ( 'NONE',  ( 0.000000000000000000, 0.000000000000000000, -1.000000000000000000 ) ) ;
#23 = VERTEX_POINT ( 'NONE', #236 ) ;
#24 = CLOSED_SHELL ( 'NONE', ( #109, #29, #36, #103 ) ) ;
#25 = VECTOR ( 'NONE', #86, 39.37007874015748143 ) ;
#26 = DIRECTION ( 'NONE',  ( -1.000000000000000000, 0.000000000000000000, 0.000000000000000000 ) ) ;
#27 = DIRECTION ( 'NONE',  ( 1.632862398863142519E-17, 1.000000000000000000, -0.000000000000000000 ) ) ;
#28 =( GEOMETRIC_REPRESENTATION_CONTEXT ( 3 ) GLOBAL_UNCERTAINTY_ASSIGNED_CONTEXT ( ( #139 ) ) GLOBAL_UNIT_ASSIGNED_CONTEXT ( ( #264, #129, #47 ) ) REPRESENTATION_CONTEXT ( 'NONE', 'WORKASPACE' ) );
#29 = ADVANCED_FACE ( 'NONE', ( #111 ), #137, .T. ) ;
#30 = DIRECTION ( 'NONE',  ( 1.632862398863142519E-17, 1.000000000000000000, -0.000000000000000000 ) ) ;
#31 =( NAMED_UNIT ( * ) PLANE_ANGLE_UNIT ( ) SI_UNIT ( $, .RADIAN. ) );
#32 = PRESENTATION_STYLE_ASSIGNMENT (( #269 ) ) ;
#33 = SURFACE_STYLE_FILL_AREA ( #100 ) ;
#34 = CARTESIAN_POINT ( 'NONE',  ( 0.000000000000000000, 0.8750000000000000000, 0.000000000000000000 ) ) ;
#35 = CARTESIAN_POINT ( 'NONE',  ( -3.791200677927629740E-33, 0.8749999999999997780, 0.000000000000000000 ) ) ;
#36 = ADVANCED_FACE ( 'NONE', ( #250 ), #295, .T. ) ;
#37 = DIMENSIONAL_EXPONENTS ( 1.000000000000000000, 0.000000000000000000, 0.000000000000000000, 0.000000000000000000, 0.000000000000000000, 0.000000000000000000, 0.000000000000000000 ) ;
#38 = CARTESIAN_POINT ( 'NONE',  ( 0.000000000000000000, 0.000000000000000000, 0.000000000000000000 ) ) ;
#39 = STYLED_ITEM ( 'NONE', ( #32 ), #29 ) ;
#40 = STYLED_ITEM ( 'NONE', ( #171 ), #109 ) ;
#41 = FILL_AREA_STYLE ('',( #119 ) ) ;
#42 = VERTEX_POINT ( 'NONE', #157 ) ;
#43 = CARTESIAN_POINT ( 'NONE',  ( -3.791200677927629740E-33, 0.8749999999999997780, 0.000000000000000000 ) ) ;
#44 = ORIENTED_EDGE ( 'NONE', *, *, #198, .T. ) ;
#45 = ORIENTED_EDGE ( 'NONE', *, *, #268, .T. ) ;
#46 = CARTESIAN_POINT ( 'NONE',  ( 2.916199577398073708E-35, 0.8750000000000000000, 0.000000000000000000 ) ) ;
#47 =( NAMED_UNIT ( * ) SI_UNIT ( $, .STERADIAN. ) SOLID_ANGLE_UNIT ( ) );
#48 = DIRECTION ( 'NONE',  ( 1.000000000000000000, 0.000000000000000000, 0.000000000000000000 ) ) ;
#49 = CARTESIAN_POINT ( 'NONE',  ( 0.000000000000000000, 0.000000000000000000, 0.000000000000000000 ) ) ;
#50 = CIRCLE ( 'NONE', #212, 0.2187499999999999445 ) ;
#51 = ORIENTED_EDGE ( 'NONE', *, *, #255, .T. ) ;
#52 = DIRECTION ( 'NONE',  ( 1.632862398863142519E-17, 1.000000000000000000, -0.000000000000000000 ) ) ;
#53 = LINE ( 'NONE', #262, #223 ) ;
#54 = CIRCLE ( 'NONE', #57, 0.2187500000000000000 ) ;
#55 = ADVANCED_FACE ( 'NONE', ( #238 ), #141, .T. ) ;
#56 = DIRECTION ( 'NONE',  ( -0.000000000000000000, -1.000000000000000000, -0.000000000000000000 ) ) ;
#57 = AXIS2_PLACEMENT_3D ( 'NONE', #49, #14, #104 ) ;
#58 = MANIFOLD_SOLID_BREP ( 'Revolve - Tool Body (Straight Shanked)', #167 ) ;
#59 = SURFACE_SIDE_STYLE ('',( #33 ) ) ;
#60 = MANIFOLD_SOLID_BREP ( 'Revolve - Cutting Edge', #24 ) ;
#61 = MECHANICAL_DESIGN_GEOMETRIC_PRESENTATION_REPRESENTATION (  '', ( #142 ), #260 ) ;
#62 = AXIS2_PLACEMENT_3D ( 'NONE', #43, #165, #18 ) ;
#63 = SURFACE_STYLE_FILL_AREA ( #170 ) ;
#64 = ORIENTED_EDGE ( 'NONE', *, *, #283, .T. ) ;
#65 = EDGE_LOOP ( 'NONE', ( #101, #276 ) ) ;
#66 = DIRECTION ( 'NONE',  ( 1.632862398863142519E-17, 1.000000000000000000, -0.000000000000000000 ) ) ;
#67 = APPLICATION_PROTOCOL_DEFINITION ( 'draft international standard', 'automotive_design', 1998, #172 ) ;
#68 = AXIS2_PLACEMENT_3D ( 'NONE', #89, #56, #211 ) ;
#69 = CARTESIAN_POINT ( 'NONE',  ( 0.2187500000000000000, 2.750000000000000000, 2.678914873134835372E-17 ) ) ;
#70 = COLOUR_RGB ( '',1.000000000000000000, 0.000000000000000000, 0.000000000000000000 ) ;
#71 =( GEOMETRIC_REPRESENTATION_CONTEXT ( 3 ) GLOBAL_UNCERTAINTY_ASSIGNED_CONTEXT ( ( #214 ) ) GLOBAL_UNIT_ASSIGNED_CONTEXT ( ( #153, #84, #175 ) ) REPRESENTATION_CONTEXT ( 'NONE', 'WORKASPACE' ) );
#72 = AXIS2_PLACEMENT_3D ( 'NONE', #38, #122, #22 ) ;
#73 = CARTESIAN_POINT ( 'NONE',  ( 3.061616997868392262E-17, 2.750000000000000000, 0.000000000000000000 ) ) ;
#74 = SURFACE_STYLE_USAGE ( .BOTH. , #213 ) ;
#75 =( LENGTH_UNIT ( ) NAMED_UNIT ( * ) SI_UNIT ( $, .METRE. ) );
#76 = AXIS2_PLACEMENT_3D ( 'NONE', #35, #83, #136 ) ;
#77 = SURFACE_SIDE_STYLE ('',( #63 ) ) ;
#78 = EDGE_CURVE ( 'NONE', #88, #156, #290, .T. ) ;
#79 = CARTESIAN_POINT ( 'NONE',  ( 3.061616997868392262E-17, 2.750000000000000000, 0.000000000000000000 ) ) ;
#80 = ADVANCED_BREP_SHAPE_REPRESENTATION ( '30422', ( #60, #58, #81 ), #71 ) ;
#81 = AXIS2_PLACEMENT_3D ( 'NONE', #16, #257, #48 ) ;
#82 = SURFACE_STYLE_USAGE ( .BOTH. , #9 ) ;
#83 = DIRECTION ( 'NONE',  ( 1.632862398863142519E-17, 1.000000000000000000, -0.000000000000000000 ) ) ;
#84 =( NAMED_UNIT ( * ) PLANE_ANGLE_UNIT ( ) SI_UNIT ( $, .RADIAN. ) );
#85 = EDGE_LOOP ( 'NONE', ( #13, #222 ) ) ;
#86 = DIRECTION ( 'NONE',  ( 1.632862398863142519E-17, 1.000000000000000000, -0.000000000000000000 ) ) ;
#87 = DIRECTION ( 'NONE',  ( 0.000000000000000000, 1.000000000000000000, 0.000000000000000000 ) ) ;
#88 = VERTEX_POINT ( 'NONE', #309 ) ;
#89 = CARTESIAN_POINT ( 'NONE',  ( 0.000000000000000000, 0.000000000000000000, 0.000000000000000000 ) ) ;
#90 = ORIENTED_EDGE ( 'NONE', *, *, #78, .T. ) ;
#91 = EDGE_CURVE ( 'NONE', #232, #201, #307, .T. ) ;
#92 = DIRECTION ( 'NONE',  ( 1.632862398863142519E-17, 1.000000000000000000, -0.000000000000000000 ) ) ;
#93 = FILL_AREA_STYLE ('',( #308 ) ) ;
#94 =( NAMED_UNIT ( * ) SI_UNIT ( $, .STERADIAN. ) SOLID_ANGLE_UNIT ( ) );
#95 =( CONVERSION_BASED_UNIT ( 'INCH', #138 ) LENGTH_UNIT ( ) NAMED_UNIT ( #180 ) );
#96 = DIRECTION ( 'NONE',  ( -1.000000000000000000, 0.000000000000000000, 0.000000000000000000 ) ) ;
#97 = DIRECTION ( 'NONE',  ( -0.000000000000000000, -1.000000000000000000, -0.000000000000000000 ) ) ;
#98 = CARTESIAN_POINT ( 'NONE',  ( 0.000000000000000000, 0.000000000000000000, 0.000000000000000000 ) ) ;
#99 = PRODUCT_DEFINITION_FORMATION_WITH_SPECIFIED_SOURCE ( 'ANY', '', #210, .NOT_KNOWN. ) ;
#100 = FILL_AREA_STYLE ('',( #273 ) ) ;
#101 = ORIENTED_EDGE ( 'NONE', *, *, #1, .F. ) ;
#102 = DIMENSIONAL_EXPONENTS ( 1.000000000000000000, 0.000000000000000000, 0.000000000000000000, 0.000000000000000000, 0.000000000000000000, 0.000000000000000000, 0.000000000000000000 ) ;
#103 = ADVANCED_FACE ( 'NONE', ( #115 ), #120, .T. ) ;
#104 = DIRECTION ( 'NONE',  ( 0.000000000000000000, 0.000000000000000000, -1.000000000000000000 ) ) ;
#105 = AXIS2_PLACEMENT_3D ( 'NONE', #73, #52, #26 ) ;
#106 = STYLED_ITEM ( 'NONE', ( #166 ), #60 ) ;
#107 = SHAPE_DEFINITION_REPRESENTATION ( #159, #80 ) ;
#108 = ORIENTED_EDGE ( 'NONE', *, *, #125, .F. ) ;
#109 = ADVANCED_FACE ( 'NONE', ( #240 ), #4, .T. ) ;
#110 = CIRCLE ( 'NONE', #161, 0.2187500000000000000 ) ;
#111 = FACE_OUTER_BOUND ( 'NONE', #225, .T. ) ;
#112 = EDGE_CURVE ( 'NONE', #23, #207, #186, .T. ) ;
#113 = LENGTH_MEASURE_WITH_UNIT ( LENGTH_MEASURE( 0.02539999999999999897 ), #188 );
#114 = AXIS2_PLACEMENT_3D ( 'NONE', #79, #27, #245 ) ;
#115 = FACE_OUTER_BOUND ( 'NONE', #126, .T. ) ;
#116 = UNCERTAINTY_MEASURE_WITH_UNIT (LENGTH_MEASURE( 1.000000000000000082E-05 ), #95, 'distance_accuracy_value', 'NONE');
#117 =( LENGTH_UNIT ( ) NAMED_UNIT ( * ) SI_UNIT ( $, .METRE. ) );
#118 = LENGTH_MEASURE_WITH_UNIT ( LENGTH_MEASURE( 0.02539999999999999897 ), #246 );
#119 = FILL_AREA_STYLE_COLOUR ( '', #243 ) ;
#120 = PLANE ( 'NONE',  #135 ) ;
#121 = AXIS2_PLACEMENT_3D ( 'NONE', #17, #87, #258 ) ;
#122 = DIRECTION ( 'NONE',  ( -0.000000000000000000, -1.000000000000000000, -0.000000000000000000 ) ) ;
#123 = CARTESIAN_POINT ( 'NONE',  ( 2.678914873134835064E-17, 0.8750000000000000000, 0.2187500000000000000 ) ) ;
#124 = ORIENTED_EDGE ( 'NONE', *, *, #255, .F. ) ;
#125 = EDGE_CURVE ( 'NONE', #154, #201, #204, .T. ) ;
#126 = EDGE_LOOP ( 'NONE', ( #51, #90 ) ) ;
#127 = DIMENSIONAL_EXPONENTS ( 1.000000000000000000, 0.000000000000000000, 0.000000000000000000, 0.000000000000000000, 0.000000000000000000, 0.000000000000000000, 0.000000000000000000 ) ;
#128 = DIMENSIONAL_EXPONENTS ( 1.000000000000000000, 0.000000000000000000, 0.000000000000000000, 0.000000000000000000, 0.000000000000000000, 0.000000000000000000, 0.000000000000000000 ) ;
#129 =( NAMED_UNIT ( * ) PLANE_ANGLE_UNIT ( ) SI_UNIT ( $, .RADIAN. ) );
#130 = MECHANICAL_DESIGN_GEOMETRIC_PRESENTATION_REPRESENTATION (  '', ( #40 ), #286 ) ;
#131 = PRODUCT_CONTEXT ( 'NONE', #172, 'mechanical' ) ;
#132 = CARTESIAN_POINT ( 'NONE',  ( -0.2187499999999999167, 2.750000000000000000, 0.000000000000000000 ) ) ;
#133 = DIRECTION ( 'NONE',  ( 0.000000000000000000, 0.000000000000000000, -1.000000000000000000 ) ) ;
#134 = COLOUR_RGB ( '',0.7921568627450980005, 0.8196078431372548767, 0.9333333333333333481 ) ;
#135 = AXIS2_PLACEMENT_3D ( 'NONE', #98, #195, #293 ) ;
#136 = DIRECTION ( 'NONE',  ( -1.000000000000000000, 0.000000000000000000, 0.000000000000000000 ) ) ;
#137 = PLANE ( 'NONE',  #121 ) ;
#138 = LENGTH_MEASURE_WITH_UNIT ( LENGTH_MEASURE( 0.02539999999999999897 ), #287 );
#139 = UNCERTAINTY_MEASURE_WITH_UNIT (LENGTH_MEASURE( 1.000000000000000082E-05 ), #264, 'distance_accuracy_value', 'NONE');
#140 = ADVANCED_FACE ( 'NONE', ( #280 ), #200, .F. ) ;
#141 = CYLINDRICAL_SURFACE ( 'NONE', #105, 0.2187499999999999445 ) ;
#142 = STYLED_ITEM ( 'NONE', ( #282 ), #58 ) ;
#143 = COLOUR_RGB ( '',1.000000000000000000, 0.000000000000000000, 0.000000000000000000 ) ;
#144 =( CONVERSION_BASED_UNIT ( 'INCH', #169 ) LENGTH_UNIT ( ) NAMED_UNIT ( #231 ) );
#145 = PRODUCT_RELATED_PRODUCT_CATEGORY ( 'part', '', ( #210 ) ) ;
#146 = SURFACE_SIDE_STYLE ('',( #3 ) ) ;
#147 = ORIENTED_EDGE ( 'NONE', *, *, #163, .T. ) ;
#148 = DIRECTION ( 'NONE',  ( 0.000000000000000000, 0.000000000000000000, -1.000000000000000000 ) ) ;
#149 = ORIENTED_EDGE ( 'NONE', *, *, #198, .F. ) ;
#150 = VECTOR ( 'NONE', #277, 39.37007874015748143 ) ;
#151 =( LENGTH_UNIT ( ) NAMED_UNIT ( * ) SI_UNIT ( $, .METRE. ) );
#152 = EDGE_LOOP ( 'NONE', ( #279, #64, #124, #179 ) ) ;
#153 =( CONVERSION_BASED_UNIT ( 'INCH', #118 ) LENGTH_UNIT ( ) NAMED_UNIT ( #37 ) );
#154 = VERTEX_POINT ( 'NONE', #233 ) ;
#155 =( NAMED_UNIT ( * ) PLANE_ANGLE_UNIT ( ) SI_UNIT ( $, .RADIAN. ) );
#156 = VERTEX_POINT ( 'NONE', #252 ) ;
#157 = CARTESIAN_POINT ( 'NONE',  ( 0.2187500000000000000, 0.8749999999999997780, 2.678914873134835372E-17 ) ) ;
#158 = AXIS2_PLACEMENT_3D ( 'NONE', #254, #202, #133 ) ;
#159 = PRODUCT_DEFINITION_SHAPE ( 'NONE', 'NONE',  #288 ) ;
#160 = PRESENTATION_LAYER_ASSIGNMENT (  '', '', ( #251 ) ) ;
#161 = AXIS2_PLACEMENT_3D ( 'NONE', #34, #281, #148 ) ;
#162 = LENGTH_MEASURE_WITH_UNIT ( LENGTH_MEASURE( 0.02539999999999999897 ), #151 );
#163 = EDGE_CURVE ( 'NONE', #42, #154, #235, .T. ) ;
#164 = CARTESIAN_POINT ( 'NONE',  ( 3.061616997868392262E-17, 2.750000000000000000, 0.000000000000000000 ) ) ;
#165 = DIRECTION ( 'NONE',  ( 1.632862398863142519E-17, 1.000000000000000000, -0.000000000000000000 ) ) ;
#166 = PRESENTATION_STYLE_ASSIGNMENT (( #74 ) ) ;
#167 = CLOSED_SHELL ( 'NONE', ( #285, #140, #55, #184 ) ) ;
#168 = PRESENTATION_LAYER_ASSIGNMENT (  '', '', ( #294 ) ) ;
#169 = LENGTH_MEASURE_WITH_UNIT ( LENGTH_MEASURE( 0.02539999999999999897 ), #117 );
#170 = FILL_AREA_STYLE ('',( #247 ) ) ;
#171 = PRESENTATION_STYLE_ASSIGNMENT (( #192 ) ) ;
#172 = APPLICATION_CONTEXT ( 'automotive_design' ) ;
#173 = AXIS2_PLACEMENT_3D ( 'NONE', #164, #30, #191 ) ;
#174 = DIMENSIONAL_EXPONENTS ( 1.000000000000000000, 0.000000000000000000, 0.000000000000000000, 0.000000000000000000, 0.000000000000000000, 0.000000000000000000, 0.000000000000000000 ) ;
#175 =( NAMED_UNIT ( * ) SI_UNIT ( $, .STERADIAN. ) SOLID_ANGLE_UNIT ( ) );
#176 = FACE_OUTER_BOUND ( 'NONE', #85, .T. ) ;
#177 = ORIENTED_EDGE ( 'NONE', *, *, #125, .T. ) ;
#178 = PRESENTATION_LAYER_ASSIGNMENT (  '', '', ( #142 ) ) ;
#179 = ORIENTED_EDGE ( 'NONE', *, *, #228, .F. ) ;
#180 = DIMENSIONAL_EXPONENTS ( 1.000000000000000000, 0.000000000000000000, 0.000000000000000000, 0.000000000000000000, 0.000000000000000000, 0.000000000000000000, 0.000000000000000000 ) ;
#181 = DIRECTION ( 'NONE',  ( 0.000000000000000000, 0.000000000000000000, -1.000000000000000000 ) ) ;
#182 = ORIENTED_EDGE ( 'NONE', *, *, #91, .F. ) ;
#183 =( GEOMETRIC_REPRESENTATION_CONTEXT ( 3 ) GLOBAL_UNCERTAINTY_ASSIGNED_CONTEXT ( ( #274 ) ) GLOBAL_UNIT_ASSIGNED_CONTEXT ( ( #216, #303, #256 ) ) REPRESENTATION_CONTEXT ( 'NONE', 'WORKASPACE' ) );
#184 = ADVANCED_FACE ( 'NONE', ( #176 ), #221, .F. ) ;
#185 = FILL_AREA_STYLE_COLOUR ( '', #301 ) ;
#186 = CIRCLE ( 'NONE', #267, 0.2187500000000000000 ) ;
#187 = APPLICATION_CONTEXT ( 'automotive_design' ) ;
#188 =( LENGTH_UNIT ( ) NAMED_UNIT ( * ) SI_UNIT ( $, .METRE. ) );
#189 = SURFACE_STYLE_FILL_AREA ( #306 ) ;
#190 = FILL_AREA_STYLE ('',( #206 ) ) ;
#191 = DIRECTION ( 'NONE',  ( -1.000000000000000000, 0.000000000000000000, 0.000000000000000000 ) ) ;
#192 = SURFACE_STYLE_USAGE ( .BOTH. , #59 ) ;
#193 = LENGTH_MEASURE_WITH_UNIT ( LENGTH_MEASURE( 0.02539999999999999897 ), #75 );
#194 = PRODUCT_DEFINITION_CONTEXT ( 'detailed design', #187, 'design' ) ;
#195 = DIRECTION ( 'NONE',  ( 0.000000000000000000, -1.000000000000000000, -0.000000000000000000 ) ) ;
#196 = CIRCLE ( 'NONE', #76, 0.2187500000000000000 ) ;
#197 = PRESENTATION_LAYER_ASSIGNMENT (  '', '', ( #106 ) ) ;
#198 = EDGE_CURVE ( 'NONE', #207, #23, #110, .T. ) ;
#199 = ORIENTED_EDGE ( 'NONE', *, *, #304, .F. ) ;
#200 = PLANE ( 'NONE',  #239 ) ;
#201 = VERTEX_POINT ( 'NONE', #132 ) ;
#202 = DIRECTION ( 'NONE',  ( -0.000000000000000000, -1.000000000000000000, -0.000000000000000000 ) ) ;
#203 = LINE ( 'NONE', #284, #8 ) ;
#204 = LINE ( 'NONE', #302, #25 ) ;
#205 = ORIENTED_EDGE ( 'NONE', *, *, #112, .F. ) ;
#206 = FILL_AREA_STYLE_COLOUR ( '', #134 ) ;
#207 = VERTEX_POINT ( 'NONE', #123 ) ;
#208 = SURFACE_STYLE_USAGE ( .BOTH. , #261 ) ;
#209 = MECHANICAL_DESIGN_GEOMETRIC_PRESENTATION_REPRESENTATION (  '', ( #106 ), #28 ) ;
#210 = PRODUCT ( '30422', '30422', '', ( #131 ) ) ;
#211 = DIRECTION ( 'NONE',  ( 0.000000000000000000, 0.000000000000000000, -1.000000000000000000 ) ) ;
#212 = AXIS2_PLACEMENT_3D ( 'NONE', #265, #291, #96 ) ;
#213 = SURFACE_SIDE_STYLE ('',( #189 ) ) ;
#214 = UNCERTAINTY_MEASURE_WITH_UNIT (LENGTH_MEASURE( 1.000000000000000082E-05 ), #153, 'distance_accuracy_value', 'NONE');
#215 =( NAMED_UNIT ( * ) PLANE_ANGLE_UNIT ( ) SI_UNIT ( $, .RADIAN. ) );
#216 =( CONVERSION_BASED_UNIT ( 'INCH', #193 ) LENGTH_UNIT ( ) NAMED_UNIT ( #128 ) );
#217 =( LENGTH_UNIT ( ) NAMED_UNIT ( * ) SI_UNIT ( $, .METRE. ) );
#218 = UNCERTAINTY_MEASURE_WITH_UNIT (LENGTH_MEASURE( 1.000000000000000082E-05 ), #144, 'distance_accuracy_value', 'NONE');
#219 =( NAMED_UNIT ( * ) SI_UNIT ( $, .STERADIAN. ) SOLID_ANGLE_UNIT ( ) );
#220 = SURFACE_STYLE_FILL_AREA ( #41 ) ;
#221 = PLANE ( 'NONE',  #229 ) ;
#222 = ORIENTED_EDGE ( 'NONE', *, *, #91, .T. ) ;
#223 = VECTOR ( 'NONE', #97, 39.37007874015748143 ) ;
#224 = SURFACE_STYLE_USAGE ( .BOTH. , #77 ) ;
#225 = EDGE_LOOP ( 'NONE', ( #205, #149 ) ) ;
#226 = ORIENTED_EDGE ( 'NONE', *, *, #78, .F. ) ;
#227 = DIRECTION ( 'NONE',  ( -0.000000000000000000, -1.000000000000000000, -0.000000000000000000 ) ) ;
#228 = EDGE_CURVE ( 'NONE', #23, #156, #275, .T. ) ;
#229 = AXIS2_PLACEMENT_3D ( 'NONE', #10, #248, #297 ) ;
#230 = APPLICATION_PROTOCOL_DEFINITION ( 'draft international standard', 'automotive_design', 1998, #187 ) ;
#231 = DIMENSIONAL_EXPONENTS ( 1.000000000000000000, 0.000000000000000000, 0.000000000000000000, 0.000000000000000000, 0.000000000000000000, 0.000000000000000000, 0.000000000000000000 ) ;
#232 = VERTEX_POINT ( 'NONE', #69 ) ;
#233 = CARTESIAN_POINT ( 'NONE',  ( -0.2187500000000000000, 0.8749999999999997780, 0.000000000000000000 ) ) ;
#234 =( CONVERSION_BASED_UNIT ( 'INCH', #162 ) LENGTH_UNIT ( ) NAMED_UNIT ( #102 ) );
#235 = CIRCLE ( 'NONE', #62, 0.2187500000000000000 ) ;
#236 = CARTESIAN_POINT ( 'NONE',  ( 0.000000000000000000, 0.8750000000000000000, -0.2187500000000000000 ) ) ;
#237 = SURFACE_STYLE_FILL_AREA ( #190 ) ;
#238 = FACE_OUTER_BOUND ( 'NONE', #259, .T. ) ;
#239 = AXIS2_PLACEMENT_3D ( 'NONE', #46, #66, #21 ) ;
#240 = FACE_OUTER_BOUND ( 'NONE', #152, .T. ) ;
#241 = CYLINDRICAL_SURFACE ( 'NONE', #173, 0.2187499999999999445 ) ;
#242 = UNCERTAINTY_MEASURE_WITH_UNIT (LENGTH_MEASURE( 1.000000000000000082E-05 ), #234, 'distance_accuracy_value', 'NONE');
#243 = COLOUR_RGB ( '',1.000000000000000000, 0.000000000000000000, 0.000000000000000000 ) ;
#244 = COLOUR_RGB ( '',1.000000000000000000, 0.000000000000000000, 0.000000000000000000 ) ;
#245 = DIRECTION ( 'NONE',  ( -1.000000000000000000, 0.000000000000000000, 0.000000000000000000 ) ) ;
#246 =( LENGTH_UNIT ( ) NAMED_UNIT ( * ) SI_UNIT ( $, .METRE. ) );
#247 = FILL_AREA_STYLE_COLOUR ( '', #143 ) ;
#248 = DIRECTION ( 'NONE',  ( -1.632862398863142519E-17, -1.000000000000000000, 0.000000000000000000 ) ) ;
#249 = LENGTH_MEASURE_WITH_UNIT ( LENGTH_MEASURE( 0.02539999999999999897 ), #217 );
#250 = FACE_OUTER_BOUND ( 'NONE', #20, .T. ) ;
#251 = STYLED_ITEM ( 'NONE', ( #11 ), #36 ) ;
#252 = CARTESIAN_POINT ( 'NONE',  ( 0.000000000000000000, 0.000000000000000000, -0.2187500000000000000 ) ) ;
#253 = ORIENTED_EDGE ( 'NONE', *, *, #1, .T. ) ;
#254 = CARTESIAN_POINT ( 'NONE',  ( 0.000000000000000000, 0.000000000000000000, 0.000000000000000000 ) ) ;
#255 = EDGE_CURVE ( 'NONE', #156, #88, #54, .T. ) ;
#256 =( NAMED_UNIT ( * ) SI_UNIT ( $, .STERADIAN. ) SOLID_ANGLE_UNIT ( ) );
#257 = DIRECTION ( 'NONE',  ( 0.000000000000000000, 0.000000000000000000, 1.000000000000000000 ) ) ;
#258 = DIRECTION ( 'NONE',  ( 0.000000000000000000, -0.000000000000000000, 1.000000000000000000 ) ) ;
#259 = EDGE_LOOP ( 'NONE', ( #300, #147, #177, #182 ) ) ;
#260 =( GEOMETRIC_REPRESENTATION_CONTEXT ( 3 ) GLOBAL_UNCERTAINTY_ASSIGNED_CONTEXT ( ( #116 ) ) GLOBAL_UNIT_ASSIGNED_CONTEXT ( ( #95, #155, #94 ) ) REPRESENTATION_CONTEXT ( 'NONE', 'WORKASPACE' ) );
#261 = SURFACE_SIDE_STYLE ('',( #237 ) ) ;
#262 = CARTESIAN_POINT ( 'NONE',  ( 2.678914873134835064E-17, 0.000000000000000000, 0.2187500000000000000 ) ) ;
#263 = PRESENTATION_LAYER_ASSIGNMENT (  '', '', ( #40 ) ) ;
#264 =( CONVERSION_BASED_UNIT ( 'INCH', #113 ) LENGTH_UNIT ( ) NAMED_UNIT ( #127 ) );
#265 = CARTESIAN_POINT ( 'NONE',  ( 3.061616997868392262E-17, 2.750000000000000000, 0.000000000000000000 ) ) ;
#266 = MECHANICAL_DESIGN_GEOMETRIC_PRESENTATION_REPRESENTATION (  '', ( #39 ), #183 ) ;
#267 = AXIS2_PLACEMENT_3D ( 'NONE', #299, #227, #181 ) ;
#268 = EDGE_CURVE ( 'NONE', #42, #232, #203, .T. ) ;
#269 = SURFACE_STYLE_USAGE ( .BOTH. , #146 ) ;
#270 = PRESENTATION_STYLE_ASSIGNMENT (( #224 ) ) ;
#271 = FACE_OUTER_BOUND ( 'NONE', #298, .T. ) ;
#272 =( GEOMETRIC_REPRESENTATION_CONTEXT ( 3 ) GLOBAL_UNCERTAINTY_ASSIGNED_CONTEXT ( ( #5 ) ) GLOBAL_UNIT_ASSIGNED_CONTEXT ( ( #292, #215, #2 ) ) REPRESENTATION_CONTEXT ( 'NONE', 'WORKASPACE' ) );
#273 = FILL_AREA_STYLE_COLOUR ( '', #244 ) ;
#274 = UNCERTAINTY_MEASURE_WITH_UNIT (LENGTH_MEASURE( 1.000000000000000082E-05 ), #216, 'distance_accuracy_value', 'NONE');
#275 = LINE ( 'NONE', #12, #150 ) ;
#276 = ORIENTED_EDGE ( 'NONE', *, *, #163, .F. ) ;
#277 = DIRECTION ( 'NONE',  ( -0.000000000000000000, -1.000000000000000000, -0.000000000000000000 ) ) ;
#278 =( GEOMETRIC_REPRESENTATION_CONTEXT ( 3 ) GLOBAL_UNCERTAINTY_ASSIGNED_CONTEXT ( ( #242 ) ) GLOBAL_UNIT_ASSIGNED_CONTEXT ( ( #234, #31, #219 ) ) REPRESENTATION_CONTEXT ( 'NONE', 'WORKASPACE' ) );
#279 = ORIENTED_EDGE ( 'NONE', *, *, #112, .T. ) ;
#280 = FACE_OUTER_BOUND ( 'NONE', #65, .T. ) ;
#281 = DIRECTION ( 'NONE',  ( -0.000000000000000000, -1.000000000000000000, -0.000000000000000000 ) ) ;
#282 = PRESENTATION_STYLE_ASSIGNMENT (( #208 ) ) ;
#283 = EDGE_CURVE ( 'NONE', #207, #88, #53, .T. ) ;
#284 = CARTESIAN_POINT ( 'NONE',  ( 0.2187500000000000000, 2.750000000000000000, 2.678914873134834756E-17 ) ) ;
#285 = ADVANCED_FACE ( 'NONE', ( #271 ), #241, .T. ) ;
#286 =( GEOMETRIC_REPRESENTATION_CONTEXT ( 3 ) GLOBAL_UNCERTAINTY_ASSIGNED_CONTEXT ( ( #218 ) ) GLOBAL_UNIT_ASSIGNED_CONTEXT ( ( #144, #6, #296 ) ) REPRESENTATION_CONTEXT ( 'NONE', 'WORKASPACE' ) );
#287 =( LENGTH_UNIT ( ) NAMED_UNIT ( * ) SI_UNIT ( $, .METRE. ) );
#288 = PRODUCT_DEFINITION ( 'UNKNOWN', '', #99, #194 ) ;
#289 = MECHANICAL_DESIGN_GEOMETRIC_PRESENTATION_REPRESENTATION (  '', ( #251 ), #278 ) ;
#290 = CIRCLE ( 'NONE', #68, 0.2187500000000000000 ) ;
#291 = DIRECTION ( 'NONE',  ( 1.632862398863142519E-17, 1.000000000000000000, -0.000000000000000000 ) ) ;
#292 =( CONVERSION_BASED_UNIT ( 'INCH', #249 ) LENGTH_UNIT ( ) NAMED_UNIT ( #174 ) );
#293 = DIRECTION ( 'NONE',  ( 0.000000000000000000, 0.000000000000000000, -1.000000000000000000 ) ) ;
#294 = STYLED_ITEM ( 'NONE', ( #270 ), #103 ) ;
#295 = CYLINDRICAL_SURFACE ( 'NONE', #72, 0.2187500000000000000 ) ;
#296 =( NAMED_UNIT ( * ) SI_UNIT ( $, .STERADIAN. ) SOLID_ANGLE_UNIT ( ) );
#297 = DIRECTION ( 'NONE',  ( 1.000000000000000000, -1.632862398863142519E-17, 0.000000000000000000 ) ) ;
#298 = EDGE_LOOP ( 'NONE', ( #253, #45, #199, #108 ) ) ;
#299 = CARTESIAN_POINT ( 'NONE',  ( 0.000000000000000000, 0.8750000000000000000, 0.000000000000000000 ) ) ;
#300 = ORIENTED_EDGE ( 'NONE', *, *, #268, .F. ) ;
#301 = COLOUR_RGB ( '',0.7921568627450980005, 0.8196078431372548767, 0.9333333333333333481 ) ;
#302 = CARTESIAN_POINT ( 'NONE',  ( -0.2187499999999999167, 2.750000000000000000, 0.000000000000000000 ) ) ;
#303 =( NAMED_UNIT ( * ) PLANE_ANGLE_UNIT ( ) SI_UNIT ( $, .RADIAN. ) );
#304 = EDGE_CURVE ( 'NONE', #201, #232, #50, .T. ) ;
#305 = ORIENTED_EDGE ( 'NONE', *, *, #283, .F. ) ;
#306 = FILL_AREA_STYLE ('',( #185 ) ) ;
#307 = CIRCLE ( 'NONE', #114, 0.2187499999999999445 ) ;
#308 = FILL_AREA_STYLE_COLOUR ( '', #70 ) ;
#309 = CARTESIAN_POINT ( 'NONE',  ( 2.678914873134835064E-17, 0.000000000000000000, 0.2187500000000000000 ) ) ;
ENDSEC;
END-ISO-10303-21;
