ISO-10303-21;
HEADER;
FILE_DESCRIPTION (( 'STEP AP214' ),
    '1' );
FILE_NAME ('Micro_RTC-187-2X.STEP',
    '2021-09-03T18:06:50',
    ( '' ),
    ( '' ),
    'SwSTEP 2.0',
    'SolidWorks 2020',
    '' );
FILE_SCHEMA (( 'AUTOMOTIVE_DESIGN' ));
ENDSEC;

DATA;
#1 = EDGE_CURVE ( 'NONE', #47, #80, #134, .T. ) ;
#2 = CONICAL_SURFACE ( 'NONE', #50, 0.003999999999999999216, 0.2617993877991502960 ) ;
#3 = CARTESIAN_POINT ( 'NONE',  ( 0.09375000000000001388, 1.148106374200643863E-17, 1.665048440020694409 ) ) ;
#4 = FILL_AREA_STYLE ('',( #195 ) ) ;
#5 = ADVANCED_FACE ( 'NONE', ( #85 ), #94, .T. ) ;
#6 = PRODUCT_DEFINITION_FORMATION_WITH_SPECIFIED_SOURCE ( 'ANY', '', #21, .NOT_KNOWN. ) ;
#7 =( CONVERSION_BASED_UNIT ( 'INCH', #59 ) LENGTH_UNIT ( ) NAMED_UNIT ( #56 ) );
#8 =( NAMED_UNIT ( * ) PLANE_ANGLE_UNIT ( ) SI_UNIT ( $, .RADIAN. ) );
#9 = CARTESIAN_POINT ( 'NONE',  ( 0.0000000000000000000, 0.0000000000000000000, 0.3349515599793054799 ) ) ;
#10 = VECTOR ( 'NONE', #115, 39.37007874015748143 ) ;
#11 = ORIENTED_EDGE ( 'NONE', *, *, #62, .T. ) ;
#12 = ADVANCED_FACE ( 'NONE', ( #126 ), #20, .T. ) ;
#13 = VERTEX_POINT ( 'NONE', #103 ) ;
#14 = CARTESIAN_POINT ( 'NONE',  ( 0.0000000000000000000, 0.0000000000000000000, 2.000000000000000000 ) ) ;
#15 =( CONVERSION_BASED_UNIT ( 'INCH', #153 ) LENGTH_UNIT ( ) NAMED_UNIT ( #154 ) );
#16 = DIRECTION ( 'NONE',  ( -0.0000000000000000000, -0.0000000000000000000, -1.000000000000000000 ) ) ;
#17 = AXIS2_PLACEMENT_3D ( 'NONE', #14, #88, #90 ) ;
#18 = DIRECTION ( 'NONE',  ( -1.000000000000000000, 0.0000000000000000000, 0.0000000000000000000 ) ) ;
#19 = ADVANCED_FACE ( 'NONE', ( #186 ), #55, .T. ) ;
#20 = CONICAL_SURFACE ( 'NONE', #143, 0.003999999999999999216, 0.2617993877991502960 ) ;
#21 = PRODUCT ( 'Micro_RTC-187-2X', 'Micro_RTC-187-2X', '', ( #180 ) ) ;
#22 = COLOUR_RGB ( '',0.7921568627450980005, 0.8196078431372548767, 0.9333333333333333481 ) ;
#23 = ORIENTED_EDGE ( 'NONE', *, *, #131, .T. ) ;
#24 = CARTESIAN_POINT ( 'NONE',  ( -0.003999999999999999216, -5.985461230832689413E-18, 2.000000000000000000 ) ) ;
#25 = EDGE_CURVE ( 'NONE', #13, #80, #142, .T. ) ;
#26 = CARTESIAN_POINT ( 'NONE',  ( 0.0000000000000000000, 0.0000000000000000000, 2.000000000000000000 ) ) ;
#27 = DIRECTION ( 'NONE',  ( -1.000000000000000000, 0.0000000000000000000, 0.0000000000000000000 ) ) ;
#28 = STYLED_ITEM ( 'NONE', ( #213 ), #179 ) ;
#29 = ADVANCED_FACE ( 'NONE', ( #224 ), #2, .T. ) ;
#30 = DIRECTION ( 'NONE',  ( 0.0000000000000000000, 0.0000000000000000000, -1.000000000000000000 ) ) ;
#31 = ORIENTED_EDGE ( 'NONE', *, *, #206, .T. ) ;
#32 = ORIENTED_EDGE ( 'NONE', *, *, #211, .F. ) ;
#33 = VECTOR ( 'NONE', #230, 39.37007874015748143 ) ;
#34 = CARTESIAN_POINT ( 'NONE',  ( 0.003999999999999999216, 0.0000000000000000000, 0.0000000000000000000 ) ) ;
#35 = VECTOR ( 'NONE', #212, 39.37007874015748143 ) ;
#36 = DIRECTION ( 'NONE',  ( -0.0000000000000000000, -0.0000000000000000000, -1.000000000000000000 ) ) ;
#37 = CARTESIAN_POINT ( 'NONE',  ( 0.003999999999999999216, 0.0000000000000000000, 2.000000000000000000 ) ) ;
#38 =( NAMED_UNIT ( * ) SI_UNIT ( $, .STERADIAN. ) SOLID_ANGLE_UNIT ( ) );
#39 = AXIS2_PLACEMENT_3D ( 'NONE', #92, #16, #109 ) ;
#40 =( NAMED_UNIT ( * ) PLANE_ANGLE_UNIT ( ) SI_UNIT ( $, .RADIAN. ) );
#41 = SURFACE_STYLE_FILL_AREA ( #4 ) ;
#42 = CIRCLE ( 'NONE', #17, 0.003999999999999999216 ) ;
#43 = ORIENTED_EDGE ( 'NONE', *, *, #182, .T. ) ;
#44 = ORIENTED_EDGE ( 'NONE', *, *, #118, .F. ) ;
#45 = ORIENTED_EDGE ( 'NONE', *, *, #1, .F. ) ;
#46 = AXIS2_PLACEMENT_3D ( 'NONE', #192, #247, #76 ) ;
#47 = VERTEX_POINT ( 'NONE', #188 ) ;
#48 = DIRECTION ( 'NONE',  ( -0.0000000000000000000, -0.0000000000000000000, -1.000000000000000000 ) ) ;
#49 = EDGE_LOOP ( 'NONE', ( #227, #236 ) ) ;
#50 = AXIS2_PLACEMENT_3D ( 'NONE', #125, #106, #204 ) ;
#51 = LINE ( 'NONE', #149, #35 ) ;
#52 = EDGE_CURVE ( 'NONE', #201, #218, #42, .T. ) ;
#53 = DIRECTION ( 'NONE',  ( -0.2588190451025216832, -3.169619151431776035E-17, -0.9659258262890679791 ) ) ;
#54 = SURFACE_STYLE_USAGE ( .BOTH. , #130 ) ;
#55 = CONICAL_SURFACE ( 'NONE', #185, 0.003999999999999999216, 0.2617993877991502960 ) ;
#56 = DIMENSIONAL_EXPONENTS ( 1.000000000000000000, 0.0000000000000000000, 0.0000000000000000000, 0.0000000000000000000, 0.0000000000000000000, 0.0000000000000000000, 0.0000000000000000000 ) ;
#57 = CARTESIAN_POINT ( 'NONE',  ( 0.0000000000000000000, 0.0000000000000000000, 1.665048440020694409 ) ) ;
#58 = ORIENTED_EDGE ( 'NONE', *, *, #1, .T. ) ;
#59 = LENGTH_MEASURE_WITH_UNIT ( LENGTH_MEASURE( 0.02539999999999999897 ), #98 );
#60 = ORIENTED_EDGE ( 'NONE', *, *, #182, .F. ) ;
#61 =( NAMED_UNIT ( * ) SI_UNIT ( $, .STERADIAN. ) SOLID_ANGLE_UNIT ( ) );
#62 = EDGE_CURVE ( 'NONE', #201, #220, #189, .T. ) ;
#63 = ORIENTED_EDGE ( 'NONE', *, *, #89, .T. ) ;
#64 = COLOUR_RGB ( '',0.7921568627450980005, 0.8196078431372548767, 0.9333333333333333481 ) ;
#65 = ORIENTED_EDGE ( 'NONE', *, *, #82, .F. ) ;
#66 = CARTESIAN_POINT ( 'NONE',  ( 0.0000000000000000000, 0.0000000000000000000, 0.3349515599793054799 ) ) ;
#67 = DIRECTION ( 'NONE',  ( 0.0000000000000000000, 0.0000000000000000000, -1.000000000000000000 ) ) ;
#68 = PRESENTATION_LAYER_ASSIGNMENT (  '', '', ( #28 ) ) ;
#69 = STYLED_ITEM ( 'NONE', ( #132 ), #165 ) ;
#70 = ORIENTED_EDGE ( 'NONE', *, *, #243, .F. ) ;
#71 = EDGE_CURVE ( 'NONE', #80, #47, #223, .T. ) ;
#72 = DIRECTION ( 'NONE',  ( 0.0000000000000000000, 0.0000000000000000000, 1.000000000000000000 ) ) ;
#73 =( GEOMETRIC_REPRESENTATION_CONTEXT ( 3 ) GLOBAL_UNCERTAINTY_ASSIGNED_CONTEXT ( ( #214 ) ) GLOBAL_UNIT_ASSIGNED_CONTEXT ( ( #15, #40, #38 ) ) REPRESENTATION_CONTEXT ( 'NONE', 'WORKASPACE' ) );
#74 = CARTESIAN_POINT ( 'NONE',  ( -0.003999999999999999216, 5.985461230832687873E-18, 0.0000000000000000000 ) ) ;
#75 = PRODUCT_RELATED_PRODUCT_CATEGORY ( 'part', '', ( #21 ) ) ;
#76 = DIRECTION ( 'NONE',  ( -1.000000000000000000, 0.0000000000000000000, 0.0000000000000000000 ) ) ;
#77 = CYLINDRICAL_SURFACE ( 'NONE', #39, 0.09375000000000001388 ) ;
#78 = VECTOR ( 'NONE', #239, 39.37007874015748143 ) ;
#79 = PRESENTATION_LAYER_ASSIGNMENT (  '', '', ( #69 ) ) ;
#80 = VERTEX_POINT ( 'NONE', #146 ) ;
#81 = PRODUCT_DEFINITION_SHAPE ( 'NONE', 'NONE',  #113 ) ;
#82 = EDGE_CURVE ( 'NONE', #122, #163, #164, .T. ) ;
#83 = APPLICATION_PROTOCOL_DEFINITION ( 'draft international standard', 'automotive_design', 1998, #245 ) ;
#84 = LENGTH_MEASURE_WITH_UNIT ( LENGTH_MEASURE( 0.02539999999999999897 ), #183 );
#85 = FACE_OUTER_BOUND ( 'NONE', #169, .T. ) ;
#86 = CARTESIAN_POINT ( 'NONE',  ( -0.09375000000000001388, 0.0000000000000000000, 2.000000000000000000 ) ) ;
#87 = EDGE_LOOP ( 'NONE', ( #157, #102, #140, #136 ) ) ;
#88 = DIRECTION ( 'NONE',  ( 0.0000000000000000000, 0.0000000000000000000, -1.000000000000000000 ) ) ;
#89 = EDGE_CURVE ( 'NONE', #163, #80, #107, .T. ) ;
#90 = DIRECTION ( 'NONE',  ( -1.000000000000000000, 0.0000000000000000000, 0.0000000000000000000 ) ) ;
#91 = DIRECTION ( 'NONE',  ( 0.0000000000000000000, 0.0000000000000000000, 1.000000000000000000 ) ) ;
#92 = CARTESIAN_POINT ( 'NONE',  ( 0.0000000000000000000, 0.0000000000000000000, 2.000000000000000000 ) ) ;
#93 = ADVANCED_FACE ( 'NONE', ( #111 ), #77, .T. ) ;
#94 = CONICAL_SURFACE ( 'NONE', #159, 0.003999999999999999216, 0.2617993877991502960 ) ;
#95 =( GEOMETRIC_REPRESENTATION_CONTEXT ( 3 ) GLOBAL_UNCERTAINTY_ASSIGNED_CONTEXT ( ( #124 ) ) GLOBAL_UNIT_ASSIGNED_CONTEXT ( ( #133, #8, #61 ) ) REPRESENTATION_CONTEXT ( 'NONE', 'WORKASPACE' ) );
#96 = CARTESIAN_POINT ( 'NONE',  ( 0.0000000000000000000, 0.0000000000000000000, 2.000000000000000000 ) ) ;
#97 = CARTESIAN_POINT ( 'NONE',  ( -0.003999999999999999216, 4.898587196589411612E-19, 0.0000000000000000000 ) ) ;
#98 =( LENGTH_UNIT ( ) NAMED_UNIT ( * ) SI_UNIT ( $, .METRE. ) );
#99 =( NAMED_UNIT ( * ) PLANE_ANGLE_UNIT ( ) SI_UNIT ( $, .RADIAN. ) );
#100 = APPLICATION_PROTOCOL_DEFINITION ( 'draft international standard', 'automotive_design', 1998, #241 ) ;
#101 = AXIS2_PLACEMENT_3D ( 'NONE', #9, #244, #27 ) ;
#102 = ORIENTED_EDGE ( 'NONE', *, *, #243, .T. ) ;
#103 = CARTESIAN_POINT ( 'NONE',  ( -0.09375000000000001388, 0.0000000000000000000, 1.665048440020694409 ) ) ;
#104 = ORIENTED_EDGE ( 'NONE', *, *, #52, .T. ) ;
#105 = ORIENTED_EDGE ( 'NONE', *, *, #71, .T. ) ;
#106 = DIRECTION ( 'NONE',  ( 0.0000000000000000000, 0.0000000000000000000, 1.000000000000000000 ) ) ;
#107 = LINE ( 'NONE', #97, #33 ) ;
#108 = DIRECTION ( 'NONE',  ( -1.000000000000000000, 0.0000000000000000000, 0.0000000000000000000 ) ) ;
#109 = DIRECTION ( 'NONE',  ( -1.000000000000000000, 0.0000000000000000000, 0.0000000000000000000 ) ) ;
#110 = AXIS2_PLACEMENT_3D ( 'NONE', #127, #129, #175 ) ;
#111 = FACE_OUTER_BOUND ( 'NONE', #87, .T. ) ;
#112 =( LENGTH_UNIT ( ) NAMED_UNIT ( * ) SI_UNIT ( $, .METRE. ) );
#113 = PRODUCT_DEFINITION ( 'UNKNOWN', '', #6, #144 ) ;
#114 = SURFACE_SIDE_STYLE ('',( #41 ) ) ;
#115 = DIRECTION ( 'NONE',  ( -0.0000000000000000000, -0.0000000000000000000, -1.000000000000000000 ) ) ;
#116 = AXIS2_PLACEMENT_3D ( 'NONE', #248, #36, #128 ) ;
#117 =( NAMED_UNIT ( * ) SI_UNIT ( $, .STERADIAN. ) SOLID_ANGLE_UNIT ( ) );
#118 = EDGE_CURVE ( 'NONE', #13, #220, #232, .T. ) ;
#119 = CARTESIAN_POINT ( 'NONE',  ( 0.0000000000000000000, 0.0000000000000000000, 2.000000000000000000 ) ) ;
#120 = AXIS2_PLACEMENT_3D ( 'NONE', #176, #72, #228 ) ;
#121 = AXIS2_PLACEMENT_3D ( 'NONE', #158, #138, #137 ) ;
#122 = VERTEX_POINT ( 'NONE', #34 ) ;
#123 = ORIENTED_EDGE ( 'NONE', *, *, #62, .F. ) ;
#124 = UNCERTAINTY_MEASURE_WITH_UNIT (LENGTH_MEASURE( 1.000000000000000082E-05 ), #133, 'distance_accuracy_value', 'NONE');
#125 = CARTESIAN_POINT ( 'NONE',  ( 0.0000000000000000000, 0.0000000000000000000, 0.0000000000000000000 ) ) ;
#126 = FACE_OUTER_BOUND ( 'NONE', #234, .T. ) ;
#127 = CARTESIAN_POINT ( 'NONE',  ( 0.0000000000000000000, 0.0000000000000000000, 0.0000000000000000000 ) ) ;
#128 = DIRECTION ( 'NONE',  ( -1.000000000000000000, 0.0000000000000000000, 0.0000000000000000000 ) ) ;
#129 = DIRECTION ( 'NONE',  ( -0.0000000000000000000, -0.0000000000000000000, -1.000000000000000000 ) ) ;
#130 = SURFACE_SIDE_STYLE ('',( #177 ) ) ;
#131 = EDGE_CURVE ( 'NONE', #218, #13, #193, .T. ) ;
#132 = PRESENTATION_STYLE_ASSIGNMENT (( #217 ) ) ;
#133 =( CONVERSION_BASED_UNIT ( 'INCH', #84 ) LENGTH_UNIT ( ) NAMED_UNIT ( #150 ) );
#134 = CIRCLE ( 'NONE', #101, 0.09375000000000001388 ) ;
#135 = AXIS2_PLACEMENT_3D ( 'NONE', #96, #91, #231 ) ;
#136 = ORIENTED_EDGE ( 'NONE', *, *, #25, .F. ) ;
#137 = DIRECTION ( 'NONE',  ( 1.000000000000000000, 0.0000000000000000000, 0.0000000000000000000 ) ) ;
#138 = DIRECTION ( 'NONE',  ( 0.0000000000000000000, 0.0000000000000000000, 1.000000000000000000 ) ) ;
#139 = ORIENTED_EDGE ( 'NONE', *, *, #206, .F. ) ;
#140 = ORIENTED_EDGE ( 'NONE', *, *, #71, .F. ) ;
#141 = ORIENTED_EDGE ( 'NONE', *, *, #52, .F. ) ;
#142 = LINE ( 'NONE', #86, #202 ) ;
#143 = AXIS2_PLACEMENT_3D ( 'NONE', #203, #184, #238 ) ;
#144 = PRODUCT_DEFINITION_CONTEXT ( 'detailed design', #245, 'design' ) ;
#145 = ORIENTED_EDGE ( 'NONE', *, *, #89, .F. ) ;
#146 = CARTESIAN_POINT ( 'NONE',  ( -0.09375000000000001388, 0.0000000000000000000, 0.3349515599793054799 ) ) ;
#147 = FACE_OUTER_BOUND ( 'NONE', #187, .T. ) ;
#148 =( GEOMETRIC_REPRESENTATION_CONTEXT ( 3 ) GLOBAL_UNCERTAINTY_ASSIGNED_CONTEXT ( ( #242 ) ) GLOBAL_UNIT_ASSIGNED_CONTEXT ( ( #7, #99, #117 ) ) REPRESENTATION_CONTEXT ( 'NONE', 'WORKASPACE' ) );
#149 = CARTESIAN_POINT ( 'NONE',  ( 0.003999999999999999216, 0.0000000000000000000, 0.0000000000000000000 ) ) ;
#150 = DIMENSIONAL_EXPONENTS ( 1.000000000000000000, 0.0000000000000000000, 0.0000000000000000000, 0.0000000000000000000, 0.0000000000000000000, 0.0000000000000000000, 0.0000000000000000000 ) ;
#151 = FILL_AREA_STYLE ('',( #210 ) ) ;
#152 = DIRECTION ( 'NONE',  ( 0.0000000000000000000, 0.0000000000000000000, -1.000000000000000000 ) ) ;
#153 = LENGTH_MEASURE_WITH_UNIT ( LENGTH_MEASURE( 0.02539999999999999897 ), #112 );
#154 = DIMENSIONAL_EXPONENTS ( 1.000000000000000000, 0.0000000000000000000, 0.0000000000000000000, 0.0000000000000000000, 0.0000000000000000000, 0.0000000000000000000, 0.0000000000000000000 ) ;
#155 = FACE_OUTER_BOUND ( 'NONE', #166, .T. ) ;
#156 = ORIENTED_EDGE ( 'NONE', *, *, #25, .T. ) ;
#157 = ORIENTED_EDGE ( 'NONE', *, *, #118, .T. ) ;
#158 = CARTESIAN_POINT ( 'NONE',  ( 0.0000000000000000000, 0.0000000000000000000, 0.0000000000000000000 ) ) ;
#159 = AXIS2_PLACEMENT_3D ( 'NONE', #26, #30, #168 ) ;
#160 = SHAPE_DEFINITION_REPRESENTATION ( #81, #165 ) ;
#161 = EDGE_LOOP ( 'NONE', ( #145, #65, #200, #58 ) ) ;
#162 = EDGE_CURVE ( 'NONE', #163, #122, #181, .T. ) ;
#163 = VERTEX_POINT ( 'NONE', #74 ) ;
#164 = CIRCLE ( 'NONE', #110, 0.003999999999999999216 ) ;
#165 = ADVANCED_BREP_SHAPE_REPRESENTATION ( 'Micro_RTC-187-2X', ( #179, #121 ), #95 ) ;
#166 = EDGE_LOOP ( 'NONE', ( #70, #31, #156, #45 ) ) ;
#167 = ADVANCED_FACE ( 'NONE', ( #249 ), #173, .F. ) ;
#168 = DIRECTION ( 'NONE',  ( 1.000000000000000000, 0.0000000000000000000, 0.0000000000000000000 ) ) ;
#169 = EDGE_LOOP ( 'NONE', ( #221, #43, #11, #44 ) ) ;
#170 = CIRCLE ( 'NONE', #219, 0.09375000000000001388 ) ;
#171 = CARTESIAN_POINT ( 'NONE',  ( 0.003999999999999999216, 0.0000000000000000000, 2.000000000000000000 ) ) ;
#172 = PLANE ( 'NONE',  #135 ) ;
#173 = PLANE ( 'NONE',  #120 ) ;
#174 = CIRCLE ( 'NONE', #46, 0.003999999999999999216 ) ;
#175 = DIRECTION ( 'NONE',  ( -1.000000000000000000, 0.0000000000000000000, 0.0000000000000000000 ) ) ;
#176 = CARTESIAN_POINT ( 'NONE',  ( 0.0000000000000000000, 0.0000000000000000000, 0.0000000000000000000 ) ) ;
#177 = SURFACE_STYLE_FILL_AREA ( #151 ) ;
#178 = VECTOR ( 'NONE', #53, 39.37007874015748143 ) ;
#179 = MANIFOLD_SOLID_BREP ( 'Mirror1', #216 ) ;
#180 = PRODUCT_CONTEXT ( 'NONE', #241, 'mechanical' ) ;
#181 = CIRCLE ( 'NONE', #116, 0.003999999999999999216 ) ;
#182 = EDGE_CURVE ( 'NONE', #218, #201, #174, .T. ) ;
#183 =( LENGTH_UNIT ( ) NAMED_UNIT ( * ) SI_UNIT ( $, .METRE. ) );
#184 = DIRECTION ( 'NONE',  ( 0.0000000000000000000, 0.0000000000000000000, 1.000000000000000000 ) ) ;
#185 = AXIS2_PLACEMENT_3D ( 'NONE', #240, #67, #205 ) ;
#186 = FACE_OUTER_BOUND ( 'NONE', #225, .T. ) ;
#187 = EDGE_LOOP ( 'NONE', ( #141, #60 ) ) ;
#188 = CARTESIAN_POINT ( 'NONE',  ( 0.09375000000000001388, 1.148106374200643863E-17, 0.3349515599793054799 ) ) ;
#189 = LINE ( 'NONE', #171, #78 ) ;
#190 = CARTESIAN_POINT ( 'NONE',  ( 0.0000000000000000000, 0.0000000000000000000, 1.665048440020694409 ) ) ;
#191 = AXIS2_PLACEMENT_3D ( 'NONE', #190, #152, #108 ) ;
#192 = CARTESIAN_POINT ( 'NONE',  ( 0.0000000000000000000, 0.0000000000000000000, 2.000000000000000000 ) ) ;
#193 = LINE ( 'NONE', #229, #178 ) ;
#194 = AXIS2_PLACEMENT_3D ( 'NONE', #119, #215, #235 ) ;
#195 = FILL_AREA_STYLE_COLOUR ( '', #22 ) ;
#196 = CARTESIAN_POINT ( 'NONE',  ( 0.09375000000000001388, 1.148106374200643863E-17, 2.000000000000000000 ) ) ;
#197 = ADVANCED_FACE ( 'NONE', ( #147 ), #172, .T. ) ;
#198 = CYLINDRICAL_SURFACE ( 'NONE', #194, 0.09375000000000001388 ) ;
#199 = AXIS2_PLACEMENT_3D ( 'NONE', #66, #222, #246 ) ;
#200 = ORIENTED_EDGE ( 'NONE', *, *, #211, .T. ) ;
#201 = VERTEX_POINT ( 'NONE', #37 ) ;
#202 = VECTOR ( 'NONE', #48, 39.37007874015748143 ) ;
#203 = CARTESIAN_POINT ( 'NONE',  ( 0.0000000000000000000, 0.0000000000000000000, 0.0000000000000000000 ) ) ;
#204 = DIRECTION ( 'NONE',  ( 1.000000000000000000, 0.0000000000000000000, 0.0000000000000000000 ) ) ;
#205 = DIRECTION ( 'NONE',  ( 1.000000000000000000, 0.0000000000000000000, 0.0000000000000000000 ) ) ;
#206 = EDGE_CURVE ( 'NONE', #220, #13, #170, .T. ) ;
#207 = DIRECTION ( 'NONE',  ( 0.0000000000000000000, 0.0000000000000000000, -1.000000000000000000 ) ) ;
#208 = MECHANICAL_DESIGN_GEOMETRIC_PRESENTATION_REPRESENTATION (  '', ( #28 ), #73 ) ;
#209 = MECHANICAL_DESIGN_GEOMETRIC_PRESENTATION_REPRESENTATION (  '', ( #69 ), #148 ) ;
#210 = FILL_AREA_STYLE_COLOUR ( '', #64 ) ;
#211 = EDGE_CURVE ( 'NONE', #122, #47, #51, .T. ) ;
#212 = DIRECTION ( 'NONE',  ( 0.2588190451025216832, 0.0000000000000000000, 0.9659258262890679791 ) ) ;
#213 = PRESENTATION_STYLE_ASSIGNMENT (( #54 ) ) ;
#214 = UNCERTAINTY_MEASURE_WITH_UNIT (LENGTH_MEASURE( 1.000000000000000082E-05 ), #15, 'distance_accuracy_value', 'NONE');
#215 = DIRECTION ( 'NONE',  ( -0.0000000000000000000, -0.0000000000000000000, -1.000000000000000000 ) ) ;
#216 = CLOSED_SHELL ( 'NONE', ( #19, #12, #93, #226, #29, #167, #5, #197 ) ) ;
#217 = SURFACE_STYLE_USAGE ( .BOTH. , #114 ) ;
#218 = VERTEX_POINT ( 'NONE', #24 ) ;
#219 = AXIS2_PLACEMENT_3D ( 'NONE', #57, #207, #18 ) ;
#220 = VERTEX_POINT ( 'NONE', #3 ) ;
#221 = ORIENTED_EDGE ( 'NONE', *, *, #131, .F. ) ;
#222 = DIRECTION ( 'NONE',  ( -0.0000000000000000000, -0.0000000000000000000, -1.000000000000000000 ) ) ;
#223 = CIRCLE ( 'NONE', #199, 0.09375000000000001388 ) ;
#224 = FACE_OUTER_BOUND ( 'NONE', #161, .T. ) ;
#225 = EDGE_LOOP ( 'NONE', ( #104, #23, #139, #123 ) ) ;
#226 = ADVANCED_FACE ( 'NONE', ( #155 ), #198, .T. ) ;
#227 = ORIENTED_EDGE ( 'NONE', *, *, #82, .T. ) ;
#228 = DIRECTION ( 'NONE',  ( 1.000000000000000000, 0.0000000000000000000, -0.0000000000000000000 ) ) ;
#229 = CARTESIAN_POINT ( 'NONE',  ( -0.003999999999999999216, -4.898587196589411612E-19, 2.000000000000000000 ) ) ;
#230 = DIRECTION ( 'NONE',  ( -0.2588190451025216832, 3.169619151431776035E-17, 0.9659258262890679791 ) ) ;
#231 = DIRECTION ( 'NONE',  ( 1.000000000000000000, 0.0000000000000000000, -0.0000000000000000000 ) ) ;
#232 = CIRCLE ( 'NONE', #191, 0.09375000000000001388 ) ;
#233 = LINE ( 'NONE', #196, #10 ) ;
#234 = EDGE_LOOP ( 'NONE', ( #237, #63, #105, #32 ) ) ;
#235 = DIRECTION ( 'NONE',  ( -1.000000000000000000, 0.0000000000000000000, 0.0000000000000000000 ) ) ;
#236 = ORIENTED_EDGE ( 'NONE', *, *, #162, .T. ) ;
#237 = ORIENTED_EDGE ( 'NONE', *, *, #162, .F. ) ;
#238 = DIRECTION ( 'NONE',  ( 1.000000000000000000, 0.0000000000000000000, 0.0000000000000000000 ) ) ;
#239 = DIRECTION ( 'NONE',  ( 0.2588190451025216832, 0.0000000000000000000, -0.9659258262890679791 ) ) ;
#240 = CARTESIAN_POINT ( 'NONE',  ( 0.0000000000000000000, 0.0000000000000000000, 2.000000000000000000 ) ) ;
#241 = APPLICATION_CONTEXT ( 'automotive_design' ) ;
#242 = UNCERTAINTY_MEASURE_WITH_UNIT (LENGTH_MEASURE( 1.000000000000000082E-05 ), #7, 'distance_accuracy_value', 'NONE');
#243 = EDGE_CURVE ( 'NONE', #220, #47, #233, .T. ) ;
#244 = DIRECTION ( 'NONE',  ( -0.0000000000000000000, -0.0000000000000000000, -1.000000000000000000 ) ) ;
#245 = APPLICATION_CONTEXT ( 'automotive_design' ) ;
#246 = DIRECTION ( 'NONE',  ( -1.000000000000000000, 0.0000000000000000000, 0.0000000000000000000 ) ) ;
#247 = DIRECTION ( 'NONE',  ( 0.0000000000000000000, 0.0000000000000000000, -1.000000000000000000 ) ) ;
#248 = CARTESIAN_POINT ( 'NONE',  ( 0.0000000000000000000, 0.0000000000000000000, 0.0000000000000000000 ) ) ;
#249 = FACE_OUTER_BOUND ( 'NONE', #49, .T. ) ;
ENDSEC;
END-ISO-10303-21;
