ISO-10303-21;
HEADER;
FILE_DESCRIPTION (( 'STEP AP214' ),
    '1' );
FILE_NAME ('Micro_SME-005-2X.STEP',
    '2021-09-02T09:33:42',
    ( '' ),
    ( '' ),
    'SwSTEP 2.0',
    'SolidWorks 2020',
    '' );
FILE_SCHEMA (( 'AUTOMOTIVE_DESIGN' ));
ENDSEC;

DATA;
#1 = DIRECTION ( 'NONE',  ( 0.0000000000000000000, 0.0000000000000000000, -1.000000000000000000 ) ) ;
#2 = CIRCLE ( 'NONE', #224, 0.06250000000000002776 ) ;
#3 = ORIENTED_EDGE ( 'NONE', *, *, #278, .F. ) ;
#4 = EDGE_LOOP ( 'NONE', ( #167, #260, #209, #216 ) ) ;
#5 = VERTEX_POINT ( 'NONE', #196 ) ;
#6 = PRESENTATION_LAYER_ASSIGNMENT (  '', '', ( #142 ) ) ;
#7 = AXIS2_PLACEMENT_3D ( 'NONE', #139, #17, #293 ) ;
#8 = ORIENTED_EDGE ( 'NONE', *, *, #243, .F. ) ;
#9 = CARTESIAN_POINT ( 'NONE',  ( -0.002497499999999989312, 3.979949016379005598E-18, 0.006999999999999952441 ) ) ;
#10 = DIRECTION ( 'NONE',  ( 0.0000000000000000000, 0.0000000000000000000, 1.000000000000000000 ) ) ;
#11 =( LENGTH_UNIT ( ) NAMED_UNIT ( * ) SI_UNIT ( $, .METRE. ) );
#12 = ADVANCED_FACE ( 'NONE', ( #108 ), #192, .F. ) ;
#13 = ORIENTED_EDGE ( 'NONE', *, *, #210, .F. ) ;
#14 = CARTESIAN_POINT ( 'NONE',  ( 0.0000000000000000000, 0.0000000000000000000, 1.485000000000000764 ) ) ;
#15 = CARTESIAN_POINT ( 'NONE',  ( 0.0000000000000000000, 0.0000000000000000000, 1.500000000000000222 ) ) ;
#16 = EDGE_CURVE ( 'NONE', #28, #244, #150, .T. ) ;
#17 = DIRECTION ( 'NONE',  ( -1.224646799147353700E-16, -0.0000000000000000000, -1.000000000000000000 ) ) ;
#18 = LINE ( 'NONE', #145, #290 ) ;
#19 = ADVANCED_FACE ( 'NONE', ( #35 ), #235, .T. ) ;
#20 = DIRECTION ( 'NONE',  ( -1.224646799147353700E-16, -0.0000000000000000000, -1.000000000000000000 ) ) ;
#21 = DIRECTION ( 'NONE',  ( 1.000000000000000000, 0.0000000000000000000, 0.0000000000000000000 ) ) ;
#22 = ADVANCED_FACE ( 'NONE', ( #266 ), #195, .T. ) ;
#23 = DIRECTION ( 'NONE',  ( -1.224646799147353700E-16, -0.0000000000000000000, -1.000000000000000000 ) ) ;
#24 = ADVANCED_FACE ( 'NONE', ( #128 ), #90, .T. ) ;
#25 = AXIS2_PLACEMENT_3D ( 'NONE', #39, #292, #194 ) ;
#26 = UNCERTAINTY_MEASURE_WITH_UNIT (LENGTH_MEASURE( 1.000000000000000082E-05 ), #154, 'distance_accuracy_value', 'NONE');
#27 = EDGE_LOOP ( 'NONE', ( #8, #29, #211, #75 ) ) ;
#28 = VERTEX_POINT ( 'NONE', #9 ) ;
#29 = ORIENTED_EDGE ( 'NONE', *, *, #213, .T. ) ;
#30 =( GEOMETRIC_REPRESENTATION_CONTEXT ( 3 ) GLOBAL_UNCERTAINTY_ASSIGNED_CONTEXT ( ( #26 ) ) GLOBAL_UNIT_ASSIGNED_CONTEXT ( ( #154, #110, #176 ) ) REPRESENTATION_CONTEXT ( 'NONE', 'WORKASPACE' ) );
#31 = CARTESIAN_POINT ( 'NONE',  ( 0.0000000000000000000, 0.0000000000000000000, 1.500000000000000222 ) ) ;
#32 = PRODUCT ( 'Micro_SME-005-2X', 'Micro_SME-005-2X', '', ( #86 ) ) ;
#33 = DIRECTION ( 'NONE',  ( 0.0000000000000000000, 0.0000000000000000000, 1.000000000000000000 ) ) ;
#34 = DIRECTION ( 'NONE',  ( 0.0000000000000000000, 0.0000000000000000000, 1.000000000000000000 ) ) ;
#35 = FACE_OUTER_BOUND ( 'NONE', #49, .T. ) ;
#36 = CARTESIAN_POINT ( 'NONE',  ( 0.0000000000000000000, 0.0000000000000000000, 1.500000000000000222 ) ) ;
#37 = EDGE_CURVE ( 'NONE', #256, #279, #88, .T. ) ;
#38 = FACE_OUTER_BOUND ( 'NONE', #173, .T. ) ;
#39 = CARTESIAN_POINT ( 'NONE',  ( 0.0000000000000000000, 0.0000000000000000000, 1.500000000000000222 ) ) ;
#40 = PRESENTATION_STYLE_ASSIGNMENT (( #112 ) ) ;
#41 = LENGTH_MEASURE_WITH_UNIT ( LENGTH_MEASURE( 0.02539999999999999897 ), #60 );
#42 = CARTESIAN_POINT ( 'NONE',  ( 0.06250000000000002776, 7.654042494670959086E-18, 1.500000000000000222 ) ) ;
#43 = DIRECTION ( 'NONE',  ( -1.224646799147353700E-16, -0.0000000000000000000, -1.000000000000000000 ) ) ;
#44 = FACE_OUTER_BOUND ( 'NONE', #99, .T. ) ;
#45 = DIRECTION ( 'NONE',  ( -0.0000000000000000000, -0.0000000000000000000, -1.000000000000000000 ) ) ;
#46 = CIRCLE ( 'NONE', #270, 0.002497499999999990613 ) ;
#47 = DIRECTION ( 'NONE',  ( 1.000000000000000000, 0.0000000000000000000, 0.0000000000000000000 ) ) ;
#48 = EDGE_CURVE ( 'NONE', #231, #181, #295, .T. ) ;
#49 = EDGE_LOOP ( 'NONE', ( #257, #206, #285, #229 ) ) ;
#50 = ADVANCED_BREP_SHAPE_REPRESENTATION ( 'Micro_SME-005-2X', ( #62, #119 ), #30 ) ;
#51 = CONICAL_SURFACE ( 'NONE', #107, 0.04750000000000064587, 0.7853981633974466137 ) ;
#52 = ORIENTED_EDGE ( 'NONE', *, *, #48, .T. ) ;
#53 = ORIENTED_EDGE ( 'NONE', *, *, #16, .F. ) ;
#54 = COLOUR_RGB ( '',0.7921568627450980005, 0.8196078431372548767, 0.9333333333333333481 ) ;
#55 = ORIENTED_EDGE ( 'NONE', *, *, #250, .T. ) ;
#56 = PRODUCT_DEFINITION ( 'UNKNOWN', '', #274, #204 ) ;
#57 = SURFACE_STYLE_FILL_AREA ( #261 ) ;
#58 =( GEOMETRIC_REPRESENTATION_CONTEXT ( 3 ) GLOBAL_UNCERTAINTY_ASSIGNED_CONTEXT ( ( #251 ) ) GLOBAL_UNIT_ASSIGNED_CONTEXT ( ( #240, #133, #149 ) ) REPRESENTATION_CONTEXT ( 'NONE', 'WORKASPACE' ) );
#59 = DIRECTION ( 'NONE',  ( 1.224646799147353700E-16, 0.0000000000000000000, 1.000000000000000000 ) ) ;
#60 =( LENGTH_UNIT ( ) NAMED_UNIT ( * ) SI_UNIT ( $, .METRE. ) );
#61 = DIRECTION ( 'NONE',  ( -0.0000000000000000000, -0.0000000000000000000, -1.000000000000000000 ) ) ;
#62 = MANIFOLD_SOLID_BREP ( 'Cut-Revolve1', #158 ) ;
#63 = CARTESIAN_POINT ( 'NONE',  ( 8.572527594031417839E-19, 0.0000000000000000000, 0.006999999999999952441 ) ) ;
#64 = EDGE_CURVE ( 'NONE', #155, #279, #2, .T. ) ;
#65 = DIRECTION ( 'NONE',  ( -1.000000000000000000, 0.0000000000000000000, 1.224646799147353700E-16 ) ) ;
#66 = CARTESIAN_POINT ( 'NONE',  ( 0.06250000000000006939, 7.654042494670963708E-18, 0.3472910873816099087 ) ) ;
#67 = CARTESIAN_POINT ( 'NONE',  ( 0.0000000000000000000, 0.0000000000000000000, 0.0000000000000000000 ) ) ;
#68 = MECHANICAL_DESIGN_GEOMETRIC_PRESENTATION_REPRESENTATION (  '', ( #198 ), #137 ) ;
#69 = CARTESIAN_POINT ( 'NONE',  ( -0.002497499999999991480, 0.0000000000000000000, 6.117110761741010448E-19 ) ) ;
#70 = ORIENTED_EDGE ( 'NONE', *, *, #228, .F. ) ;
#71 = ORIENTED_EDGE ( 'NONE', *, *, #210, .T. ) ;
#72 = AXIS2_PLACEMENT_3D ( 'NONE', #283, #59, #153 ) ;
#73 = COLOUR_RGB ( '',0.7921568627450980005, 0.8196078431372548767, 0.9333333333333333481 ) ;
#74 = AXIS2_PLACEMENT_3D ( 'NONE', #184, #271, #65 ) ;
#75 = ORIENTED_EDGE ( 'NONE', *, *, #37, .F. ) ;
#76 = CARTESIAN_POINT ( 'NONE',  ( -0.04750000000000064587, 0.0000000000000000000, 1.500000000000000222 ) ) ;
#77 = EDGE_CURVE ( 'NONE', #28, #181, #185, .T. ) ;
#78 = VERTEX_POINT ( 'NONE', #66 ) ;
#79 = CONICAL_SURFACE ( 'NONE', #215, 0.04750000000000064587, 0.7853981633974466137 ) ;
#80 = PRODUCT_DEFINITION_SHAPE ( 'NONE', 'NONE',  #56 ) ;
#81 = CARTESIAN_POINT ( 'NONE',  ( -0.04750000000000064587, 0.0000000000000000000, 1.500000000000000222 ) ) ;
#82 =( LENGTH_UNIT ( ) NAMED_UNIT ( * ) SI_UNIT ( $, .METRE. ) );
#83 = SURFACE_SIDE_STYLE ('',( #57 ) ) ;
#84 = FILL_AREA_STYLE ('',( #234 ) ) ;
#85 = DIRECTION ( 'NONE',  ( -0.7071067811865462405, 0.0000000000000000000, -0.7071067811865486830 ) ) ;
#86 = PRODUCT_CONTEXT ( 'NONE', #180, 'mechanical' ) ;
#87 = DIRECTION ( 'NONE',  ( -1.224646799147353700E-16, -0.0000000000000000000, -1.000000000000000000 ) ) ;
#88 = LINE ( 'NONE', #81, #130 ) ;
#89 = LINE ( 'NONE', #42, #131 ) ;
#90 = CONICAL_SURFACE ( 'NONE', #72, 0.002497499999999990613, 0.1745329251994338915 ) ;
#91 = CARTESIAN_POINT ( 'NONE',  ( 0.002497499999999991480, 3.058555380870503298E-19, 0.0000000000000000000 ) ) ;
#92 = AXIS2_PLACEMENT_3D ( 'NONE', #297, #220, #93 ) ;
#93 = DIRECTION ( 'NONE',  ( 1.000000000000000000, 0.0000000000000000000, -0.0000000000000000000 ) ) ;
#94 = DIRECTION ( 'NONE',  ( 0.7071067811865462405, 8.659560562354916834E-17, -0.7071067811865486830 ) ) ;
#95 = EDGE_CURVE ( 'NONE', #279, #244, #199, .T. ) ;
#96 = FACE_OUTER_BOUND ( 'NONE', #259, .T. ) ;
#97 = ORIENTED_EDGE ( 'NONE', *, *, #152, .F. ) ;
#98 = UNCERTAINTY_MEASURE_WITH_UNIT (LENGTH_MEASURE( 1.000000000000000082E-05 ), #136, 'distance_accuracy_value', 'NONE');
#99 = EDGE_LOOP ( 'NONE', ( #104, #125 ) ) ;
#100 = ORIENTED_EDGE ( 'NONE', *, *, #232, .T. ) ;
#101 = AXIS2_PLACEMENT_3D ( 'NONE', #127, #10, #217 ) ;
#102 = AXIS2_PLACEMENT_3D ( 'NONE', #15, #156, #265 ) ;
#103 = ORIENTED_EDGE ( 'NONE', *, *, #134, .T. ) ;
#104 = ORIENTED_EDGE ( 'NONE', *, *, #278, .T. ) ;
#105 = DIRECTION ( 'NONE',  ( -1.224646799147353700E-16, -0.0000000000000000000, -1.000000000000000000 ) ) ;
#106 = DIRECTION ( 'NONE',  ( -1.000000000000000000, 0.0000000000000000000, 1.224646799147353700E-16 ) ) ;
#107 = AXIS2_PLACEMENT_3D ( 'NONE', #188, #166, #246 ) ;
#108 = FACE_OUTER_BOUND ( 'NONE', #157, .T. ) ;
#109 = FILL_AREA_STYLE_COLOUR ( '', #54 ) ;
#110 =( NAMED_UNIT ( * ) PLANE_ANGLE_UNIT ( ) SI_UNIT ( $, .RADIAN. ) );
#111 = VECTOR ( 'NONE', #269, 39.37007874015748143 ) ;
#112 = SURFACE_STYLE_USAGE ( .BOTH. , #83 ) ;
#113 =( NAMED_UNIT ( * ) PLANE_ANGLE_UNIT ( ) SI_UNIT ( $, .RADIAN. ) );
#114 = CARTESIAN_POINT ( 'NONE',  ( -0.002497499999999991047, 0.0000000000000000000, 3.058555380870504742E-19 ) ) ;
#115 = EDGE_CURVE ( 'NONE', #279, #155, #258, .T. ) ;
#116 = DIRECTION ( 'NONE',  ( 0.1736481776669313859, 0.0000000000000000000, 0.9848077530122077983 ) ) ;
#117 = DIMENSIONAL_EXPONENTS ( 1.000000000000000000, 0.0000000000000000000, 0.0000000000000000000, 0.0000000000000000000, 0.0000000000000000000, 0.0000000000000000000, 0.0000000000000000000 ) ;
#118 = ADVANCED_FACE ( 'NONE', ( #96 ), #162, .T. ) ;
#119 = AXIS2_PLACEMENT_3D ( 'NONE', #129, #33, #284 ) ;
#120 = CARTESIAN_POINT ( 'NONE',  ( 0.0000000000000000000, 0.0000000000000000000, 1.485000000000000764 ) ) ;
#121 = CARTESIAN_POINT ( 'NONE',  ( 0.06250000000000002776, 7.654042494670959086E-18, 1.485000000000000764 ) ) ;
#122 = FACE_OUTER_BOUND ( 'NONE', #237, .T. ) ;
#123 = PRODUCT_RELATED_PRODUCT_CATEGORY ( 'part', '', ( #32 ) ) ;
#124 = DIMENSIONAL_EXPONENTS ( 1.000000000000000000, 0.0000000000000000000, 0.0000000000000000000, 0.0000000000000000000, 0.0000000000000000000, 0.0000000000000000000, 0.0000000000000000000 ) ;
#125 = ORIENTED_EDGE ( 'NONE', *, *, #243, .T. ) ;
#126 = AXIS2_PLACEMENT_3D ( 'NONE', #67, #20, #163 ) ;
#127 = CARTESIAN_POINT ( 'NONE',  ( 0.0000000000000000000, 0.0000000000000000000, 0.0000000000000000000 ) ) ;
#128 = FACE_OUTER_BOUND ( 'NONE', #172, .T. ) ;
#129 = CARTESIAN_POINT ( 'NONE',  ( 0.0000000000000000000, 0.0000000000000000000, 0.0000000000000000000 ) ) ;
#130 = VECTOR ( 'NONE', #85, 39.37007874015748854 ) ;
#131 = VECTOR ( 'NONE', #45, 39.37007874015748143 ) ;
#132 = DIRECTION ( 'NONE',  ( -1.000000000000000000, 0.0000000000000000000, 0.0000000000000000000 ) ) ;
#133 =( NAMED_UNIT ( * ) PLANE_ANGLE_UNIT ( ) SI_UNIT ( $, .RADIAN. ) );
#134 = EDGE_CURVE ( 'NONE', #244, #78, #281, .T. ) ;
#135 = LENGTH_MEASURE_WITH_UNIT ( LENGTH_MEASURE( 0.02539999999999999897 ), #11 );
#136 =( CONVERSION_BASED_UNIT ( 'INCH', #41 ) LENGTH_UNIT ( ) NAMED_UNIT ( #272 ) );
#137 =( GEOMETRIC_REPRESENTATION_CONTEXT ( 3 ) GLOBAL_UNCERTAINTY_ASSIGNED_CONTEXT ( ( #98 ) ) GLOBAL_UNIT_ASSIGNED_CONTEXT ( ( #136, #113, #280 ) ) REPRESENTATION_CONTEXT ( 'NONE', 'WORKASPACE' ) );
#138 = PLANE ( 'NONE',  #92 ) ;
#139 = CARTESIAN_POINT ( 'NONE',  ( 8.572527594031417839E-19, 0.0000000000000000000, 0.006999999999999952441 ) ) ;
#140 = SHAPE_DEFINITION_REPRESENTATION ( #80, #50 ) ;
#141 = FACE_OUTER_BOUND ( 'NONE', #175, .T. ) ;
#142 = STYLED_ITEM ( 'NONE', ( #40 ), #62 ) ;
#143 = AXIS2_PLACEMENT_3D ( 'NONE', #202, #43, #21 ) ;
#144 = FACE_OUTER_BOUND ( 'NONE', #27, .T. ) ;
#145 = CARTESIAN_POINT ( 'NONE',  ( 0.002497499999999991480, 0.0000000000000000000, 0.006999999999999952441 ) ) ;
#146 = ADVANCED_FACE ( 'NONE', ( #141 ), #238, .T. ) ;
#147 = ORIENTED_EDGE ( 'NONE', *, *, #77, .T. ) ;
#148 = ORIENTED_EDGE ( 'NONE', *, *, #223, .F. ) ;
#149 =( NAMED_UNIT ( * ) SI_UNIT ( $, .STERADIAN. ) SOLID_ANGLE_UNIT ( ) );
#150 = LINE ( 'NONE', #289, #197 ) ;
#151 = LENGTH_MEASURE_WITH_UNIT ( LENGTH_MEASURE( 0.02539999999999999897 ), #82 );
#152 = EDGE_CURVE ( 'NONE', #5, #231, #226, .T. ) ;
#153 = DIRECTION ( 'NONE',  ( 1.000000000000000000, 0.0000000000000000000, 0.0000000000000000000 ) ) ;
#154 =( CONVERSION_BASED_UNIT ( 'INCH', #151 ) LENGTH_UNIT ( ) NAMED_UNIT ( #117 ) );
#155 = VERTEX_POINT ( 'NONE', #121 ) ;
#156 = DIRECTION ( 'NONE',  ( 0.0000000000000000000, 0.0000000000000000000, 1.000000000000000000 ) ) ;
#157 = EDGE_LOOP ( 'NONE', ( #100, #52 ) ) ;
#158 = CLOSED_SHELL ( 'NONE', ( #286, #24, #230, #19, #22, #191, #168, #146, #118, #12 ) ) ;
#159 = CIRCLE ( 'NONE', #74, 0.002497499999999991480 ) ;
#160 = DIRECTION ( 'NONE',  ( -1.224646799147353700E-16, -0.0000000000000000000, -1.000000000000000000 ) ) ;
#161 = DIRECTION ( 'NONE',  ( 1.000000000000000000, 0.0000000000000000000, 0.0000000000000000000 ) ) ;
#162 = CYLINDRICAL_SURFACE ( 'NONE', #126, 0.002497499999999991047 ) ;
#163 = DIRECTION ( 'NONE',  ( -1.000000000000000000, 0.0000000000000000000, 1.224646799147353700E-16 ) ) ;
#164 = CIRCLE ( 'NONE', #102, 0.04750000000000064587 ) ;
#165 = DIRECTION ( 'NONE',  ( 1.000000000000000000, 0.0000000000000000000, 0.0000000000000000000 ) ) ;
#166 = DIRECTION ( 'NONE',  ( 0.0000000000000000000, 0.0000000000000000000, -1.000000000000000000 ) ) ;
#167 = ORIENTED_EDGE ( 'NONE', *, *, #186, .F. ) ;
#168 = ADVANCED_FACE ( 'NONE', ( #122 ), #51, .T. ) ;
#169 = AXIS2_PLACEMENT_3D ( 'NONE', #282, #105, #177 ) ;
#170 = CIRCLE ( 'NONE', #255, 0.06250000000000002776 ) ;
#171 = ORIENTED_EDGE ( 'NONE', *, *, #77, .F. ) ;
#172 = EDGE_LOOP ( 'NONE', ( #148, #252, #103, #70 ) ) ;
#173 = EDGE_LOOP ( 'NONE', ( #214, #233, #190, #171 ) ) ;
#174 = AXIS2_PLACEMENT_3D ( 'NONE', #120, #1, #47 ) ;
#175 = EDGE_LOOP ( 'NONE', ( #53, #13, #189, #55 ) ) ;
#176 =( NAMED_UNIT ( * ) SI_UNIT ( $, .STERADIAN. ) SOLID_ANGLE_UNIT ( ) );
#177 = DIRECTION ( 'NONE',  ( -1.000000000000000000, 0.0000000000000000000, 1.224646799147353700E-16 ) ) ;
#178 = CARTESIAN_POINT ( 'NONE',  ( 0.04750000000000064587, 6.735557395310483192E-18, 1.500000000000000222 ) ) ;
#179 = VECTOR ( 'NONE', #94, 39.37007874015748854 ) ;
#180 = APPLICATION_CONTEXT ( 'automotive_design' ) ;
#181 = VERTEX_POINT ( 'NONE', #69 ) ;
#182 = CARTESIAN_POINT ( 'NONE',  ( 0.04750000000000064587, 5.817072295950006528E-18, 1.500000000000000222 ) ) ;
#183 = CIRCLE ( 'NONE', #7, 0.002497499999999990613 ) ;
#184 = CARTESIAN_POINT ( 'NONE',  ( 3.745650057197979701E-35, 0.0000000000000000000, 3.058555380870505224E-19 ) ) ;
#185 = LINE ( 'NONE', #114, #111 ) ;
#186 = EDGE_CURVE ( 'NONE', #155, #78, #89, .T. ) ;
#187 = AXIS2_PLACEMENT_3D ( 'NONE', #275, #247, #165 ) ;
#188 = CARTESIAN_POINT ( 'NONE',  ( 0.0000000000000000000, 0.0000000000000000000, 1.500000000000000222 ) ) ;
#189 = ORIENTED_EDGE ( 'NONE', *, *, #228, .T. ) ;
#190 = ORIENTED_EDGE ( 'NONE', *, *, #232, .F. ) ;
#191 = ADVANCED_FACE ( 'NONE', ( #44 ), #138, .T. ) ;
#192 = PLANE ( 'NONE',  #101 ) ;
#193 = CARTESIAN_POINT ( 'NONE',  ( -0.06250000000000002776, 0.0000000000000000000, 1.485000000000000764 ) ) ;
#194 = DIRECTION ( 'NONE',  ( -1.000000000000000000, 0.0000000000000000000, 0.0000000000000000000 ) ) ;
#195 = CYLINDRICAL_SURFACE ( 'NONE', #254, 0.06250000000000002776 ) ;
#196 = CARTESIAN_POINT ( 'NONE',  ( 0.002497499999999991480, 0.0000000000000000000, 0.006999999999999952441 ) ) ;
#197 = VECTOR ( 'NONE', #219, 39.37007874015747433 ) ;
#198 = STYLED_ITEM ( 'NONE', ( #267 ), #50 ) ;
#199 = LINE ( 'NONE', #222, #239 ) ;
#200 = CARTESIAN_POINT ( 'NONE',  ( 0.0000000000000000000, 0.0000000000000000000, 1.500000000000000222 ) ) ;
#201 = PRESENTATION_LAYER_ASSIGNMENT (  '', '', ( #198 ) ) ;
#202 = CARTESIAN_POINT ( 'NONE',  ( 4.253089185342924320E-17, 0.0000000000000000000, 0.3472910873816099087 ) ) ;
#203 = DIRECTION ( 'NONE',  ( -0.0000000000000000000, -0.0000000000000000000, -1.000000000000000000 ) ) ;
#204 = PRODUCT_DEFINITION_CONTEXT ( 'detailed design', #253, 'design' ) ;
#205 = VECTOR ( 'NONE', #23, 39.37007874015748143 ) ;
#206 = ORIENTED_EDGE ( 'NONE', *, *, #186, .T. ) ;
#207 = ORIENTED_EDGE ( 'NONE', *, *, #64, .F. ) ;
#208 = CIRCLE ( 'NONE', #264, 0.04750000000000064587 ) ;
#209 = ORIENTED_EDGE ( 'NONE', *, *, #95, .T. ) ;
#210 = EDGE_CURVE ( 'NONE', #5, #28, #183, .T. ) ;
#211 = ORIENTED_EDGE ( 'NONE', *, *, #115, .F. ) ;
#212 = SURFACE_STYLE_FILL_AREA ( #84 ) ;
#213 = EDGE_CURVE ( 'NONE', #277, #155, #221, .T. ) ;
#214 = ORIENTED_EDGE ( 'NONE', *, *, #223, .T. ) ;
#215 = AXIS2_PLACEMENT_3D ( 'NONE', #200, #225, #294 ) ;
#216 = ORIENTED_EDGE ( 'NONE', *, *, #250, .F. ) ;
#217 = DIRECTION ( 'NONE',  ( 1.000000000000000000, 0.0000000000000000000, -0.0000000000000000000 ) ) ;
#218 = CYLINDRICAL_SURFACE ( 'NONE', #296, 0.002497499999999991047 ) ;
#219 = DIRECTION ( 'NONE',  ( -0.1736481776669311916, 2.126576849575783316E-17, 0.9848077530122080203 ) ) ;
#220 = DIRECTION ( 'NONE',  ( 0.0000000000000000000, 0.0000000000000000000, 1.000000000000000000 ) ) ;
#221 = LINE ( 'NONE', #182, #179 ) ;
#222 = CARTESIAN_POINT ( 'NONE',  ( -0.06250000000000002776, 0.0000000000000000000, 1.500000000000000222 ) ) ;
#223 = EDGE_CURVE ( 'NONE', #28, #5, #46, .T. ) ;
#224 = AXIS2_PLACEMENT_3D ( 'NONE', #14, #245, #273 ) ;
#225 = DIRECTION ( 'NONE',  ( 0.0000000000000000000, 0.0000000000000000000, -1.000000000000000000 ) ) ;
#226 = LINE ( 'NONE', #299, #205 ) ;
#227 = ORIENTED_EDGE ( 'NONE', *, *, #213, .F. ) ;
#228 = EDGE_CURVE ( 'NONE', #5, #78, #18, .T. ) ;
#229 = ORIENTED_EDGE ( 'NONE', *, *, #95, .F. ) ;
#230 = ADVANCED_FACE ( 'NONE', ( #144 ), #79, .T. ) ;
#231 = VERTEX_POINT ( 'NONE', #91 ) ;
#232 = EDGE_CURVE ( 'NONE', #181, #231, #159, .T. ) ;
#233 = ORIENTED_EDGE ( 'NONE', *, *, #152, .T. ) ;
#234 = FILL_AREA_STYLE_COLOUR ( '', #73 ) ;
#235 = CYLINDRICAL_SURFACE ( 'NONE', #25, 0.06250000000000002776 ) ;
#236 = DIRECTION ( 'NONE',  ( -1.224646799147353700E-16, -0.0000000000000000000, -1.000000000000000000 ) ) ;
#237 = EDGE_LOOP ( 'NONE', ( #227, #3, #263, #207 ) ) ;
#238 = CONICAL_SURFACE ( 'NONE', #187, 0.002497499999999990613, 0.1745329251994338915 ) ;
#239 = VECTOR ( 'NONE', #203, 39.37007874015748143 ) ;
#240 =( CONVERSION_BASED_UNIT ( 'INCH', #135 ) LENGTH_UNIT ( ) NAMED_UNIT ( #124 ) );
#241 = SURFACE_SIDE_STYLE ('',( #212 ) ) ;
#242 = ORIENTED_EDGE ( 'NONE', *, *, #48, .F. ) ;
#243 = EDGE_CURVE ( 'NONE', #277, #256, #208, .T. ) ;
#244 = VERTEX_POINT ( 'NONE', #276 ) ;
#245 = DIRECTION ( 'NONE',  ( 0.0000000000000000000, 0.0000000000000000000, -1.000000000000000000 ) ) ;
#246 = DIRECTION ( 'NONE',  ( -1.000000000000000000, 0.0000000000000000000, 0.0000000000000000000 ) ) ;
#247 = DIRECTION ( 'NONE',  ( 1.224646799147353700E-16, 0.0000000000000000000, 1.000000000000000000 ) ) ;
#248 = MECHANICAL_DESIGN_GEOMETRIC_PRESENTATION_REPRESENTATION (  '', ( #142 ), #58 ) ;
#249 = DIRECTION ( 'NONE',  ( -1.000000000000000000, 0.0000000000000000000, 0.0000000000000000000 ) ) ;
#250 = EDGE_CURVE ( 'NONE', #78, #244, #170, .T. ) ;
#251 = UNCERTAINTY_MEASURE_WITH_UNIT (LENGTH_MEASURE( 1.000000000000000082E-05 ), #240, 'distance_accuracy_value', 'NONE');
#252 = ORIENTED_EDGE ( 'NONE', *, *, #16, .T. ) ;
#253 = APPLICATION_CONTEXT ( 'automotive_design' ) ;
#254 = AXIS2_PLACEMENT_3D ( 'NONE', #36, #61, #132 ) ;
#255 = AXIS2_PLACEMENT_3D ( 'NONE', #288, #87, #161 ) ;
#256 = VERTEX_POINT ( 'NONE', #76 ) ;
#257 = ORIENTED_EDGE ( 'NONE', *, *, #115, .T. ) ;
#258 = CIRCLE ( 'NONE', #174, 0.06250000000000002776 ) ;
#259 = EDGE_LOOP ( 'NONE', ( #97, #71, #147, #242 ) ) ;
#260 = ORIENTED_EDGE ( 'NONE', *, *, #64, .T. ) ;
#261 = FILL_AREA_STYLE ('',( #109 ) ) ;
#262 = SURFACE_STYLE_USAGE ( .BOTH. , #241 ) ;
#263 = ORIENTED_EDGE ( 'NONE', *, *, #37, .T. ) ;
#264 = AXIS2_PLACEMENT_3D ( 'NONE', #31, #34, #298 ) ;
#265 = DIRECTION ( 'NONE',  ( 1.000000000000000000, 0.0000000000000000000, 0.0000000000000000000 ) ) ;
#266 = FACE_OUTER_BOUND ( 'NONE', #4, .T. ) ;
#267 = PRESENTATION_STYLE_ASSIGNMENT (( #262 ) ) ;
#268 = APPLICATION_PROTOCOL_DEFINITION ( 'draft international standard', 'automotive_design', 1998, #253 ) ;
#269 = DIRECTION ( 'NONE',  ( -1.224646799147353700E-16, -0.0000000000000000000, -1.000000000000000000 ) ) ;
#270 = AXIS2_PLACEMENT_3D ( 'NONE', #63, #160, #249 ) ;
#271 = DIRECTION ( 'NONE',  ( -1.224646799147353700E-16, -0.0000000000000000000, -1.000000000000000000 ) ) ;
#272 = DIMENSIONAL_EXPONENTS ( 1.000000000000000000, 0.0000000000000000000, 0.0000000000000000000, 0.0000000000000000000, 0.0000000000000000000, 0.0000000000000000000, 0.0000000000000000000 ) ;
#273 = DIRECTION ( 'NONE',  ( 1.000000000000000000, 0.0000000000000000000, 0.0000000000000000000 ) ) ;
#274 = PRODUCT_DEFINITION_FORMATION_WITH_SPECIFIED_SOURCE ( 'ANY', '', #32, .NOT_KNOWN. ) ;
#275 = CARTESIAN_POINT ( 'NONE',  ( 8.572527594031417839E-19, 0.0000000000000000000, 0.006999999999999952441 ) ) ;
#276 = CARTESIAN_POINT ( 'NONE',  ( -0.06249999999999997918, 0.0000000000000000000, 0.3472910873816099087 ) ) ;
#277 = VERTEX_POINT ( 'NONE', #178 ) ;
#278 = EDGE_CURVE ( 'NONE', #256, #277, #164, .T. ) ;
#279 = VERTEX_POINT ( 'NONE', #193 ) ;
#280 =( NAMED_UNIT ( * ) SI_UNIT ( $, .STERADIAN. ) SOLID_ANGLE_UNIT ( ) );
#281 = CIRCLE ( 'NONE', #143, 0.06250000000000002776 ) ;
#282 = CARTESIAN_POINT ( 'NONE',  ( 3.745650057197979701E-35, 0.0000000000000000000, 3.058555380870505224E-19 ) ) ;
#283 = CARTESIAN_POINT ( 'NONE',  ( 8.572527594031417839E-19, 0.0000000000000000000, 0.006999999999999952441 ) ) ;
#284 = DIRECTION ( 'NONE',  ( 1.000000000000000000, 0.0000000000000000000, 0.0000000000000000000 ) ) ;
#285 = ORIENTED_EDGE ( 'NONE', *, *, #134, .F. ) ;
#286 = ADVANCED_FACE ( 'NONE', ( #38 ), #218, .T. ) ;
#287 = CARTESIAN_POINT ( 'NONE',  ( 0.0000000000000000000, 0.0000000000000000000, 0.0000000000000000000 ) ) ;
#288 = CARTESIAN_POINT ( 'NONE',  ( 4.253089185342924320E-17, 0.0000000000000000000, 0.3472910873816099087 ) ) ;
#289 = CARTESIAN_POINT ( 'NONE',  ( -0.002497499999999989312, 3.058555380870502816E-19, 0.006999999999999952441 ) ) ;
#290 = VECTOR ( 'NONE', #116, 39.37007874015748143 ) ;
#291 = APPLICATION_PROTOCOL_DEFINITION ( 'draft international standard', 'automotive_design', 1998, #180 ) ;
#292 = DIRECTION ( 'NONE',  ( -0.0000000000000000000, -0.0000000000000000000, -1.000000000000000000 ) ) ;
#293 = DIRECTION ( 'NONE',  ( -1.000000000000000000, 0.0000000000000000000, 0.0000000000000000000 ) ) ;
#294 = DIRECTION ( 'NONE',  ( -1.000000000000000000, 0.0000000000000000000, 0.0000000000000000000 ) ) ;
#295 = CIRCLE ( 'NONE', #169, 0.002497499999999991480 ) ;
#296 = AXIS2_PLACEMENT_3D ( 'NONE', #287, #236, #106 ) ;
#297 = CARTESIAN_POINT ( 'NONE',  ( 0.0000000000000000000, 0.0000000000000000000, 1.500000000000000222 ) ) ;
#298 = DIRECTION ( 'NONE',  ( 1.000000000000000000, 0.0000000000000000000, 0.0000000000000000000 ) ) ;
#299 = CARTESIAN_POINT ( 'NONE',  ( 0.002497499999999991047, 3.058555380870503298E-19, -3.058555380870504742E-19 ) ) ;
ENDSEC;
END-ISO-10303-21;
