ISO-10303-21;
HEADER;
FILE_DESCRIPTION (( 'STEP AP214' ),
    '1' );
FILE_NAME ('Micro_RSCM-080-1X.STEP',
    '2021-09-03T17:59:48',
    ( '' ),
    ( '' ),
    'SwSTEP 2.0',
    'SolidWorks 2020',
    '' );
FILE_SCHEMA (( 'AUTOMOTIVE_DESIGN' ));
ENDSEC;

DATA;
#1 = CARTESIAN_POINT ( 'NONE',  ( -0.003936999999999995191, 4.821434448243123477E-19, 0.0000000000000000000 ) ) ;
#2 =( LENGTH_UNIT ( ) NAMED_UNIT ( * ) SI_UNIT ( $, .METRE. ) );
#3 = ORIENTED_EDGE ( 'NONE', *, *, #92, .F. ) ;
#4 = DIRECTION ( 'NONE',  ( -1.000000000000000000, 0.0000000000000000000, 0.0000000000000000000 ) ) ;
#5 = EDGE_CURVE ( 'NONE', #79, #76, #177, .T. ) ;
#6 = ORIENTED_EDGE ( 'NONE', *, *, #46, .T. ) ;
#7 = VERTEX_POINT ( 'NONE', #73 ) ;
#8 = DIRECTION ( 'NONE',  ( 0.0000000000000000000, 0.0000000000000000000, -1.000000000000000000 ) ) ;
#9 = VECTOR ( 'NONE', #130, 39.37007874015748143 ) ;
#10 = DIRECTION ( 'NONE',  ( -1.000000000000000000, 0.0000000000000000000, 0.0000000000000000000 ) ) ;
#11 = PRESENTATION_STYLE_ASSIGNMENT (( #72 ) ) ;
#12 = CARTESIAN_POINT ( 'NONE',  ( 0.0000000000000000000, 0.0000000000000000000, 2.480315000000000047 ) ) ;
#13 =( NAMED_UNIT ( * ) SI_UNIT ( $, .STERADIAN. ) SOLID_ANGLE_UNIT ( ) );
#14 =( NAMED_UNIT ( * ) SI_UNIT ( $, .STERADIAN. ) SOLID_ANGLE_UNIT ( ) );
#15 = COLOUR_RGB ( '',0.7921568627450980005, 0.8196078431372548767, 0.9333333333333333481 ) ;
#16 = DIRECTION ( 'NONE',  ( -0.0000000000000000000, -0.0000000000000000000, -1.000000000000000000 ) ) ;
#17 = CONICAL_SURFACE ( 'NONE', #71, 0.1424804999999990940, 0.7853981633974699283 ) ;
#18 = MANIFOLD_SOLID_BREP ( 'Cut-Revolve1', #224 ) ;
#19 = ORIENTED_EDGE ( 'NONE', *, *, #32, .F. ) ;
#20 = ORIENTED_EDGE ( 'NONE', *, *, #213, .T. ) ;
#21 = ORIENTED_EDGE ( 'NONE', *, *, #32, .T. ) ;
#22 = DIRECTION ( 'NONE',  ( 1.000000000000000000, 0.0000000000000000000, 0.0000000000000000000 ) ) ;
#23 = ORIENTED_EDGE ( 'NONE', *, *, #5, .T. ) ;
#24 =( LENGTH_UNIT ( ) NAMED_UNIT ( * ) SI_UNIT ( $, .METRE. ) );
#25 = FILL_AREA_STYLE_COLOUR ( '', #113 ) ;
#26 =( CONVERSION_BASED_UNIT ( 'INCH', #158 ) LENGTH_UNIT ( ) NAMED_UNIT ( #94 ) );
#27 = CARTESIAN_POINT ( 'NONE',  ( 0.003936999999999995191, 0.0000000000000000000, 0.0000000000000000000 ) ) ;
#28 = AXIS2_PLACEMENT_3D ( 'NONE', #101, #182, #4 ) ;
#29 = DIMENSIONAL_EXPONENTS ( 1.000000000000000000, 0.0000000000000000000, 0.0000000000000000000, 0.0000000000000000000, 0.0000000000000000000, 0.0000000000000000000, 0.0000000000000000000 ) ;
#30 = DIRECTION ( 'NONE',  ( -0.0000000000000000000, -0.0000000000000000000, -1.000000000000000000 ) ) ;
#31 = DIRECTION ( 'NONE',  ( 0.0000000000000000000, 0.0000000000000000000, 1.000000000000000000 ) ) ;
#32 = EDGE_CURVE ( 'NONE', #60, #160, #205, .T. ) ;
#33 = VECTOR ( 'NONE', #194, 39.37007874015748854 ) ;
#34 = CARTESIAN_POINT ( 'NONE',  ( -0.1574804999999999955, 0.0000000000000000000, 2.480315000000000047 ) ) ;
#35 = ORIENTED_EDGE ( 'NONE', *, *, #46, .F. ) ;
#36 = CARTESIAN_POINT ( 'NONE',  ( -0.1574804999999999955, 0.0000000000000000000, 2.465314999999999923 ) ) ;
#37 = EDGE_LOOP ( 'NONE', ( #38, #23, #62, #35 ) ) ;
#38 = ORIENTED_EDGE ( 'NONE', *, *, #213, .F. ) ;
#39 = EDGE_LOOP ( 'NONE', ( #124, #20 ) ) ;
#40 = DIRECTION ( 'NONE',  ( -0.0000000000000000000, -0.0000000000000000000, -1.000000000000000000 ) ) ;
#41 = CARTESIAN_POINT ( 'NONE',  ( -0.1424804999999990940, 0.0000000000000000000, 2.480315000000000047 ) ) ;
#42 = CARTESIAN_POINT ( 'NONE',  ( 0.0000000000000000000, 0.0000000000000000000, 2.465314999999999923 ) ) ;
#43 = PRODUCT_DEFINITION ( 'UNKNOWN', '', #107, #106 ) ;
#44 = CARTESIAN_POINT ( 'NONE',  ( 0.0000000000000000000, 0.0000000000000000000, 0.0000000000000000000 ) ) ;
#45 = DIRECTION ( 'NONE',  ( 1.000000000000000000, 0.0000000000000000000, 0.0000000000000000000 ) ) ;
#46 = EDGE_CURVE ( 'NONE', #180, #7, #87, .T. ) ;
#47 = DIRECTION ( 'NONE',  ( 1.000000000000000000, 0.0000000000000000000, -0.0000000000000000000 ) ) ;
#48 = FACE_OUTER_BOUND ( 'NONE', #93, .T. ) ;
#49 = DIRECTION ( 'NONE',  ( 0.0000000000000000000, 0.0000000000000000000, 1.000000000000000000 ) ) ;
#50 = AXIS2_PLACEMENT_3D ( 'NONE', #42, #8, #64 ) ;
#51 = CIRCLE ( 'NONE', #176, 0.1424804999999990940 ) ;
#52 = APPLICATION_CONTEXT ( 'automotive_design' ) ;
#53 = EDGE_CURVE ( 'NONE', #160, #202, #133, .T. ) ;
#54 = SURFACE_STYLE_USAGE ( .BOTH. , #234 ) ;
#55 = ORIENTED_EDGE ( 'NONE', *, *, #53, .F. ) ;
#56 = CIRCLE ( 'NONE', #81, 0.003936999999999995191 ) ;
#57 = EDGE_LOOP ( 'NONE', ( #139, #105, #6, #157 ) ) ;
#58 = CARTESIAN_POINT ( 'NONE',  ( 0.0000000000000000000, 0.0000000000000000000, 0.2659451431719508929 ) ) ;
#59 =( NAMED_UNIT ( * ) PLANE_ANGLE_UNIT ( ) SI_UNIT ( $, .RADIAN. ) );
#60 = VERTEX_POINT ( 'NONE', #126 ) ;
#61 = CARTESIAN_POINT ( 'NONE',  ( 0.0000000000000000000, 0.0000000000000000000, 2.480315000000000047 ) ) ;
#62 = ORIENTED_EDGE ( 'NONE', *, *, #92, .T. ) ;
#63 = CONICAL_SURFACE ( 'NONE', #214, 0.003936999999999995191, 0.5235987755983005920 ) ;
#64 = DIRECTION ( 'NONE',  ( 1.000000000000000000, 0.0000000000000000000, 0.0000000000000000000 ) ) ;
#65 = EDGE_CURVE ( 'NONE', #160, #7, #245, .T. ) ;
#66 = LINE ( 'NONE', #82, #69 ) ;
#67 = MECHANICAL_DESIGN_GEOMETRIC_PRESENTATION_REPRESENTATION (  '', ( #243 ), #218 ) ;
#68 = PLANE ( 'NONE',  #150 ) ;
#69 = VECTOR ( 'NONE', #164, 39.37007874015748854 ) ;
#70 = APPLICATION_CONTEXT ( 'automotive_design' ) ;
#71 = AXIS2_PLACEMENT_3D ( 'NONE', #111, #227, #10 ) ;
#72 = SURFACE_STYLE_USAGE ( .BOTH. , #197 ) ;
#73 = CARTESIAN_POINT ( 'NONE',  ( 0.1574804999999999955, 1.928579902531247412E-17, 0.2659451431719508929 ) ) ;
#74 = EDGE_LOOP ( 'NONE', ( #100, #97, #138, #237 ) ) ;
#75 = CONICAL_SURFACE ( 'NONE', #200, 0.003936999999999995191, 0.5235987755983005920 ) ;
#76 = VERTEX_POINT ( 'NONE', #226 ) ;
#77 = CARTESIAN_POINT ( 'NONE',  ( 0.003936999999999995191, 0.0000000000000000000, 0.0000000000000000000 ) ) ;
#78 = DIMENSIONAL_EXPONENTS ( 1.000000000000000000, 0.0000000000000000000, 0.0000000000000000000, 0.0000000000000000000, 0.0000000000000000000, 0.0000000000000000000, 0.0000000000000000000 ) ;
#79 = VERTEX_POINT ( 'NONE', #241 ) ;
#80 = DIRECTION ( 'NONE',  ( -1.000000000000000000, 0.0000000000000000000, 0.0000000000000000000 ) ) ;
#81 = AXIS2_PLACEMENT_3D ( 'NONE', #131, #16, #248 ) ;
#82 = CARTESIAN_POINT ( 'NONE',  ( -0.1424804999999990940, 0.0000000000000000000, 2.480315000000000047 ) ) ;
#83 = DIRECTION ( 'NONE',  ( -0.0000000000000000000, -0.0000000000000000000, -1.000000000000000000 ) ) ;
#84 = DIRECTION ( 'NONE',  ( 1.000000000000000000, 0.0000000000000000000, 0.0000000000000000000 ) ) ;
#85 = CIRCLE ( 'NONE', #232, 0.1574804999999999955 ) ;
#86 = AXIS2_PLACEMENT_3D ( 'NONE', #103, #183, #203 ) ;
#87 = LINE ( 'NONE', #27, #99 ) ;
#88 = DIRECTION ( 'NONE',  ( 0.0000000000000000000, 0.0000000000000000000, 1.000000000000000000 ) ) ;
#89 = DIRECTION ( 'NONE',  ( 0.0000000000000000000, 0.0000000000000000000, 1.000000000000000000 ) ) ;
#90 = ADVANCED_FACE ( 'NONE', ( #143 ), #63, .T. ) ;
#91 = LINE ( 'NONE', #34, #9 ) ;
#92 = EDGE_CURVE ( 'NONE', #76, #7, #85, .T. ) ;
#93 = EDGE_LOOP ( 'NONE', ( #122, #198 ) ) ;
#94 = DIMENSIONAL_EXPONENTS ( 1.000000000000000000, 0.0000000000000000000, 0.0000000000000000000, 0.0000000000000000000, 0.0000000000000000000, 0.0000000000000000000, 0.0000000000000000000 ) ;
#95 = ORIENTED_EDGE ( 'NONE', *, *, #219, .T. ) ;
#96 = ADVANCED_FACE ( 'NONE', ( #242 ), #17, .T. ) ;
#97 = ORIENTED_EDGE ( 'NONE', *, *, #53, .T. ) ;
#98 = DIRECTION ( 'NONE',  ( -0.0000000000000000000, -0.0000000000000000000, -1.000000000000000000 ) ) ;
#99 = VECTOR ( 'NONE', #171, 39.37007874015748854 ) ;
#100 = ORIENTED_EDGE ( 'NONE', *, *, #65, .F. ) ;
#101 = CARTESIAN_POINT ( 'NONE',  ( 0.0000000000000000000, 0.0000000000000000000, 0.0000000000000000000 ) ) ;
#102 = STYLED_ITEM ( 'NONE', ( #11 ), #109 ) ;
#103 = CARTESIAN_POINT ( 'NONE',  ( 0.0000000000000000000, 0.0000000000000000000, 2.480315000000000047 ) ) ;
#104 =( LENGTH_UNIT ( ) NAMED_UNIT ( * ) SI_UNIT ( $, .METRE. ) );
#105 = ORIENTED_EDGE ( 'NONE', *, *, #189, .F. ) ;
#106 = PRODUCT_DEFINITION_CONTEXT ( 'detailed design', #52, 'design' ) ;
#107 = PRODUCT_DEFINITION_FORMATION_WITH_SPECIFIED_SOURCE ( 'ANY', '', #230, .NOT_KNOWN. ) ;
#108 = EDGE_CURVE ( 'NONE', #223, #202, #66, .T. ) ;
#109 = ADVANCED_BREP_SHAPE_REPRESENTATION ( 'Micro_RSCM-080-1X', ( #18, #153 ), #125 ) ;
#110 = FACE_OUTER_BOUND ( 'NONE', #74, .T. ) ;
#111 = CARTESIAN_POINT ( 'NONE',  ( 0.0000000000000000000, 0.0000000000000000000, 2.480315000000000047 ) ) ;
#112 = PRODUCT_DEFINITION_SHAPE ( 'NONE', 'NONE',  #43 ) ;
#113 = COLOUR_RGB ( '',0.7921568627450980005, 0.8196078431372548767, 0.9333333333333333481 ) ;
#114 = FACE_OUTER_BOUND ( 'NONE', #39, .T. ) ;
#115 = APPLICATION_PROTOCOL_DEFINITION ( 'draft international standard', 'automotive_design', 1998, #70 ) ;
#116 = DIRECTION ( 'NONE',  ( 1.000000000000000000, 0.0000000000000000000, -0.0000000000000000000 ) ) ;
#117 = SURFACE_STYLE_FILL_AREA ( #174 ) ;
#118 = EDGE_LOOP ( 'NONE', ( #95, #201, #3, #220 ) ) ;
#119 = AXIS2_PLACEMENT_3D ( 'NONE', #61, #40, #80 ) ;
#120 = ADVANCED_FACE ( 'NONE', ( #228 ), #75, .T. ) ;
#121 = ORIENTED_EDGE ( 'NONE', *, *, #219, .F. ) ;
#122 = ORIENTED_EDGE ( 'NONE', *, *, #165, .T. ) ;
#123 = DIRECTION ( 'NONE',  ( -1.000000000000000000, 0.0000000000000000000, 0.0000000000000000000 ) ) ;
#124 = ORIENTED_EDGE ( 'NONE', *, *, #189, .T. ) ;
#125 =( GEOMETRIC_REPRESENTATION_CONTEXT ( 3 ) GLOBAL_UNCERTAINTY_ASSIGNED_CONTEXT ( ( #217 ) ) GLOBAL_UNIT_ASSIGNED_CONTEXT ( ( #26, #59, #161 ) ) REPRESENTATION_CONTEXT ( 'NONE', 'WORKASPACE' ) );
#126 = CARTESIAN_POINT ( 'NONE',  ( 0.1424804999999990940, 1.836731392595189962E-17, 2.480315000000000047 ) ) ;
#127 = CARTESIAN_POINT ( 'NONE',  ( 0.0000000000000000000, 0.0000000000000000000, 2.465314999999999923 ) ) ;
#128 =( CONVERSION_BASED_UNIT ( 'INCH', #156 ) LENGTH_UNIT ( ) NAMED_UNIT ( #29 ) );
#129 = PRESENTATION_LAYER_ASSIGNMENT (  '', '', ( #243 ) ) ;
#130 = DIRECTION ( 'NONE',  ( -0.0000000000000000000, -0.0000000000000000000, -1.000000000000000000 ) ) ;
#131 = CARTESIAN_POINT ( 'NONE',  ( 0.0000000000000000000, 0.0000000000000000000, 0.0000000000000000000 ) ) ;
#132 = CARTESIAN_POINT ( 'NONE',  ( 0.0000000000000000000, 0.0000000000000000000, 0.0000000000000000000 ) ) ;
#133 = CIRCLE ( 'NONE', #50, 0.1574804999999999955 ) ;
#134 = CIRCLE ( 'NONE', #233, 0.1574804999999999955 ) ;
#135 = PRESENTATION_STYLE_ASSIGNMENT (( #54 ) ) ;
#136 = VECTOR ( 'NONE', #221, 39.37007874015748854 ) ;
#137 = CIRCLE ( 'NONE', #28, 0.003936999999999995191 ) ;
#138 = ORIENTED_EDGE ( 'NONE', *, *, #155, .T. ) ;
#139 = ORIENTED_EDGE ( 'NONE', *, *, #5, .F. ) ;
#140 = FACE_OUTER_BOUND ( 'NONE', #204, .T. ) ;
#141 = FILL_AREA_STYLE_COLOUR ( '', #15 ) ;
#142 = DIRECTION ( 'NONE',  ( 0.0000000000000000000, 0.0000000000000000000, 1.000000000000000000 ) ) ;
#143 = FACE_OUTER_BOUND ( 'NONE', #57, .T. ) ;
#144 = CARTESIAN_POINT ( 'NONE',  ( 0.0000000000000000000, 0.0000000000000000000, 0.2659451431719508929 ) ) ;
#145 = MECHANICAL_DESIGN_GEOMETRIC_PRESENTATION_REPRESENTATION (  '', ( #102 ), #235 ) ;
#146 = DIRECTION ( 'NONE',  ( 1.000000000000000000, 0.0000000000000000000, 0.0000000000000000000 ) ) ;
#147 = CARTESIAN_POINT ( 'NONE',  ( 0.0000000000000000000, 0.0000000000000000000, 0.0000000000000000000 ) ) ;
#148 = UNCERTAINTY_MEASURE_WITH_UNIT (LENGTH_MEASURE( 1.000000000000000082E-05 ), #212, 'distance_accuracy_value', 'NONE');
#149 = APPLICATION_PROTOCOL_DEFINITION ( 'draft international standard', 'automotive_design', 1998, #52 ) ;
#150 = AXIS2_PLACEMENT_3D ( 'NONE', #147, #89, #47 ) ;
#151 =( NAMED_UNIT ( * ) PLANE_ANGLE_UNIT ( ) SI_UNIT ( $, .RADIAN. ) );
#152 = ADVANCED_FACE ( 'NONE', ( #110 ), #190, .T. ) ;
#153 = AXIS2_PLACEMENT_3D ( 'NONE', #132, #88, #84 ) ;
#154 = FILL_AREA_STYLE ('',( #25 ) ) ;
#155 = EDGE_CURVE ( 'NONE', #202, #76, #91, .T. ) ;
#156 = LENGTH_MEASURE_WITH_UNIT ( LENGTH_MEASURE( 0.02539999999999999897 ), #2 );
#157 = ORIENTED_EDGE ( 'NONE', *, *, #231, .T. ) ;
#158 = LENGTH_MEASURE_WITH_UNIT ( LENGTH_MEASURE( 0.02539999999999999897 ), #104 );
#159 = CYLINDRICAL_SURFACE ( 'NONE', #119, 0.1574804999999999955 ) ;
#160 = VERTEX_POINT ( 'NONE', #193 ) ;
#161 =( NAMED_UNIT ( * ) SI_UNIT ( $, .STERADIAN. ) SOLID_ANGLE_UNIT ( ) );
#162 = DIRECTION ( 'NONE',  ( -0.0000000000000000000, -0.0000000000000000000, -1.000000000000000000 ) ) ;
#163 = DIRECTION ( 'NONE',  ( 0.0000000000000000000, 0.0000000000000000000, -1.000000000000000000 ) ) ;
#164 = DIRECTION ( 'NONE',  ( -0.7071067811865627828, 0.0000000000000000000, -0.7071067811865321406 ) ) ;
#165 = EDGE_CURVE ( 'NONE', #223, #60, #240, .T. ) ;
#166 = CARTESIAN_POINT ( 'NONE',  ( 0.1574804999999999955, 1.928579902531247412E-17, 2.480315000000000047 ) ) ;
#167 = LENGTH_MEASURE_WITH_UNIT ( LENGTH_MEASURE( 0.02539999999999999897 ), #24 );
#168 = DIRECTION ( 'NONE',  ( 1.000000000000000000, 0.0000000000000000000, 0.0000000000000000000 ) ) ;
#169 = DIRECTION ( 'NONE',  ( -1.000000000000000000, 0.0000000000000000000, 0.0000000000000000000 ) ) ;
#170 = AXIS2_PLACEMENT_3D ( 'NONE', #247, #49, #116 ) ;
#171 = DIRECTION ( 'NONE',  ( 0.5000000000000013323, 0.0000000000000000000, 0.8660254037844377084 ) ) ;
#172 = PRODUCT_RELATED_PRODUCT_CATEGORY ( 'part', '', ( #230 ) ) ;
#173 = ADVANCED_FACE ( 'NONE', ( #114 ), #68, .F. ) ;
#174 = FILL_AREA_STYLE ('',( #141 ) ) ;
#175 = UNCERTAINTY_MEASURE_WITH_UNIT (LENGTH_MEASURE( 1.000000000000000082E-05 ), #128, 'distance_accuracy_value', 'NONE');
#176 = AXIS2_PLACEMENT_3D ( 'NONE', #238, #142, #146 ) ;
#177 = LINE ( 'NONE', #1, #136 ) ;
#178 = ADVANCED_FACE ( 'NONE', ( #48 ), #195, .T. ) ;
#179 = SURFACE_STYLE_FILL_AREA ( #154 ) ;
#180 = VERTEX_POINT ( 'NONE', #77 ) ;
#181 = ORIENTED_EDGE ( 'NONE', *, *, #165, .F. ) ;
#182 = DIRECTION ( 'NONE',  ( -0.0000000000000000000, -0.0000000000000000000, -1.000000000000000000 ) ) ;
#183 = DIRECTION ( 'NONE',  ( 0.0000000000000000000, 0.0000000000000000000, -1.000000000000000000 ) ) ;
#184 = ORIENTED_EDGE ( 'NONE', *, *, #108, .T. ) ;
#185 = DIRECTION ( 'NONE',  ( 1.000000000000000000, 0.0000000000000000000, 0.0000000000000000000 ) ) ;
#186 = FACE_OUTER_BOUND ( 'NONE', #118, .T. ) ;
#187 = EDGE_CURVE ( 'NONE', #60, #223, #51, .T. ) ;
#188 = PRESENTATION_LAYER_ASSIGNMENT (  '', '', ( #102 ) ) ;
#189 = EDGE_CURVE ( 'NONE', #180, #79, #56, .T. ) ;
#190 = CYLINDRICAL_SURFACE ( 'NONE', #196, 0.1574804999999999955 ) ;
#191 = SHAPE_DEFINITION_REPRESENTATION ( #112, #109 ) ;
#192 = DIRECTION ( 'NONE',  ( 0.0000000000000000000, 0.0000000000000000000, 1.000000000000000000 ) ) ;
#193 = CARTESIAN_POINT ( 'NONE',  ( 0.1574804999999999955, 1.928579902531247412E-17, 2.465314999999999923 ) ) ;
#194 = DIRECTION ( 'NONE',  ( 0.7071067811865627828, 8.659560562355118980E-17, -0.7071067811865321406 ) ) ;
#195 = PLANE ( 'NONE',  #170 ) ;
#196 = AXIS2_PLACEMENT_3D ( 'NONE', #12, #83, #169 ) ;
#197 = SURFACE_SIDE_STYLE ('',( #117 ) ) ;
#198 = ORIENTED_EDGE ( 'NONE', *, *, #187, .T. ) ;
#199 = VECTOR ( 'NONE', #162, 39.37007874015748143 ) ;
#200 = AXIS2_PLACEMENT_3D ( 'NONE', #209, #192, #45 ) ;
#201 = ORIENTED_EDGE ( 'NONE', *, *, #65, .T. ) ;
#202 = VERTEX_POINT ( 'NONE', #36 ) ;
#203 = DIRECTION ( 'NONE',  ( -1.000000000000000000, 0.0000000000000000000, 0.0000000000000000000 ) ) ;
#204 = EDGE_LOOP ( 'NONE', ( #222, #21, #121, #239 ) ) ;
#205 = LINE ( 'NONE', #206, #33 ) ;
#206 = CARTESIAN_POINT ( 'NONE',  ( 0.1424804999999990940, 1.744882882659133128E-17, 2.480315000000000047 ) ) ;
#207 = DIRECTION ( 'NONE',  ( -1.000000000000000000, 0.0000000000000000000, 0.0000000000000000000 ) ) ;
#208 = CIRCLE ( 'NONE', #225, 0.1574804999999999955 ) ;
#209 = CARTESIAN_POINT ( 'NONE',  ( 0.0000000000000000000, 0.0000000000000000000, 0.0000000000000000000 ) ) ;
#210 = CARTESIAN_POINT ( 'NONE',  ( 0.0000000000000000000, 0.0000000000000000000, 2.480315000000000047 ) ) ;
#211 = DIRECTION ( 'NONE',  ( 0.0000000000000000000, 0.0000000000000000000, 1.000000000000000000 ) ) ;
#212 =( CONVERSION_BASED_UNIT ( 'INCH', #167 ) LENGTH_UNIT ( ) NAMED_UNIT ( #78 ) );
#213 = EDGE_CURVE ( 'NONE', #79, #180, #137, .T. ) ;
#214 = AXIS2_PLACEMENT_3D ( 'NONE', #44, #211, #185 ) ;
#215 = ADVANCED_FACE ( 'NONE', ( #186 ), #159, .T. ) ;
#216 = PRODUCT_CONTEXT ( 'NONE', #70, 'mechanical' ) ;
#217 = UNCERTAINTY_MEASURE_WITH_UNIT (LENGTH_MEASURE( 1.000000000000000082E-05 ), #26, 'distance_accuracy_value', 'NONE');
#218 =( GEOMETRIC_REPRESENTATION_CONTEXT ( 3 ) GLOBAL_UNCERTAINTY_ASSIGNED_CONTEXT ( ( #175 ) ) GLOBAL_UNIT_ASSIGNED_CONTEXT ( ( #128, #244, #13 ) ) REPRESENTATION_CONTEXT ( 'NONE', 'WORKASPACE' ) );
#219 = EDGE_CURVE ( 'NONE', #202, #160, #208, .T. ) ;
#220 = ORIENTED_EDGE ( 'NONE', *, *, #155, .F. ) ;
#221 = DIRECTION ( 'NONE',  ( -0.5000000000000013323, 6.123233995736782060E-17, 0.8660254037844377084 ) ) ;
#222 = ORIENTED_EDGE ( 'NONE', *, *, #187, .F. ) ;
#223 = VERTEX_POINT ( 'NONE', #41 ) ;
#224 = CLOSED_SHELL ( 'NONE', ( #120, #246, #215, #152, #178, #96, #90, #173 ) ) ;
#225 = AXIS2_PLACEMENT_3D ( 'NONE', #127, #163, #22 ) ;
#226 = CARTESIAN_POINT ( 'NONE',  ( -0.1574804999999999955, 0.0000000000000000000, 0.2659451431719508929 ) ) ;
#227 = DIRECTION ( 'NONE',  ( 0.0000000000000000000, 0.0000000000000000000, -1.000000000000000000 ) ) ;
#228 = FACE_OUTER_BOUND ( 'NONE', #37, .T. ) ;
#229 = CONICAL_SURFACE ( 'NONE', #86, 0.1424804999999990940, 0.7853981633974699283 ) ;
#230 = PRODUCT ( 'Micro_RSCM-080-1X', 'Micro_RSCM-080-1X', '', ( #216 ) ) ;
#231 = EDGE_CURVE ( 'NONE', #7, #76, #134, .T. ) ;
#232 = AXIS2_PLACEMENT_3D ( 'NONE', #144, #30, #207 ) ;
#233 = AXIS2_PLACEMENT_3D ( 'NONE', #58, #98, #123 ) ;
#234 = SURFACE_SIDE_STYLE ('',( #179 ) ) ;
#235 =( GEOMETRIC_REPRESENTATION_CONTEXT ( 3 ) GLOBAL_UNCERTAINTY_ASSIGNED_CONTEXT ( ( #148 ) ) GLOBAL_UNIT_ASSIGNED_CONTEXT ( ( #212, #151, #14 ) ) REPRESENTATION_CONTEXT ( 'NONE', 'WORKASPACE' ) );
#236 = EDGE_LOOP ( 'NONE', ( #19, #181, #184, #55 ) ) ;
#237 = ORIENTED_EDGE ( 'NONE', *, *, #231, .F. ) ;
#238 = CARTESIAN_POINT ( 'NONE',  ( 0.0000000000000000000, 0.0000000000000000000, 2.480315000000000047 ) ) ;
#239 = ORIENTED_EDGE ( 'NONE', *, *, #108, .F. ) ;
#240 = CIRCLE ( 'NONE', #249, 0.1424804999999990940 ) ;
#241 = CARTESIAN_POINT ( 'NONE',  ( -0.003936999999999995191, 9.883971235068392752E-18, 0.0000000000000000000 ) ) ;
#242 = FACE_OUTER_BOUND ( 'NONE', #236, .T. ) ;
#243 = STYLED_ITEM ( 'NONE', ( #135 ), #18 ) ;
#244 =( NAMED_UNIT ( * ) PLANE_ANGLE_UNIT ( ) SI_UNIT ( $, .RADIAN. ) );
#245 = LINE ( 'NONE', #166, #199 ) ;
#246 = ADVANCED_FACE ( 'NONE', ( #140 ), #229, .T. ) ;
#247 = CARTESIAN_POINT ( 'NONE',  ( 0.0000000000000000000, 0.0000000000000000000, 2.480315000000000047 ) ) ;
#248 = DIRECTION ( 'NONE',  ( -1.000000000000000000, 0.0000000000000000000, 0.0000000000000000000 ) ) ;
#249 = AXIS2_PLACEMENT_3D ( 'NONE', #210, #31, #168 ) ;
ENDSEC;
END-ISO-10303-21;
