ISO-10303-21;
HEADER;
FILE_DESCRIPTION (( 'STEP AP214' ),
    '1' );
FILE_NAME ('Micro_DMM-080-4120.STEP',
    '2021-09-02T16:26:18',
    ( '' ),
    ( '' ),
    'SwSTEP 2.0',
    'SolidWorks 2020',
    '' );
FILE_SCHEMA (( 'AUTOMOTIVE_DESIGN' ));
ENDSEC;

DATA;
#1 = VECTOR ( 'NONE', #209, 39.37007874015748143 ) ;
#2 = UNCERTAINTY_MEASURE_WITH_UNIT (LENGTH_MEASURE( 1.000000000000000082E-05 ), #12, 'distance_accuracy_value', 'NONE');
#3 = FACE_OUTER_BOUND ( 'NONE', #280, .T. ) ;
#4 = PRODUCT ( 'Micro_DMM-080-4120', 'Micro_DMM-080-4120', '', ( #203 ) ) ;
#5 = ORIENTED_EDGE ( 'NONE', *, *, #301, .F. ) ;
#6 = CARTESIAN_POINT ( 'NONE',  ( 0.0000000000000000000, 0.0000000000000000000, 2.480315000000000047 ) ) ;
#7 = PRESENTATION_LAYER_ASSIGNMENT (  '', '', ( #144 ) ) ;
#8 = EDGE_CURVE ( 'NONE', #193, #49, #273, .T. ) ;
#9 = CARTESIAN_POINT ( 'NONE',  ( 0.0000000000000000000, 0.0000000000000000000, 1.707404996040164512E-17 ) ) ;
#10 = DIRECTION ( 'NONE',  ( 1.000000000000000000, 0.0000000000000000000, -0.0000000000000000000 ) ) ;
#11 = ORIENTED_EDGE ( 'NONE', *, *, #194, .T. ) ;
#12 =( CONVERSION_BASED_UNIT ( 'INCH', #190 ) LENGTH_UNIT ( ) NAMED_UNIT ( #152 ) );
#13 = DIRECTION ( 'NONE',  ( -1.000000000000000000, 0.0000000000000000000, 0.0000000000000000000 ) ) ;
#14 = AXIS2_PLACEMENT_3D ( 'NONE', #74, #248, #119 ) ;
#15 = ORIENTED_EDGE ( 'NONE', *, *, #118, .F. ) ;
#16 = LINE ( 'NONE', #90, #46 ) ;
#17 = EDGE_LOOP ( 'NONE', ( #26, #84 ) ) ;
#18 =( GEOMETRIC_REPRESENTATION_CONTEXT ( 3 ) GLOBAL_UNCERTAINTY_ASSIGNED_CONTEXT ( ( #2 ) ) GLOBAL_UNIT_ASSIGNED_CONTEXT ( ( #12, #82, #292 ) ) REPRESENTATION_CONTEXT ( 'NONE', 'WORKASPACE' ) );
#19 = EDGE_CURVE ( 'NONE', #243, #264, #325, .T. ) ;
#20 = FACE_OUTER_BOUND ( 'NONE', #75, .T. ) ;
#21 = AXIS2_PLACEMENT_3D ( 'NONE', #213, #58, #318 ) ;
#22 = VECTOR ( 'NONE', #197, 39.37007874015748143 ) ;
#23 = DIRECTION ( 'NONE',  ( 1.000000000000000000, 0.0000000000000000000, 0.0000000000000000000 ) ) ;
#24 =( NAMED_UNIT ( * ) SI_UNIT ( $, .STERADIAN. ) SOLID_ANGLE_UNIT ( ) );
#25 = LINE ( 'NONE', #229, #71 ) ;
#26 = ORIENTED_EDGE ( 'NONE', *, *, #99, .T. ) ;
#27 = SURFACE_STYLE_FILL_AREA ( #240 ) ;
#28 = FACE_OUTER_BOUND ( 'NONE', #93, .T. ) ;
#29 = APPLICATION_CONTEXT ( 'automotive_design' ) ;
#30 = ORIENTED_EDGE ( 'NONE', *, *, #118, .T. ) ;
#31 = CIRCLE ( 'NONE', #125, 0.1424804999999990940 ) ;
#32 = CARTESIAN_POINT ( 'NONE',  ( 0.1574804999999999955, 1.928579902531247412E-17, 2.480315000000000047 ) ) ;
#33 = DIRECTION ( 'NONE',  ( -1.000000000000000000, 0.0000000000000000000, 0.0000000000000000000 ) ) ;
#34 = CYLINDRICAL_SURFACE ( 'NONE', #100, 0.1574305000000000843 ) ;
#35 = ORIENTED_EDGE ( 'NONE', *, *, #73, .F. ) ;
#36 = ORIENTED_EDGE ( 'NONE', *, *, #111, .T. ) ;
#37 = CYLINDRICAL_SURFACE ( 'NONE', #126, 0.1574804999999999955 ) ;
#38 = ORIENTED_EDGE ( 'NONE', *, *, #303, .T. ) ;
#39 = DIRECTION ( 'NONE',  ( -0.0000000000000000000, -0.0000000000000000000, -1.000000000000000000 ) ) ;
#40 = DIRECTION ( 'NONE',  ( 0.8660254037844400399, 0.0000000000000000000, 0.4999999999999976685 ) ) ;
#41 = CIRCLE ( 'NONE', #134, 0.1424804999999990940 ) ;
#42 = DIRECTION ( 'NONE',  ( 1.000000000000000000, 0.0000000000000000000, 0.0000000000000000000 ) ) ;
#43 = ORIENTED_EDGE ( 'NONE', *, *, #222, .F. ) ;
#44 = DIRECTION ( 'NONE',  ( -0.0000000000000000000, -0.0000000000000000000, -1.000000000000000000 ) ) ;
#45 = DIRECTION ( 'NONE',  ( -1.000000000000000000, 0.0000000000000000000, 0.0000000000000000000 ) ) ;
#46 = VECTOR ( 'NONE', #40, 39.37007874015748143 ) ;
#47 = AXIS2_PLACEMENT_3D ( 'NONE', #6, #50, #155 ) ;
#48 = SURFACE_STYLE_USAGE ( .BOTH. , #176 ) ;
#49 = VERTEX_POINT ( 'NONE', #104 ) ;
#50 = DIRECTION ( 'NONE',  ( 0.0000000000000000000, 0.0000000000000000000, -1.000000000000000000 ) ) ;
#51 = CARTESIAN_POINT ( 'NONE',  ( 0.0000000000000000000, 0.0000000000000000000, 2.480315000000000047 ) ) ;
#52 = CARTESIAN_POINT ( 'NONE',  ( 0.0000000000000000000, 0.0000000000000000000, 0.8661419999999999675 ) ) ;
#53 = COLOUR_RGB ( '',0.7921568627450980005, 0.8196078431372548767, 0.9333333333333333481 ) ;
#54 = LINE ( 'NONE', #102, #266 ) ;
#55 = ADVANCED_FACE ( 'NONE', ( #289 ), #215, .T. ) ;
#56 = SURFACE_SIDE_STYLE ('',( #286 ) ) ;
#57 = EDGE_LOOP ( 'NONE', ( #175, #196 ) ) ;
#58 = DIRECTION ( 'NONE',  ( -0.0000000000000000000, -0.0000000000000000000, -1.000000000000000000 ) ) ;
#59 = CARTESIAN_POINT ( 'NONE',  ( 0.0000000000000000000, 0.0000000000000000000, 1.707404996040164512E-17 ) ) ;
#60 = ORIENTED_EDGE ( 'NONE', *, *, #256, .F. ) ;
#61 = CONICAL_SURFACE ( 'NONE', #277, 0.007499999999999999722, 1.047197551196600518 ) ;
#62 = ADVANCED_FACE ( 'NONE', ( #189, #83 ), #188, .T. ) ;
#63 = FACE_OUTER_BOUND ( 'NONE', #299, .T. ) ;
#64 = AXIS2_PLACEMENT_3D ( 'NONE', #313, #211, #281 ) ;
#65 = DIRECTION ( 'NONE',  ( 1.000000000000000000, 0.0000000000000000000, 0.0000000000000000000 ) ) ;
#66 = ORIENTED_EDGE ( 'NONE', *, *, #105, .T. ) ;
#67 = CARTESIAN_POINT ( 'NONE',  ( 0.0000000000000000000, 0.0000000000000000000, 2.480315000000000047 ) ) ;
#68 = SURFACE_STYLE_USAGE ( .BOTH. , #56 ) ;
#69 = DIRECTION ( 'NONE',  ( 0.0000000000000000000, 0.0000000000000000000, 1.000000000000000000 ) ) ;
#70 = MANIFOLD_SOLID_BREP ( 'Cut-Revolve4', #235 ) ;
#71 = VECTOR ( 'NONE', #177, 39.37007874015748854 ) ;
#72 = ORIENTED_EDGE ( 'NONE', *, *, #170, .F. ) ;
#73 = EDGE_CURVE ( 'NONE', #253, #295, #92, .T. ) ;
#74 = CARTESIAN_POINT ( 'NONE',  ( 0.0000000000000000000, 0.0000000000000000000, 2.480315000000000047 ) ) ;
#75 = EDGE_LOOP ( 'NONE', ( #127, #66, #108, #5 ) ) ;
#76 = CIRCLE ( 'NONE', #270, 0.007499999999999999722 ) ;
#77 = CARTESIAN_POINT ( 'NONE',  ( -0.007499999999999999722, 9.184850993605147975E-19, 1.707404996040164512E-17 ) ) ;
#78 = DIRECTION ( 'NONE',  ( -1.000000000000000000, 0.0000000000000000000, 0.0000000000000000000 ) ) ;
#79 = PRODUCT_RELATED_PRODUCT_CATEGORY ( 'part', '', ( #4 ) ) ;
#80 = VERTEX_POINT ( 'NONE', #257 ) ;
#81 = FACE_OUTER_BOUND ( 'NONE', #17, .T. ) ;
#82 =( NAMED_UNIT ( * ) PLANE_ANGLE_UNIT ( ) SI_UNIT ( $, .RADIAN. ) );
#83 = FACE_OUTER_BOUND ( 'NONE', #57, .T. ) ;
#84 = ORIENTED_EDGE ( 'NONE', *, *, #317, .T. ) ;
#85 = LINE ( 'NONE', #217, #109 ) ;
#86 = ADVANCED_FACE ( 'NONE', ( #122 ), #150, .T. ) ;
#87 = VERTEX_POINT ( 'NONE', #143 ) ;
#88 = APPLICATION_PROTOCOL_DEFINITION ( 'draft international standard', 'automotive_design', 1998, #329 ) ;
#89 = DIRECTION ( 'NONE',  ( -1.000000000000000000, 0.0000000000000000000, 0.0000000000000000000 ) ) ;
#90 = CARTESIAN_POINT ( 'NONE',  ( 0.007499999999999999722, 0.0000000000000000000, 1.707404996040164512E-17 ) ) ;
#91 =( LENGTH_UNIT ( ) NAMED_UNIT ( * ) SI_UNIT ( $, .METRE. ) );
#92 = CIRCLE ( 'NONE', #139, 0.1574804999999999955 ) ;
#93 = EDGE_LOOP ( 'NONE', ( #11, #38 ) ) ;
#94 = CARTESIAN_POINT ( 'NONE',  ( 0.0000000000000000000, 0.0000000000000000000, 2.480315000000000047 ) ) ;
#95 = VERTEX_POINT ( 'NONE', #123 ) ;
#96 = MECHANICAL_DESIGN_GEOMETRIC_PRESENTATION_REPRESENTATION (  '', ( #192 ), #120 ) ;
#97 = LENGTH_MEASURE_WITH_UNIT ( LENGTH_MEASURE( 0.02539999999999999897 ), #173 );
#98 = ORIENTED_EDGE ( 'NONE', *, *, #301, .T. ) ;
#99 = EDGE_CURVE ( 'NONE', #87, #80, #76, .T. ) ;
#100 = AXIS2_PLACEMENT_3D ( 'NONE', #312, #44, #267 ) ;
#101 = ORIENTED_EDGE ( 'NONE', *, *, #8, .F. ) ;
#102 = CARTESIAN_POINT ( 'NONE',  ( 0.1574305000000000843, 1.927967579131674846E-17, 0.0000000000000000000 ) ) ;
#103 = CARTESIAN_POINT ( 'NONE',  ( 0.1424804999999990940, 1.744882882659133128E-17, 2.480315000000000047 ) ) ;
#104 = CARTESIAN_POINT ( 'NONE',  ( 0.1574804999999999955, 1.928579902531247412E-17, 0.8661419999999999675 ) ) ;
#105 = EDGE_CURVE ( 'NONE', #264, #322, #54, .T. ) ;
#106 = ORIENTED_EDGE ( 'NONE', *, *, #111, .F. ) ;
#107 = ORIENTED_EDGE ( 'NONE', *, *, #99, .F. ) ;
#108 = ORIENTED_EDGE ( 'NONE', *, *, #182, .F. ) ;
#109 = VECTOR ( 'NONE', #164, 39.37007874015748143 ) ;
#110 = DIRECTION ( 'NONE',  ( -1.000000000000000000, 0.0000000000000000000, 0.0000000000000000000 ) ) ;
#111 = EDGE_CURVE ( 'NONE', #322, #95, #169, .T. ) ;
#112 = FACE_OUTER_BOUND ( 'NONE', #249, .T. ) ;
#113 = APPLICATION_PROTOCOL_DEFINITION ( 'draft international standard', 'automotive_design', 1998, #29 ) ;
#114 = DIRECTION ( 'NONE',  ( 1.000000000000000000, 0.0000000000000000000, 0.0000000000000000000 ) ) ;
#115 =( NAMED_UNIT ( * ) PLANE_ANGLE_UNIT ( ) SI_UNIT ( $, .RADIAN. ) );
#116 = CONICAL_SURFACE ( 'NONE', #47, 0.1424804999999990940, 0.7853981633974699283 ) ;
#117 = AXIS2_PLACEMENT_3D ( 'NONE', #198, #246, #23 ) ;
#118 = EDGE_CURVE ( 'NONE', #80, #95, #278, .T. ) ;
#119 = DIRECTION ( 'NONE',  ( 1.000000000000000000, 0.0000000000000000000, -0.0000000000000000000 ) ) ;
#120 =( GEOMETRIC_REPRESENTATION_CONTEXT ( 3 ) GLOBAL_UNCERTAINTY_ASSIGNED_CONTEXT ( ( #132 ) ) GLOBAL_UNIT_ASSIGNED_CONTEXT ( ( #195, #115, #225 ) ) REPRESENTATION_CONTEXT ( 'NONE', 'WORKASPACE' ) );
#121 = ORIENTED_EDGE ( 'NONE', *, *, #222, .T. ) ;
#122 = FACE_OUTER_BOUND ( 'NONE', #154, .T. ) ;
#123 = CARTESIAN_POINT ( 'NONE',  ( -0.1574305000000000010, 1.927967579131674230E-17, 0.08656241453473464964 ) ) ;
#124 = AXIS2_PLACEMENT_3D ( 'NONE', #234, #316, #261 ) ;
#125 = AXIS2_PLACEMENT_3D ( 'NONE', #94, #69, #224 ) ;
#126 = AXIS2_PLACEMENT_3D ( 'NONE', #51, #135, #33 ) ;
#127 = ORIENTED_EDGE ( 'NONE', *, *, #19, .T. ) ;
#128 = DIRECTION ( 'NONE',  ( -0.0000000000000000000, -0.0000000000000000000, -1.000000000000000000 ) ) ;
#129 = FILL_AREA_STYLE_COLOUR ( '', #53 ) ;
#130 = ADVANCED_FACE ( 'NONE', ( #183 ), #116, .T. ) ;
#131 = ORIENTED_EDGE ( 'NONE', *, *, #170, .T. ) ;
#132 = UNCERTAINTY_MEASURE_WITH_UNIT (LENGTH_MEASURE( 1.000000000000000082E-05 ), #195, 'distance_accuracy_value', 'NONE');
#133 = VERTEX_POINT ( 'NONE', #259 ) ;
#134 = AXIS2_PLACEMENT_3D ( 'NONE', #166, #219, #42 ) ;
#135 = DIRECTION ( 'NONE',  ( -0.0000000000000000000, -0.0000000000000000000, -1.000000000000000000 ) ) ;
#136 = FILL_AREA_STYLE_COLOUR ( '', #293 ) ;
#137 = CARTESIAN_POINT ( 'NONE',  ( -0.1424804999999990940, 0.0000000000000000000, 2.480315000000000047 ) ) ;
#138 = ADVANCED_BREP_SHAPE_REPRESENTATION ( 'Micro_DMM-080-4120', ( #70, #117 ), #18 ) ;
#139 = AXIS2_PLACEMENT_3D ( 'NONE', #206, #254, #305 ) ;
#140 = EDGE_CURVE ( 'NONE', #295, #49, #181, .T. ) ;
#141 = PRODUCT_DEFINITION_SHAPE ( 'NONE', 'NONE',  #204 ) ;
#142 = DIRECTION ( 'NONE',  ( -0.0000000000000000000, -0.0000000000000000000, -1.000000000000000000 ) ) ;
#143 = CARTESIAN_POINT ( 'NONE',  ( 0.007499999999999999722, 0.0000000000000000000, 1.707404996040164512E-17 ) ) ;
#144 = STYLED_ITEM ( 'NONE', ( #228 ), #70 ) ;
#145 = CIRCLE ( 'NONE', #326, 0.007499999999999999722 ) ;
#146 = ORIENTED_EDGE ( 'NONE', *, *, #317, .F. ) ;
#147 = DIRECTION ( 'NONE',  ( -0.0000000000000000000, -0.0000000000000000000, -1.000000000000000000 ) ) ;
#148 = ADVANCED_FACE ( 'NONE', ( #81 ), #185, .F. ) ;
#149 = EDGE_LOOP ( 'NONE', ( #238, #43 ) ) ;
#150 = CONICAL_SURFACE ( 'NONE', #274, 0.1424804999999990940, 0.7853981633974699283 ) ;
#151 =( NAMED_UNIT ( * ) PLANE_ANGLE_UNIT ( ) SI_UNIT ( $, .RADIAN. ) );
#152 = DIMENSIONAL_EXPONENTS ( 1.000000000000000000, 0.0000000000000000000, 0.0000000000000000000, 0.0000000000000000000, 0.0000000000000000000, 0.0000000000000000000, 0.0000000000000000000 ) ;
#153 = ORIENTED_EDGE ( 'NONE', *, *, #303, .F. ) ;
#154 = EDGE_LOOP ( 'NONE', ( #283, #158, #210, #302 ) ) ;
#155 = DIRECTION ( 'NONE',  ( -1.000000000000000000, 0.0000000000000000000, 0.0000000000000000000 ) ) ;
#156 = CIRCLE ( 'NONE', #320, 0.1574804999999999955 ) ;
#157 = DIRECTION ( 'NONE',  ( -0.0000000000000000000, -0.0000000000000000000, -1.000000000000000000 ) ) ;
#158 = ORIENTED_EDGE ( 'NONE', *, *, #194, .F. ) ;
#159 = ADVANCED_FACE ( 'NONE', ( #282 ), #37, .T. ) ;
#160 = CARTESIAN_POINT ( 'NONE',  ( 0.1574305000000001398, 0.0000000000000000000, 0.8661419999999999675 ) ) ;
#161 = DIRECTION ( 'NONE',  ( -1.000000000000000000, 0.0000000000000000000, 0.0000000000000000000 ) ) ;
#162 = AXIS2_PLACEMENT_3D ( 'NONE', #52, #157, #13 ) ;
#163 = CONICAL_SURFACE ( 'NONE', #236, 0.007499999999999999722, 1.047197551196600518 ) ;
#164 = DIRECTION ( 'NONE',  ( -0.0000000000000000000, -0.0000000000000000000, -1.000000000000000000 ) ) ;
#165 = CARTESIAN_POINT ( 'NONE',  ( 0.0000000000000000000, 0.0000000000000000000, 1.707404996040164512E-17 ) ) ;
#166 = CARTESIAN_POINT ( 'NONE',  ( 0.0000000000000000000, 0.0000000000000000000, 2.480315000000000047 ) ) ;
#167 = EDGE_CURVE ( 'NONE', #133, #295, #288, .T. ) ;
#168 = DIRECTION ( 'NONE',  ( 0.0000000000000000000, 0.0000000000000000000, 1.000000000000000000 ) ) ;
#169 = CIRCLE ( 'NONE', #64, 0.1574305000000000010 ) ;
#170 = EDGE_CURVE ( 'NONE', #87, #322, #16, .T. ) ;
#171 = DIRECTION ( 'NONE',  ( 0.0000000000000000000, 0.0000000000000000000, -1.000000000000000000 ) ) ;
#172 = CYLINDRICAL_SURFACE ( 'NONE', #255, 0.1574305000000000843 ) ;
#173 =( LENGTH_UNIT ( ) NAMED_UNIT ( * ) SI_UNIT ( $, .METRE. ) );
#174 = AXIS2_PLACEMENT_3D ( 'NONE', #202, #300, #208 ) ;
#175 = ORIENTED_EDGE ( 'NONE', *, *, #8, .T. ) ;
#176 = SURFACE_SIDE_STYLE ('',( #27 ) ) ;
#177 = DIRECTION ( 'NONE',  ( -0.7071067811865627828, 0.0000000000000000000, -0.7071067811865321406 ) ) ;
#178 = DIMENSIONAL_EXPONENTS ( 1.000000000000000000, 0.0000000000000000000, 0.0000000000000000000, 0.0000000000000000000, 0.0000000000000000000, 0.0000000000000000000, 0.0000000000000000000 ) ;
#179 = PRESENTATION_LAYER_ASSIGNMENT (  '', '', ( #192 ) ) ;
#180 = CARTESIAN_POINT ( 'NONE',  ( -0.1574804999999999955, 0.0000000000000000000, 2.465314999999999923 ) ) ;
#181 = LINE ( 'NONE', #32, #294 ) ;
#182 = EDGE_CURVE ( 'NONE', #95, #322, #297, .T. ) ;
#183 = FACE_OUTER_BOUND ( 'NONE', #227, .T. ) ;
#184 = ORIENTED_EDGE ( 'NONE', *, *, #230, .F. ) ;
#185 = PLANE ( 'NONE',  #260 ) ;
#186 = FILL_AREA_STYLE ('',( #129 ) ) ;
#187 = CIRCLE ( 'NONE', #285, 0.1574305000000001398 ) ;
#188 = PLANE ( 'NONE',  #307 ) ;
#189 = FACE_BOUND ( 'NONE', #149, .T. ) ;
#190 = LENGTH_MEASURE_WITH_UNIT ( LENGTH_MEASURE( 0.02539999999999999897 ), #265 );
#191 = MECHANICAL_DESIGN_GEOMETRIC_PRESENTATION_REPRESENTATION (  '', ( #144 ), #223 ) ;
#192 = STYLED_ITEM ( 'NONE', ( #323 ), #138 ) ;
#193 = VERTEX_POINT ( 'NONE', #324 ) ;
#194 = EDGE_CURVE ( 'NONE', #220, #133, #31, .T. ) ;
#195 =( CONVERSION_BASED_UNIT ( 'INCH', #327 ) LENGTH_UNIT ( ) NAMED_UNIT ( #178 ) );
#196 = ORIENTED_EDGE ( 'NONE', *, *, #256, .T. ) ;
#197 = DIRECTION ( 'NONE',  ( -0.0000000000000000000, -0.0000000000000000000, -1.000000000000000000 ) ) ;
#198 = CARTESIAN_POINT ( 'NONE',  ( 0.0000000000000000000, 0.0000000000000000000, 0.0000000000000000000 ) ) ;
#199 = DIRECTION ( 'NONE',  ( 0.0000000000000000000, 0.0000000000000000000, 1.000000000000000000 ) ) ;
#200 = VECTOR ( 'NONE', #262, 39.37007874015748854 ) ;
#201 = ADVANCED_FACE ( 'NONE', ( #63 ), #163, .T. ) ;
#202 = CARTESIAN_POINT ( 'NONE',  ( 0.0000000000000000000, 0.0000000000000000000, 2.465314999999999923 ) ) ;
#203 = PRODUCT_CONTEXT ( 'NONE', #329, 'mechanical' ) ;
#204 = PRODUCT_DEFINITION ( 'UNKNOWN', '', #237, #212 ) ;
#205 = ADVANCED_FACE ( 'NONE', ( #20 ), #172, .T. ) ;
#206 = CARTESIAN_POINT ( 'NONE',  ( 0.0000000000000000000, 0.0000000000000000000, 2.465314999999999923 ) ) ;
#207 = ORIENTED_EDGE ( 'NONE', *, *, #73, .T. ) ;
#208 = DIRECTION ( 'NONE',  ( 1.000000000000000000, 0.0000000000000000000, 0.0000000000000000000 ) ) ;
#209 = DIRECTION ( 'NONE',  ( -0.8660254037844400399, 1.060575238724908640E-16, 0.4999999999999976685 ) ) ;
#210 = ORIENTED_EDGE ( 'NONE', *, *, #263, .T. ) ;
#211 = DIRECTION ( 'NONE',  ( -0.0000000000000000000, -0.0000000000000000000, -1.000000000000000000 ) ) ;
#212 = PRODUCT_DEFINITION_CONTEXT ( 'detailed design', #29, 'design' ) ;
#213 = CARTESIAN_POINT ( 'NONE',  ( 0.0000000000000000000, 0.0000000000000000000, 2.480315000000000047 ) ) ;
#214 = ORIENTED_EDGE ( 'NONE', *, *, #182, .T. ) ;
#215 = CYLINDRICAL_SURFACE ( 'NONE', #21, 0.1574804999999999955 ) ;
#216 = EDGE_LOOP ( 'NONE', ( #287, #319, #304, #60 ) ) ;
#217 = CARTESIAN_POINT ( 'NONE',  ( -0.1574305000000000843, 0.0000000000000000000, 0.0000000000000000000 ) ) ;
#218 = LINE ( 'NONE', #328, #22 ) ;
#219 = DIRECTION ( 'NONE',  ( 0.0000000000000000000, 0.0000000000000000000, 1.000000000000000000 ) ) ;
#220 = VERTEX_POINT ( 'NONE', #137 ) ;
#221 = CARTESIAN_POINT ( 'NONE',  ( 0.0000000000000000000, 0.0000000000000000000, 1.707404996040164512E-17 ) ) ;
#222 = EDGE_CURVE ( 'NONE', #264, #243, #187, .T. ) ;
#223 =( GEOMETRIC_REPRESENTATION_CONTEXT ( 3 ) GLOBAL_UNCERTAINTY_ASSIGNED_CONTEXT ( ( #252 ) ) GLOBAL_UNIT_ASSIGNED_CONTEXT ( ( #250, #151, #24 ) ) REPRESENTATION_CONTEXT ( 'NONE', 'WORKASPACE' ) );
#224 = DIRECTION ( 'NONE',  ( 1.000000000000000000, 0.0000000000000000000, 0.0000000000000000000 ) ) ;
#225 =( NAMED_UNIT ( * ) SI_UNIT ( $, .STERADIAN. ) SOLID_ANGLE_UNIT ( ) );
#226 = CARTESIAN_POINT ( 'NONE',  ( 0.0000000000000000000, 0.0000000000000000000, 0.8661419999999999675 ) ) ;
#227 = EDGE_LOOP ( 'NONE', ( #153, #296, #35, #258 ) ) ;
#228 = PRESENTATION_STYLE_ASSIGNMENT (( #48 ) ) ;
#229 = CARTESIAN_POINT ( 'NONE',  ( -0.1424804999999990940, 0.0000000000000000000, 2.480315000000000047 ) ) ;
#230 = EDGE_CURVE ( 'NONE', #253, #193, #218, .T. ) ;
#231 = ORIENTED_EDGE ( 'NONE', *, *, #140, .T. ) ;
#232 = DIRECTION ( 'NONE',  ( -0.0000000000000000000, -0.0000000000000000000, -1.000000000000000000 ) ) ;
#233 = ADVANCED_FACE ( 'NONE', ( #112 ), #61, .T. ) ;
#234 = CARTESIAN_POINT ( 'NONE',  ( 0.0000000000000000000, 0.0000000000000000000, 0.8661419999999999675 ) ) ;
#235 = CLOSED_SHELL ( 'NONE', ( #205, #201, #130, #55, #159, #245, #86, #62, #233, #269, #148 ) ) ;
#236 = AXIS2_PLACEMENT_3D ( 'NONE', #165, #168, #114 ) ;
#237 = PRODUCT_DEFINITION_FORMATION_WITH_SPECIFIED_SOURCE ( 'ANY', '', #4, .NOT_KNOWN. ) ;
#238 = ORIENTED_EDGE ( 'NONE', *, *, #19, .F. ) ;
#239 = DIRECTION ( 'NONE',  ( -1.000000000000000000, 0.0000000000000000000, 0.0000000000000000000 ) ) ;
#240 = FILL_AREA_STYLE ('',( #136 ) ) ;
#241 = CARTESIAN_POINT ( 'NONE',  ( 0.1574305000000000010, 0.0000000000000000000, 0.08656241453473464964 ) ) ;
#242 = EDGE_CURVE ( 'NONE', #295, #253, #315, .T. ) ;
#243 = VERTEX_POINT ( 'NONE', #306 ) ;
#244 = CARTESIAN_POINT ( 'NONE',  ( 0.0000000000000000000, 0.0000000000000000000, 0.8661419999999999675 ) ) ;
#245 = ADVANCED_FACE ( 'NONE', ( #28 ), #279, .T. ) ;
#246 = DIRECTION ( 'NONE',  ( 0.0000000000000000000, 0.0000000000000000000, 1.000000000000000000 ) ) ;
#247 = DIRECTION ( 'NONE',  ( -1.000000000000000000, 0.0000000000000000000, 0.0000000000000000000 ) ) ;
#248 = DIRECTION ( 'NONE',  ( 0.0000000000000000000, 0.0000000000000000000, 1.000000000000000000 ) ) ;
#249 = EDGE_LOOP ( 'NONE', ( #15, #107, #131, #36 ) ) ;
#250 =( CONVERSION_BASED_UNIT ( 'INCH', #97 ) LENGTH_UNIT ( ) NAMED_UNIT ( #275 ) );
#251 = DIRECTION ( 'NONE',  ( -1.000000000000000000, 0.0000000000000000000, 0.0000000000000000000 ) ) ;
#252 = UNCERTAINTY_MEASURE_WITH_UNIT (LENGTH_MEASURE( 1.000000000000000082E-05 ), #250, 'distance_accuracy_value', 'NONE');
#253 = VERTEX_POINT ( 'NONE', #180 ) ;
#254 = DIRECTION ( 'NONE',  ( 0.0000000000000000000, 0.0000000000000000000, -1.000000000000000000 ) ) ;
#255 = AXIS2_PLACEMENT_3D ( 'NONE', #321, #272, #89 ) ;
#256 = EDGE_CURVE ( 'NONE', #49, #193, #156, .T. ) ;
#257 = CARTESIAN_POINT ( 'NONE',  ( -0.007499999999999999722, 1.009908044533862758E-17, 1.707404996040164512E-17 ) ) ;
#258 = ORIENTED_EDGE ( 'NONE', *, *, #263, .F. ) ;
#259 = CARTESIAN_POINT ( 'NONE',  ( 0.1424804999999990940, 1.836731392595189962E-17, 2.480315000000000047 ) ) ;
#260 = AXIS2_PLACEMENT_3D ( 'NONE', #284, #290, #10 ) ;
#261 = DIRECTION ( 'NONE',  ( -1.000000000000000000, 0.0000000000000000000, 0.0000000000000000000 ) ) ;
#262 = DIRECTION ( 'NONE',  ( 0.7071067811865627828, 8.659560562355118980E-17, -0.7071067811865321406 ) ) ;
#263 = EDGE_CURVE ( 'NONE', #220, #253, #25, .T. ) ;
#264 = VERTEX_POINT ( 'NONE', #276 ) ;
#265 =( LENGTH_UNIT ( ) NAMED_UNIT ( * ) SI_UNIT ( $, .METRE. ) );
#266 = VECTOR ( 'NONE', #232, 39.37007874015748143 ) ;
#267 = DIRECTION ( 'NONE',  ( -1.000000000000000000, 0.0000000000000000000, 0.0000000000000000000 ) ) ;
#268 = SHAPE_DEFINITION_REPRESENTATION ( #141, #138 ) ;
#269 = ADVANCED_FACE ( 'NONE', ( #3 ), #34, .T. ) ;
#270 = AXIS2_PLACEMENT_3D ( 'NONE', #9, #308, #78 ) ;
#271 = DIRECTION ( 'NONE',  ( -0.0000000000000000000, -0.0000000000000000000, -1.000000000000000000 ) ) ;
#272 = DIRECTION ( 'NONE',  ( -0.0000000000000000000, -0.0000000000000000000, -1.000000000000000000 ) ) ;
#273 = CIRCLE ( 'NONE', #162, 0.1574804999999999955 ) ;
#274 = AXIS2_PLACEMENT_3D ( 'NONE', #67, #171, #45 ) ;
#275 = DIMENSIONAL_EXPONENTS ( 1.000000000000000000, 0.0000000000000000000, 0.0000000000000000000, 0.0000000000000000000, 0.0000000000000000000, 0.0000000000000000000, 0.0000000000000000000 ) ;
#276 = CARTESIAN_POINT ( 'NONE',  ( 0.1574305000000001398, 1.927967579131675462E-17, 0.8661419999999999675 ) ) ;
#277 = AXIS2_PLACEMENT_3D ( 'NONE', #221, #199, #65 ) ;
#278 = LINE ( 'NONE', #77, #1 ) ;
#279 = PLANE ( 'NONE',  #14 ) ;
#280 = EDGE_LOOP ( 'NONE', ( #311, #121, #98, #106 ) ) ;
#281 = DIRECTION ( 'NONE',  ( -1.000000000000000000, 0.0000000000000000000, 0.0000000000000000000 ) ) ;
#282 = FACE_OUTER_BOUND ( 'NONE', #216, .T. ) ;
#283 = ORIENTED_EDGE ( 'NONE', *, *, #167, .F. ) ;
#284 = CARTESIAN_POINT ( 'NONE',  ( 0.0000000000000000000, 0.0000000000000000000, 0.0000000000000000000 ) ) ;
#285 = AXIS2_PLACEMENT_3D ( 'NONE', #244, #271, #110 ) ;
#286 = SURFACE_STYLE_FILL_AREA ( #186 ) ;
#287 = ORIENTED_EDGE ( 'NONE', *, *, #140, .F. ) ;
#288 = LINE ( 'NONE', #103, #200 ) ;
#289 = FACE_OUTER_BOUND ( 'NONE', #314, .T. ) ;
#290 = DIRECTION ( 'NONE',  ( 0.0000000000000000000, 0.0000000000000000000, 1.000000000000000000 ) ) ;
#291 = DIRECTION ( 'NONE',  ( -0.0000000000000000000, 0.0000000000000000000, -1.000000000000000000 ) ) ;
#292 =( NAMED_UNIT ( * ) SI_UNIT ( $, .STERADIAN. ) SOLID_ANGLE_UNIT ( ) );
#293 = COLOUR_RGB ( '',0.7921568627450980005, 0.8196078431372548767, 0.9333333333333333481 ) ;
#294 = VECTOR ( 'NONE', #128, 39.37007874015748143 ) ;
#295 = VERTEX_POINT ( 'NONE', #310 ) ;
#296 = ORIENTED_EDGE ( 'NONE', *, *, #167, .T. ) ;
#297 = CIRCLE ( 'NONE', #309, 0.1574305000000000010 ) ;
#298 = CARTESIAN_POINT ( 'NONE',  ( 0.0000000000000000000, 0.0000000000000000000, 0.08656241453473464964 ) ) ;
#299 = EDGE_LOOP ( 'NONE', ( #146, #30, #214, #72 ) ) ;
#300 = DIRECTION ( 'NONE',  ( 0.0000000000000000000, 0.0000000000000000000, -1.000000000000000000 ) ) ;
#301 = EDGE_CURVE ( 'NONE', #243, #95, #85, .T. ) ;
#302 = ORIENTED_EDGE ( 'NONE', *, *, #242, .F. ) ;
#303 = EDGE_CURVE ( 'NONE', #133, #220, #41, .T. ) ;
#304 = ORIENTED_EDGE ( 'NONE', *, *, #230, .T. ) ;
#305 = DIRECTION ( 'NONE',  ( 1.000000000000000000, 0.0000000000000000000, 0.0000000000000000000 ) ) ;
#306 = CARTESIAN_POINT ( 'NONE',  ( -0.1574305000000001398, 0.0000000000000000000, 0.8661419999999999675 ) ) ;
#307 = AXIS2_PLACEMENT_3D ( 'NONE', #160, #291, #161 ) ;
#308 = DIRECTION ( 'NONE',  ( -0.0000000000000000000, -0.0000000000000000000, -1.000000000000000000 ) ) ;
#309 = AXIS2_PLACEMENT_3D ( 'NONE', #298, #142, #247 ) ;
#310 = CARTESIAN_POINT ( 'NONE',  ( 0.1574804999999999955, 1.928579902531247412E-17, 2.465314999999999923 ) ) ;
#311 = ORIENTED_EDGE ( 'NONE', *, *, #105, .F. ) ;
#312 = CARTESIAN_POINT ( 'NONE',  ( 0.0000000000000000000, 0.0000000000000000000, 0.0000000000000000000 ) ) ;
#313 = CARTESIAN_POINT ( 'NONE',  ( 0.0000000000000000000, 0.0000000000000000000, 0.08656241453473464964 ) ) ;
#314 = EDGE_LOOP ( 'NONE', ( #207, #231, #101, #184 ) ) ;
#315 = CIRCLE ( 'NONE', #174, 0.1574804999999999955 ) ;
#316 = DIRECTION ( 'NONE',  ( -0.0000000000000000000, -0.0000000000000000000, -1.000000000000000000 ) ) ;
#317 = EDGE_CURVE ( 'NONE', #80, #87, #145, .T. ) ;
#318 = DIRECTION ( 'NONE',  ( -1.000000000000000000, 0.0000000000000000000, 0.0000000000000000000 ) ) ;
#319 = ORIENTED_EDGE ( 'NONE', *, *, #242, .T. ) ;
#320 = AXIS2_PLACEMENT_3D ( 'NONE', #226, #147, #251 ) ;
#321 = CARTESIAN_POINT ( 'NONE',  ( 0.0000000000000000000, 0.0000000000000000000, 0.0000000000000000000 ) ) ;
#322 = VERTEX_POINT ( 'NONE', #241 ) ;
#323 = PRESENTATION_STYLE_ASSIGNMENT (( #68 ) ) ;
#324 = CARTESIAN_POINT ( 'NONE',  ( -0.1574804999999999955, 0.0000000000000000000, 0.8661419999999999675 ) ) ;
#325 = CIRCLE ( 'NONE', #124, 0.1574305000000001398 ) ;
#326 = AXIS2_PLACEMENT_3D ( 'NONE', #59, #39, #239 ) ;
#327 = LENGTH_MEASURE_WITH_UNIT ( LENGTH_MEASURE( 0.02539999999999999897 ), #91 );
#328 = CARTESIAN_POINT ( 'NONE',  ( -0.1574804999999999955, 0.0000000000000000000, 2.480315000000000047 ) ) ;
#329 = APPLICATION_CONTEXT ( 'automotive_design' ) ;
ENDSEC;
END-ISO-10303-21;
