ISO-10303-21;
HEADER;
FILE_DESCRIPTION (( 'STEP AP214' ),
    '1' );
FILE_NAME ('82654.STEP',
    '2023-06-23T06:44:08',
    ( '' ),
    ( '' ),
    'SwSTEP 2.0',
    'SolidWorks 2023',
    '' );
FILE_SCHEMA (( 'AUTOMOTIVE_DESIGN' ));
ENDSEC;

DATA;
#1 = PLANE ( 'NONE',  #107 ) ;
#2 = ADVANCED_BREP_SHAPE_REPRESENTATION ( '82654', ( #95, #276, #272 ), #45 ) ;
#3 = MECHANICAL_DESIGN_GEOMETRIC_PRESENTATION_REPRESENTATION (  '', ( #248 ), #4 ) ;
#4 =( GEOMETRIC_REPRESENTATION_CONTEXT ( 3 ) GLOBAL_UNCERTAINTY_ASSIGNED_CONTEXT ( ( #102 ) ) GLOBAL_UNIT_ASSIGNED_CONTEXT ( ( #294, #239, #197 ) ) REPRESENTATION_CONTEXT ( 'NONE', 'WORKASPACE' ) );
#5 = CARTESIAN_POINT ( 'NONE',  ( 0.000000000000000000, 3.250000000000000000, 0.000000000000000000 ) ) ;
#6 = DIRECTION ( 'NONE',  ( 1.000000000000000000, 4.453261087808560759E-17, 0.000000000000000000 ) ) ;
#7 =( LENGTH_UNIT ( ) NAMED_UNIT ( * ) SI_UNIT ( $, .METRE. ) );
#8 = ORIENTED_EDGE ( 'NONE', *, *, #82, .T. ) ;
#9 = SURFACE_SIDE_STYLE ('',( #207 ) ) ;
#10 = DIMENSIONAL_EXPONENTS ( 1.000000000000000000, 0.000000000000000000, 0.000000000000000000, 0.000000000000000000, 0.000000000000000000, 0.000000000000000000, 0.000000000000000000 ) ;
#11 = PRESENTATION_LAYER_ASSIGNMENT (  '', '', ( #248 ) ) ;
#12 = APPLICATION_CONTEXT ( 'automotive_design' ) ;
#13 = CARTESIAN_POINT ( 'NONE',  ( 4.592425496802575451E-17, 0.000000000000000000, 0.3750000000000000555 ) ) ;
#14 = EDGE_LOOP ( 'NONE', ( #111, #232, #87, #217 ) ) ;
#15 =( NAMED_UNIT ( * ) SI_UNIT ( $, .STERADIAN. ) SOLID_ANGLE_UNIT ( ) );
#16 =( NAMED_UNIT ( * ) PLANE_ANGLE_UNIT ( ) SI_UNIT ( $, .RADIAN. ) );
#17 = AXIS2_PLACEMENT_3D ( 'NONE', #117, #177, #180 ) ;
#18 =( CONVERSION_BASED_UNIT ( 'INCH', #103 ) LENGTH_UNIT ( ) NAMED_UNIT ( #50 ) );
#19 = PRESENTATION_STYLE_ASSIGNMENT (( #256 ) ) ;
#20 = CARTESIAN_POINT ( 'NONE',  ( -1.224646799147354440E-16, 6.000000000000000888, 0.000000000000000000 ) ) ;
#21 = DIRECTION ( 'NONE',  ( -0.000000000000000000, -1.000000000000000000, -0.000000000000000000 ) ) ;
#22 = DIRECTION ( 'NONE',  ( 0.000000000000000000, 0.000000000000000000, 1.000000000000000000 ) ) ;
#23 = PRESENTATION_LAYER_ASSIGNMENT (  '', '', ( #252 ) ) ;
#24 = AXIS2_PLACEMENT_3D ( 'NONE', #26, #127, #205 ) ;
#25 = APPLICATION_PROTOCOL_DEFINITION ( 'draft international standard', 'automotive_design', 1998, #275 ) ;
#26 = CARTESIAN_POINT ( 'NONE',  ( -1.224646799147354440E-16, 6.000000000000000888, 0.000000000000000000 ) ) ;
#27 = PRESENTATION_LAYER_ASSIGNMENT (  '', '', ( #204 ) ) ;
#28 = LENGTH_MEASURE_WITH_UNIT ( LENGTH_MEASURE( 0.02539999999999999897 ), #170 );
#29 = CARTESIAN_POINT ( 'NONE',  ( -0.3750000000000002776, 6.000000000000000888, 0.000000000000000000 ) ) ;
#30 = ORIENTED_EDGE ( 'NONE', *, *, #105, .F. ) ;
#31 = STYLED_ITEM ( 'NONE', ( #97 ), #95 ) ;
#32 = SURFACE_STYLE_FILL_AREA ( #53 ) ;
#33 = PRODUCT ( '82654', '82654', '', ( #126 ) ) ;
#34 = ORIENTED_EDGE ( 'NONE', *, *, #265, .T. ) ;
#35 = DIRECTION ( 'NONE',  ( -0.000000000000000000, -1.000000000000000000, -0.000000000000000000 ) ) ;
#36 = VERTEX_POINT ( 'NONE', #176 ) ;
#37 = DIRECTION ( 'NONE',  ( 0.000000000000000000, 0.000000000000000000, -1.000000000000000000 ) ) ;
#38 = CYLINDRICAL_SURFACE ( 'NONE', #84, 0.3750000000000001110 ) ;
#39 =( GEOMETRIC_REPRESENTATION_CONTEXT ( 3 ) GLOBAL_UNCERTAINTY_ASSIGNED_CONTEXT ( ( #274 ) ) GLOBAL_UNIT_ASSIGNED_CONTEXT ( ( #109, #54, #231 ) ) REPRESENTATION_CONTEXT ( 'NONE', 'WORKASPACE' ) );
#40 =( CONVERSION_BASED_UNIT ( 'INCH', #184 ) LENGTH_UNIT ( ) NAMED_UNIT ( #74 ) );
#41 = VERTEX_POINT ( 'NONE', #179 ) ;
#42 = DIRECTION ( 'NONE',  ( 0.000000000000000000, 0.000000000000000000, -1.000000000000000000 ) ) ;
#43 =( NAMED_UNIT ( * ) PLANE_ANGLE_UNIT ( ) SI_UNIT ( $, .RADIAN. ) );
#44 = DIRECTION ( 'NONE',  ( -0.000000000000000000, -1.000000000000000000, -0.000000000000000000 ) ) ;
#45 =( GEOMETRIC_REPRESENTATION_CONTEXT ( 3 ) GLOBAL_UNCERTAINTY_ASSIGNED_CONTEXT ( ( #144 ) ) GLOBAL_UNIT_ASSIGNED_CONTEXT ( ( #306, #270, #168 ) ) REPRESENTATION_CONTEXT ( 'NONE', 'WORKASPACE' ) );
#46 = PRODUCT_DEFINITION ( 'UNKNOWN', '', #206, #125 ) ;
#47 = APPLICATION_PROTOCOL_DEFINITION ( 'draft international standard', 'automotive_design', 1998, #12 ) ;
#48 = CIRCLE ( 'NONE', #85, 0.3750000000000000555 ) ;
#49 = ADVANCED_FACE ( 'NONE', ( #259 ), #38, .T. ) ;
#50 = DIMENSIONAL_EXPONENTS ( 1.000000000000000000, 0.000000000000000000, 0.000000000000000000, 0.000000000000000000, 0.000000000000000000, 0.000000000000000000, 0.000000000000000000 ) ;
#51 = CIRCLE ( 'NONE', #124, 0.3750000000000001665 ) ;
#52 = ADVANCED_FACE ( 'NONE', ( #137 ), #236, .F. ) ;
#53 = FILL_AREA_STYLE ('',( #249 ) ) ;
#54 =( NAMED_UNIT ( * ) PLANE_ANGLE_UNIT ( ) SI_UNIT ( $, .RADIAN. ) );
#55 = VERTEX_POINT ( 'NONE', #13 ) ;
#56 = AXIS2_PLACEMENT_3D ( 'NONE', #264, #44, #37 ) ;
#57 = ADVANCED_FACE ( 'NONE', ( #115 ), #108, .T. ) ;
#58 = SURFACE_SIDE_STYLE ('',( #81 ) ) ;
#59 = DIRECTION ( 'NONE',  ( -0.000000000000000000, -1.000000000000000000, -0.000000000000000000 ) ) ;
#60 = ORIENTED_EDGE ( 'NONE', *, *, #82, .F. ) ;
#61 = CARTESIAN_POINT ( 'NONE',  ( 0.3750000000000000555, 3.250000000000000000, 4.592425496802576684E-17 ) ) ;
#62 = ORIENTED_EDGE ( 'NONE', *, *, #90, .F. ) ;
#63 = FILL_AREA_STYLE ('',( #260 ) ) ;
#64 = VERTEX_POINT ( 'NONE', #68 ) ;
#65 = UNCERTAINTY_MEASURE_WITH_UNIT (LENGTH_MEASURE( 1.000000000000000082E-05 ), #245, 'distance_accuracy_value', 'NONE');
#66 = DIRECTION ( 'NONE',  ( -1.000000000000000000, -4.453261087808560759E-17, 0.000000000000000000 ) ) ;
#67 = FACE_OUTER_BOUND ( 'NONE', #14, .T. ) ;
#68 = CARTESIAN_POINT ( 'NONE',  ( 0.3750000000000000555, 6.000000000000000888, 4.592425496802576684E-17 ) ) ;
#69 = DIRECTION ( 'NONE',  ( 0.000000000000000000, 0.000000000000000000, -1.000000000000000000 ) ) ;
#70 =( GEOMETRIC_REPRESENTATION_CONTEXT ( 3 ) GLOBAL_UNCERTAINTY_ASSIGNED_CONTEXT ( ( #163 ) ) GLOBAL_UNIT_ASSIGNED_CONTEXT ( ( #40, #16, #114 ) ) REPRESENTATION_CONTEXT ( 'NONE', 'WORKASPACE' ) );
#71 = SHAPE_DEFINITION_REPRESENTATION ( #284, #2 ) ;
#72 = CARTESIAN_POINT ( 'NONE',  ( 0.000000000000000000, 0.000000000000000000, 0.000000000000000000 ) ) ;
#73 = AXIS2_PLACEMENT_3D ( 'NONE', #5, #208, #189 ) ;
#74 = DIMENSIONAL_EXPONENTS ( 1.000000000000000000, 0.000000000000000000, 0.000000000000000000, 0.000000000000000000, 0.000000000000000000, 0.000000000000000000, 0.000000000000000000 ) ;
#75 = FACE_OUTER_BOUND ( 'NONE', #116, .T. ) ;
#76 = LENGTH_MEASURE_WITH_UNIT ( LENGTH_MEASURE( 0.02539999999999999897 ), #7 );
#77 = CLOSED_SHELL ( 'NONE', ( #49, #200, #140, #52 ) ) ;
#78 = MECHANICAL_DESIGN_GEOMETRIC_PRESENTATION_REPRESENTATION (  '', ( #31 ), #195 ) ;
#79 =( NAMED_UNIT ( * ) SI_UNIT ( $, .STERADIAN. ) SOLID_ANGLE_UNIT ( ) );
#80 = DIRECTION ( 'NONE',  ( -4.453261087808560759E-17, 1.000000000000000000, -0.000000000000000000 ) ) ;
#81 = SURFACE_STYLE_FILL_AREA ( #282 ) ;
#82 = EDGE_CURVE ( 'NONE', #41, #292, #289, .T. ) ;
#83 = ORIENTED_EDGE ( 'NONE', *, *, #225, .T. ) ;
#84 = AXIS2_PLACEMENT_3D ( 'NONE', #198, #212, #132 ) ;
#85 = AXIS2_PLACEMENT_3D ( 'NONE', #106, #35, #129 ) ;
#86 = SURFACE_STYLE_USAGE ( .BOTH. , #120 ) ;
#87 = ORIENTED_EDGE ( 'NONE', *, *, #105, .T. ) ;
#88 = PRESENTATION_STYLE_ASSIGNMENT (( #86 ) ) ;
#89 = ORIENTED_EDGE ( 'NONE', *, *, #99, .T. ) ;
#90 = EDGE_CURVE ( 'NONE', #181, #64, #131, .T. ) ;
#91 = VERTEX_POINT ( 'NONE', #222 ) ;
#92 = AXIS2_PLACEMENT_3D ( 'NONE', #128, #309, #171 ) ;
#93 = UNCERTAINTY_MEASURE_WITH_UNIT (LENGTH_MEASURE( 1.000000000000000082E-05 ), #18, 'distance_accuracy_value', 'NONE');
#94 =( LENGTH_UNIT ( ) NAMED_UNIT ( * ) SI_UNIT ( $, .METRE. ) );
#95 = MANIFOLD_SOLID_BREP ( 'Revolve - Cutting Edge', #203 ) ;
#96 = EDGE_CURVE ( 'NONE', #55, #91, #165, .T. ) ;
#97 = PRESENTATION_STYLE_ASSIGNMENT (( #162 ) ) ;
#98 = DIRECTION ( 'NONE',  ( -1.000000000000000000, 0.000000000000000000, 0.000000000000000000 ) ) ;
#99 = EDGE_CURVE ( 'NONE', #64, #181, #51, .T. ) ;
#100 = DIRECTION ( 'NONE',  ( 1.000000000000000000, 0.000000000000000000, 0.000000000000000000 ) ) ;
#101 = STYLED_ITEM ( 'NONE', ( #88 ), #276 ) ;
#102 = UNCERTAINTY_MEASURE_WITH_UNIT (LENGTH_MEASURE( 1.000000000000000082E-05 ), #294, 'distance_accuracy_value', 'NONE');
#103 = LENGTH_MEASURE_WITH_UNIT ( LENGTH_MEASURE( 0.02539999999999999897 ), #290 );
#104 = PLANE ( 'NONE',  #73 ) ;
#105 = EDGE_CURVE ( 'NONE', #110, #91, #243, .T. ) ;
#106 = CARTESIAN_POINT ( 'NONE',  ( 0.000000000000000000, 3.250000000000000000, 0.000000000000000000 ) ) ;
#107 = AXIS2_PLACEMENT_3D ( 'NONE', #164, #235, #66 ) ;
#108 = CYLINDRICAL_SURFACE ( 'NONE', #244, 0.3750000000000000555 ) ;
#109 =( CONVERSION_BASED_UNIT ( 'INCH', #28 ) LENGTH_UNIT ( ) NAMED_UNIT ( #273 ) );
#110 = VERTEX_POINT ( 'NONE', #266 ) ;
#111 = ORIENTED_EDGE ( 'NONE', *, *, #149, .F. ) ;
#112 = AXIS2_PLACEMENT_3D ( 'NONE', #298, #258, #160 ) ;
#113 = COLOUR_RGB ( '',1.000000000000000000, 0.000000000000000000, 0.000000000000000000 ) ;
#114 =( NAMED_UNIT ( * ) SI_UNIT ( $, .STERADIAN. ) SOLID_ANGLE_UNIT ( ) );
#115 = FACE_OUTER_BOUND ( 'NONE', #155, .T. ) ;
#116 = EDGE_LOOP ( 'NONE', ( #34, #178 ) ) ;
#117 = CARTESIAN_POINT ( 'NONE',  ( 0.000000000000000000, 3.250000000000000000, 0.000000000000000000 ) ) ;
#118 = STYLED_ITEM ( 'NONE', ( #280 ), #194 ) ;
#119 = SURFACE_STYLE_FILL_AREA ( #63 ) ;
#120 = SURFACE_SIDE_STYLE ('',( #119 ) ) ;
#121 =( LENGTH_UNIT ( ) NAMED_UNIT ( * ) SI_UNIT ( $, .METRE. ) );
#122 = FACE_OUTER_BOUND ( 'NONE', #158, .T. ) ;
#123 = AXIS2_PLACEMENT_3D ( 'NONE', #216, #255, #6 ) ;
#124 = AXIS2_PLACEMENT_3D ( 'NONE', #185, #145, #166 ) ;
#125 = PRODUCT_DEFINITION_CONTEXT ( 'detailed design', #12, 'design' ) ;
#126 = PRODUCT_CONTEXT ( 'NONE', #275, 'mechanical' ) ;
#127 = DIRECTION ( 'NONE',  ( -4.453261087808560759E-17, 1.000000000000000000, -0.000000000000000000 ) ) ;
#128 = CARTESIAN_POINT ( 'NONE',  ( 0.000000000000000000, 0.000000000000000000, 0.000000000000000000 ) ) ;
#129 = DIRECTION ( 'NONE',  ( 0.000000000000000000, 0.000000000000000000, -1.000000000000000000 ) ) ;
#130 = SURFACE_STYLE_USAGE ( .BOTH. , #9 ) ;
#131 = CIRCLE ( 'NONE', #202, 0.3750000000000001665 ) ;
#132 = DIRECTION ( 'NONE',  ( -1.000000000000000000, 0.000000000000000000, 0.000000000000000000 ) ) ;
#133 = ORIENTED_EDGE ( 'NONE', *, *, #209, .T. ) ;
#134 = DIRECTION ( 'NONE',  ( -0.000000000000000000, -1.000000000000000000, -0.000000000000000000 ) ) ;
#135 = EDGE_LOOP ( 'NONE', ( #8, #213, #62, #153 ) ) ;
#136 = LINE ( 'NONE', #157, #150 ) ;
#137 = FACE_OUTER_BOUND ( 'NONE', #196, .T. ) ;
#138 = ORIENTED_EDGE ( 'NONE', *, *, #99, .F. ) ;
#139 = LENGTH_MEASURE_WITH_UNIT ( LENGTH_MEASURE( 0.02539999999999999897 ), #121 );
#140 = ADVANCED_FACE ( 'NONE', ( #122 ), #201, .T. ) ;
#141 = VECTOR ( 'NONE', #21, 39.37007874015748143 ) ;
#142 = CARTESIAN_POINT ( 'NONE',  ( 0.000000000000000000, 3.250000000000000000, 0.000000000000000000 ) ) ;
#143 = FILL_AREA_STYLE_COLOUR ( '', #279 ) ;
#144 = UNCERTAINTY_MEASURE_WITH_UNIT (LENGTH_MEASURE( 1.000000000000000082E-05 ), #306, 'distance_accuracy_value', 'NONE');
#145 = DIRECTION ( 'NONE',  ( -4.453261087808560759E-17, 1.000000000000000000, -0.000000000000000000 ) ) ;
#146 = PLANE ( 'NONE',  #92 ) ;
#147 = PRESENTATION_LAYER_ASSIGNMENT (  '', '', ( #101 ) ) ;
#148 = FACE_OUTER_BOUND ( 'NONE', #285, .T. ) ;
#149 = EDGE_CURVE ( 'NONE', #36, #55, #308, .T. ) ;
#150 = VECTOR ( 'NONE', #288, 39.37007874015748143 ) ;
#151 = EDGE_LOOP ( 'NONE', ( #230, #193 ) ) ;
#152 = SURFACE_SIDE_STYLE ('',( #32 ) ) ;
#153 = ORIENTED_EDGE ( 'NONE', *, *, #209, .F. ) ;
#154 = SURFACE_SIDE_STYLE ('',( #237 ) ) ;
#155 = EDGE_LOOP ( 'NONE', ( #83, #210, #233, #30 ) ) ;
#156 = EDGE_CURVE ( 'NONE', #36, #110, #48, .T. ) ;
#157 = CARTESIAN_POINT ( 'NONE',  ( -0.3750000000000002220, 6.000000000000000888, 0.000000000000000000 ) ) ;
#158 = EDGE_LOOP ( 'NONE', ( #261, #234, #133, #138 ) ) ;
#159 = PRESENTATION_LAYER_ASSIGNMENT (  '', '', ( #31 ) ) ;
#160 = DIRECTION ( 'NONE',  ( -1.000000000000000000, 0.000000000000000000, 0.000000000000000000 ) ) ;
#161 = CARTESIAN_POINT ( 'NONE',  ( 0.000000000000000000, 0.000000000000000000, 0.000000000000000000 ) ) ;
#162 = SURFACE_STYLE_USAGE ( .BOTH. , #186 ) ;
#163 = UNCERTAINTY_MEASURE_WITH_UNIT (LENGTH_MEASURE( 1.000000000000000082E-05 ), #40, 'distance_accuracy_value', 'NONE');
#164 = CARTESIAN_POINT ( 'NONE',  ( 3.718412684285603637E-34, 3.250000000000000000, 0.000000000000000000 ) ) ;
#165 = CIRCLE ( 'NONE', #296, 0.3750000000000000555 ) ;
#166 = DIRECTION ( 'NONE',  ( -1.000000000000000000, 0.000000000000000000, 0.000000000000000000 ) ) ;
#167 = UNCERTAINTY_MEASURE_WITH_UNIT (LENGTH_MEASURE( 1.000000000000000082E-05 ), #283, 'distance_accuracy_value', 'NONE');
#168 =( NAMED_UNIT ( * ) SI_UNIT ( $, .STERADIAN. ) SOLID_ANGLE_UNIT ( ) );
#169 = EDGE_CURVE ( 'NONE', #292, #64, #247, .T. ) ;
#170 =( LENGTH_UNIT ( ) NAMED_UNIT ( * ) SI_UNIT ( $, .METRE. ) );
#171 = DIRECTION ( 'NONE',  ( 0.000000000000000000, 0.000000000000000000, -1.000000000000000000 ) ) ;
#172 = ADVANCED_FACE ( 'NONE', ( #250 ), #104, .T. ) ;
#173 = PRESENTATION_STYLE_ASSIGNMENT (( #211 ) ) ;
#174 = SURFACE_STYLE_USAGE ( .BOTH. , #58 ) ;
#175 = MECHANICAL_DESIGN_GEOMETRIC_PRESENTATION_REPRESENTATION (  '', ( #118 ), #39 ) ;
#176 = CARTESIAN_POINT ( 'NONE',  ( 4.592425496802575451E-17, 3.250000000000000000, 0.3750000000000000555 ) ) ;
#177 = DIRECTION ( 'NONE',  ( -0.000000000000000000, -1.000000000000000000, -0.000000000000000000 ) ) ;
#178 = ORIENTED_EDGE ( 'NONE', *, *, #96, .T. ) ;
#179 = CARTESIAN_POINT ( 'NONE',  ( -0.3750000000000000555, 3.250000000000000000, 0.000000000000000000 ) ) ;
#180 = DIRECTION ( 'NONE',  ( 0.000000000000000000, 0.000000000000000000, -1.000000000000000000 ) ) ;
#181 = VERTEX_POINT ( 'NONE', #29 ) ;
#182 =( GEOMETRIC_REPRESENTATION_CONTEXT ( 3 ) GLOBAL_UNCERTAINTY_ASSIGNED_CONTEXT ( ( #167 ) ) GLOBAL_UNIT_ASSIGNED_CONTEXT ( ( #283, #228, #79 ) ) REPRESENTATION_CONTEXT ( 'NONE', 'WORKASPACE' ) );
#183 = PRODUCT_RELATED_PRODUCT_CATEGORY ( 'part', '', ( #33 ) ) ;
#184 = LENGTH_MEASURE_WITH_UNIT ( LENGTH_MEASURE( 0.02539999999999999897 ), #94 );
#185 = CARTESIAN_POINT ( 'NONE',  ( -1.224646799147354440E-16, 6.000000000000000888, 0.000000000000000000 ) ) ;
#186 = SURFACE_SIDE_STYLE ('',( #303 ) ) ;
#187 = CIRCLE ( 'NONE', #56, 0.3750000000000000555 ) ;
#188 = CARTESIAN_POINT ( 'NONE',  ( 4.592425496802575451E-17, 0.000000000000000000, 0.3750000000000000555 ) ) ;
#189 = DIRECTION ( 'NONE',  ( 0.000000000000000000, -0.000000000000000000, 1.000000000000000000 ) ) ;
#190 = CARTESIAN_POINT ( 'NONE',  ( 0.3749999999999999445, 6.000000000000000888, 4.592425496802576068E-17 ) ) ;
#191 = VECTOR ( 'NONE', #134, 39.37007874015748143 ) ;
#192 = FILL_AREA_STYLE_COLOUR ( '', #278 ) ;
#193 = ORIENTED_EDGE ( 'NONE', *, *, #156, .F. ) ;
#194 = ADVANCED_FACE ( 'NONE', ( #75 ), #146, .T. ) ;
#195 =( GEOMETRIC_REPRESENTATION_CONTEXT ( 3 ) GLOBAL_UNCERTAINTY_ASSIGNED_CONTEXT ( ( #65 ) ) GLOBAL_UNIT_ASSIGNED_CONTEXT ( ( #245, #43, #15 ) ) REPRESENTATION_CONTEXT ( 'NONE', 'WORKASPACE' ) );
#196 = EDGE_LOOP ( 'NONE', ( #257, #89 ) ) ;
#197 =( NAMED_UNIT ( * ) SI_UNIT ( $, .STERADIAN. ) SOLID_ANGLE_UNIT ( ) );
#198 = CARTESIAN_POINT ( 'NONE',  ( -1.224646799147354440E-16, 6.000000000000000888, 0.000000000000000000 ) ) ;
#199 = DIRECTION ( 'NONE',  ( -0.000000000000000000, -1.000000000000000000, -0.000000000000000000 ) ) ;
#200 = ADVANCED_FACE ( 'NONE', ( #148 ), #1, .F. ) ;
#201 = CYLINDRICAL_SURFACE ( 'NONE', #24, 0.3750000000000001110 ) ;
#202 = AXIS2_PLACEMENT_3D ( 'NONE', #20, #218, #263 ) ;
#203 = CLOSED_SHELL ( 'NONE', ( #57, #172, #304, #194 ) ) ;
#204 = STYLED_ITEM ( 'NONE', ( #173 ), #172 ) ;
#205 = DIRECTION ( 'NONE',  ( -1.000000000000000000, 0.000000000000000000, 0.000000000000000000 ) ) ;
#206 = PRODUCT_DEFINITION_FORMATION_WITH_SPECIFIED_SOURCE ( 'ANY', '', #33, .NOT_KNOWN. ) ;
#207 = SURFACE_STYLE_FILL_AREA ( #277 ) ;
#208 = DIRECTION ( 'NONE',  ( 0.000000000000000000, 1.000000000000000000, 0.000000000000000000 ) ) ;
#209 = EDGE_CURVE ( 'NONE', #41, #181, #136, .T. ) ;
#210 = ORIENTED_EDGE ( 'NONE', *, *, #149, .T. ) ;
#211 = SURFACE_STYLE_USAGE ( .BOTH. , #152 ) ;
#212 = DIRECTION ( 'NONE',  ( -4.453261087808560759E-17, 1.000000000000000000, -0.000000000000000000 ) ) ;
#213 = ORIENTED_EDGE ( 'NONE', *, *, #169, .T. ) ;
#214 =( LENGTH_UNIT ( ) NAMED_UNIT ( * ) SI_UNIT ( $, .METRE. ) );
#215 = MECHANICAL_DESIGN_GEOMETRIC_PRESENTATION_REPRESENTATION (  '', ( #204 ), #182 ) ;
#216 = CARTESIAN_POINT ( 'NONE',  ( 0.3750000000000000555, 6.000000000000000888, 0.000000000000000000 ) ) ;
#217 = ORIENTED_EDGE ( 'NONE', *, *, #96, .F. ) ;
#218 = DIRECTION ( 'NONE',  ( -4.453261087808560759E-17, 1.000000000000000000, -0.000000000000000000 ) ) ;
#219 = DIRECTION ( 'NONE',  ( -0.000000000000000000, -1.000000000000000000, -0.000000000000000000 ) ) ;
#220 = COLOUR_RGB ( '',0.7921568627450980005, 0.8196078431372548767, 0.9333333333333333481 ) ;
#221 = FILL_AREA_STYLE ('',( #241 ) ) ;
#222 = CARTESIAN_POINT ( 'NONE',  ( 0.000000000000000000, 0.000000000000000000, -0.3750000000000000555 ) ) ;
#223 = CARTESIAN_POINT ( 'NONE',  ( 0.000000000000000000, 0.000000000000000000, -0.3750000000000000555 ) ) ;
#224 = COLOUR_RGB ( '',1.000000000000000000, 0.000000000000000000, 0.000000000000000000 ) ;
#225 = EDGE_CURVE ( 'NONE', #110, #36, #268, .T. ) ;
#226 = DIRECTION ( 'NONE',  ( -4.453261087808560759E-17, 1.000000000000000000, -0.000000000000000000 ) ) ;
#227 = CIRCLE ( 'NONE', #112, 0.3750000000000000555 ) ;
#228 =( NAMED_UNIT ( * ) PLANE_ANGLE_UNIT ( ) SI_UNIT ( $, .RADIAN. ) );
#229 = FILL_AREA_STYLE_COLOUR ( '', #113 ) ;
#230 = ORIENTED_EDGE ( 'NONE', *, *, #225, .F. ) ;
#231 =( NAMED_UNIT ( * ) SI_UNIT ( $, .STERADIAN. ) SOLID_ANGLE_UNIT ( ) );
#232 = ORIENTED_EDGE ( 'NONE', *, *, #156, .T. ) ;
#233 = ORIENTED_EDGE ( 'NONE', *, *, #265, .F. ) ;
#234 = ORIENTED_EDGE ( 'NONE', *, *, #281, .T. ) ;
#235 = DIRECTION ( 'NONE',  ( -4.453261087808560759E-17, 1.000000000000000000, 0.000000000000000000 ) ) ;
#236 = PLANE ( 'NONE',  #123 ) ;
#237 = SURFACE_STYLE_FILL_AREA ( #221 ) ;
#238 =( NAMED_UNIT ( * ) PLANE_ANGLE_UNIT ( ) SI_UNIT ( $, .RADIAN. ) );
#239 =( NAMED_UNIT ( * ) PLANE_ANGLE_UNIT ( ) SI_UNIT ( $, .RADIAN. ) );
#240 =( NAMED_UNIT ( * ) SI_UNIT ( $, .STERADIAN. ) SOLID_ANGLE_UNIT ( ) );
#241 = FILL_AREA_STYLE_COLOUR ( '', #267 ) ;
#242 = MECHANICAL_DESIGN_GEOMETRIC_PRESENTATION_REPRESENTATION (  '', ( #101 ), #70 ) ;
#243 = LINE ( 'NONE', #223, #141 ) ;
#244 = AXIS2_PLACEMENT_3D ( 'NONE', #297, #199, #42 ) ;
#245 =( CONVERSION_BASED_UNIT ( 'INCH', #139 ) LENGTH_UNIT ( ) NAMED_UNIT ( #254 ) );
#246 = DIMENSIONAL_EXPONENTS ( 1.000000000000000000, 0.000000000000000000, 0.000000000000000000, 0.000000000000000000, 0.000000000000000000, 0.000000000000000000, 0.000000000000000000 ) ;
#247 = LINE ( 'NONE', #190, #271 ) ;
#248 = STYLED_ITEM ( 'NONE', ( #19 ), #304 ) ;
#249 = FILL_AREA_STYLE_COLOUR ( '', #224 ) ;
#250 = FACE_OUTER_BOUND ( 'NONE', #151, .T. ) ;
#251 = PRESENTATION_STYLE_ASSIGNMENT (( #174 ) ) ;
#252 = STYLED_ITEM ( 'NONE', ( #251 ), #57 ) ;
#253 = AXIS2_PLACEMENT_3D ( 'NONE', #142, #226, #98 ) ;
#254 = DIMENSIONAL_EXPONENTS ( 1.000000000000000000, 0.000000000000000000, 0.000000000000000000, 0.000000000000000000, 0.000000000000000000, 0.000000000000000000, 0.000000000000000000 ) ;
#255 = DIRECTION ( 'NONE',  ( 4.453261087808560759E-17, -1.000000000000000000, 0.000000000000000000 ) ) ;
#256 = SURFACE_STYLE_USAGE ( .BOTH. , #154 ) ;
#257 = ORIENTED_EDGE ( 'NONE', *, *, #90, .T. ) ;
#258 = DIRECTION ( 'NONE',  ( -4.453261087808560759E-17, 1.000000000000000000, -0.000000000000000000 ) ) ;
#259 = FACE_OUTER_BOUND ( 'NONE', #135, .T. ) ;
#260 = FILL_AREA_STYLE_COLOUR ( '', #220 ) ;
#261 = ORIENTED_EDGE ( 'NONE', *, *, #169, .F. ) ;
#262 = CYLINDRICAL_SURFACE ( 'NONE', #269, 0.3750000000000000555 ) ;
#263 = DIRECTION ( 'NONE',  ( -1.000000000000000000, 0.000000000000000000, 0.000000000000000000 ) ) ;
#264 = CARTESIAN_POINT ( 'NONE',  ( 0.000000000000000000, 0.000000000000000000, 0.000000000000000000 ) ) ;
#265 = EDGE_CURVE ( 'NONE', #91, #55, #187, .T. ) ;
#266 = CARTESIAN_POINT ( 'NONE',  ( 0.000000000000000000, 3.250000000000000000, -0.3750000000000000555 ) ) ;
#267 = COLOUR_RGB ( '',1.000000000000000000, 0.000000000000000000, 0.000000000000000000 ) ;
#268 = CIRCLE ( 'NONE', #17, 0.3750000000000000555 ) ;
#269 = AXIS2_PLACEMENT_3D ( 'NONE', #161, #59, #69 ) ;
#270 =( NAMED_UNIT ( * ) PLANE_ANGLE_UNIT ( ) SI_UNIT ( $, .RADIAN. ) );
#271 = VECTOR ( 'NONE', #80, 39.37007874015748143 ) ;
#272 = AXIS2_PLACEMENT_3D ( 'NONE', #305, #22, #100 ) ;
#273 = DIMENSIONAL_EXPONENTS ( 1.000000000000000000, 0.000000000000000000, 0.000000000000000000, 0.000000000000000000, 0.000000000000000000, 0.000000000000000000, 0.000000000000000000 ) ;
#274 = UNCERTAINTY_MEASURE_WITH_UNIT (LENGTH_MEASURE( 1.000000000000000082E-05 ), #109, 'distance_accuracy_value', 'NONE');
#275 = APPLICATION_CONTEXT ( 'automotive_design' ) ;
#276 = MANIFOLD_SOLID_BREP ( 'Revolve - Tool Body (Straight Shanked)', #77 ) ;
#277 = FILL_AREA_STYLE ('',( #229 ) ) ;
#278 = COLOUR_RGB ( '',1.000000000000000000, 0.000000000000000000, 0.000000000000000000 ) ;
#279 = COLOUR_RGB ( '',0.7921568627450980005, 0.8196078431372548767, 0.9333333333333333481 ) ;
#280 = PRESENTATION_STYLE_ASSIGNMENT (( #130 ) ) ;
#281 = EDGE_CURVE ( 'NONE', #292, #41, #227, .T. ) ;
#282 = FILL_AREA_STYLE ('',( #192 ) ) ;
#283 =( CONVERSION_BASED_UNIT ( 'INCH', #76 ) LENGTH_UNIT ( ) NAMED_UNIT ( #286 ) );
#284 = PRODUCT_DEFINITION_SHAPE ( 'NONE', 'NONE',  #46 ) ;
#285 = EDGE_LOOP ( 'NONE', ( #60, #293 ) ) ;
#286 = DIMENSIONAL_EXPONENTS ( 1.000000000000000000, 0.000000000000000000, 0.000000000000000000, 0.000000000000000000, 0.000000000000000000, 0.000000000000000000, 0.000000000000000000 ) ;
#287 =( GEOMETRIC_REPRESENTATION_CONTEXT ( 3 ) GLOBAL_UNCERTAINTY_ASSIGNED_CONTEXT ( ( #93 ) ) GLOBAL_UNIT_ASSIGNED_CONTEXT ( ( #18, #238, #240 ) ) REPRESENTATION_CONTEXT ( 'NONE', 'WORKASPACE' ) );
#288 = DIRECTION ( 'NONE',  ( -4.453261087808560759E-17, 1.000000000000000000, -0.000000000000000000 ) ) ;
#289 = CIRCLE ( 'NONE', #253, 0.3750000000000000555 ) ;
#290 =( LENGTH_UNIT ( ) NAMED_UNIT ( * ) SI_UNIT ( $, .METRE. ) );
#291 = LENGTH_MEASURE_WITH_UNIT ( LENGTH_MEASURE( 0.02539999999999999897 ), #214 );
#292 = VERTEX_POINT ( 'NONE', #61 ) ;
#293 = ORIENTED_EDGE ( 'NONE', *, *, #281, .F. ) ;
#294 =( CONVERSION_BASED_UNIT ( 'INCH', #291 ) LENGTH_UNIT ( ) NAMED_UNIT ( #10 ) );
#295 = MECHANICAL_DESIGN_GEOMETRIC_PRESENTATION_REPRESENTATION (  '', ( #252 ), #287 ) ;
#296 = AXIS2_PLACEMENT_3D ( 'NONE', #72, #219, #299 ) ;
#297 = CARTESIAN_POINT ( 'NONE',  ( 0.000000000000000000, 0.000000000000000000, 0.000000000000000000 ) ) ;
#298 = CARTESIAN_POINT ( 'NONE',  ( 0.000000000000000000, 3.250000000000000000, 0.000000000000000000 ) ) ;
#299 = DIRECTION ( 'NONE',  ( 0.000000000000000000, 0.000000000000000000, -1.000000000000000000 ) ) ;
#300 = LENGTH_MEASURE_WITH_UNIT ( LENGTH_MEASURE( 0.02539999999999999897 ), #302 );
#301 = FILL_AREA_STYLE ('',( #143 ) ) ;
#302 =( LENGTH_UNIT ( ) NAMED_UNIT ( * ) SI_UNIT ( $, .METRE. ) );
#303 = SURFACE_STYLE_FILL_AREA ( #301 ) ;
#304 = ADVANCED_FACE ( 'NONE', ( #67 ), #262, .T. ) ;
#305 = CARTESIAN_POINT ( 'NONE',  ( 0.000000000000000000, 0.000000000000000000, 0.000000000000000000 ) ) ;
#306 =( CONVERSION_BASED_UNIT ( 'INCH', #300 ) LENGTH_UNIT ( ) NAMED_UNIT ( #246 ) );
#307 = PRESENTATION_LAYER_ASSIGNMENT (  '', '', ( #118 ) ) ;
#308 = LINE ( 'NONE', #188, #191 ) ;
#309 = DIRECTION ( 'NONE',  ( 0.000000000000000000, -1.000000000000000000, -0.000000000000000000 ) ) ;
ENDSEC;
END-ISO-10303-21;
