ISO-10303-21;
HEADER;
FILE_DESCRIPTION (( 'STEP AP214' ),
    '1' );
FILE_NAME ('56752.STEP',
    '2023-06-30T22:14:21',
    ( '' ),
    ( '' ),
    'SwSTEP 2.0',
    'SolidWorks 2023',
    '' );
FILE_SCHEMA (( 'AUTOMOTIVE_DESIGN' ));
ENDSEC;

DATA;
#1 = DIMENSIONAL_EXPONENTS ( 1.000000000000000000, 0.000000000000000000, 0.000000000000000000, 0.000000000000000000, 0.000000000000000000, 0.000000000000000000, 0.000000000000000000 ) ;
#2 = CYLINDRICAL_SURFACE ( 'NONE', #325, 0.4999999999999997224 ) ;
#3 = CIRCLE ( 'NONE', #207, 0.5000000000000000000 ) ;
#4 = DIMENSIONAL_EXPONENTS ( 1.000000000000000000, 0.000000000000000000, 0.000000000000000000, 0.000000000000000000, 0.000000000000000000, 0.000000000000000000, 0.000000000000000000 ) ;
#5 = CARTESIAN_POINT ( 'NONE',  ( -1.224646799147351975E-16, 7.000000000000000000, 0.000000000000000000 ) ) ;
#6 =( GEOMETRIC_REPRESENTATION_CONTEXT ( 3 ) GLOBAL_UNCERTAINTY_ASSIGNED_CONTEXT ( ( #42 ) ) GLOBAL_UNIT_ASSIGNED_CONTEXT ( ( #217, #19, #297 ) ) REPRESENTATION_CONTEXT ( 'NONE', 'WORKASPACE' ) );
#7 = FILL_AREA_STYLE ('',( #14 ) ) ;
#8 = EDGE_CURVE ( 'NONE', #367, #112, #81, .T. ) ;
#9 =( NAMED_UNIT ( * ) SI_UNIT ( $, .STERADIAN. ) SOLID_ANGLE_UNIT ( ) );
#10 = SURFACE_STYLE_USAGE ( .BOTH. , #188 ) ;
#11 = CARTESIAN_POINT ( 'NONE',  ( 0.000000000000000000, 0.000000000000000000, 0.000000000000000000 ) ) ;
#12 = DIRECTION ( 'NONE',  ( 1.224646799147353207E-16, -0.000000000000000000, 1.000000000000000000 ) ) ;
#13 = PRESENTATION_STYLE_ASSIGNMENT (( #299 ) ) ;
#14 = FILL_AREA_STYLE_COLOUR ( '', #126 ) ;
#15 = CIRCLE ( 'NONE', #295, 0.4999999999999995004 ) ;
#16 = COLOUR_RGB ( '',0.7921568627450980005, 0.8196078431372548767, 0.9333333333333333481 ) ;
#17 = ORIENTED_EDGE ( 'NONE', *, *, #41, .F. ) ;
#18 =( CONVERSION_BASED_UNIT ( 'INCH', #271 ) LENGTH_UNIT ( ) NAMED_UNIT ( #130 ) );
#19 =( NAMED_UNIT ( * ) PLANE_ANGLE_UNIT ( ) SI_UNIT ( $, .RADIAN. ) );
#20 = FACE_OUTER_BOUND ( 'NONE', #145, .T. ) ;
#21 = ORIENTED_EDGE ( 'NONE', *, *, #48, .T. ) ;
#22 = CARTESIAN_POINT ( 'NONE',  ( 0.000000000000000000, 4.250000000000000000, 0.000000000000000000 ) ) ;
#23 = DIRECTION ( 'NONE',  ( 1.224646799147353207E-16, -1.000000000000000000, 0.000000000000000000 ) ) ;
#24 = DIRECTION ( 'NONE',  ( -0.000000000000000000, -1.000000000000000000, -0.000000000000000000 ) ) ;
#25 = EDGE_CURVE ( 'NONE', #280, #112, #341, .T. ) ;
#26 = AXIS2_PLACEMENT_3D ( 'NONE', #200, #251, #253 ) ;
#27 = ORIENTED_EDGE ( 'NONE', *, *, #103, .T. ) ;
#28 = DIRECTION ( 'NONE',  ( -1.000000000000000000, 0.000000000000000000, 0.000000000000000000 ) ) ;
#29 = ORIENTED_EDGE ( 'NONE', *, *, #289, .F. ) ;
#30 =( NAMED_UNIT ( * ) PLANE_ANGLE_UNIT ( ) SI_UNIT ( $, .RADIAN. ) );
#31 = PRESENTATION_LAYER_ASSIGNMENT (  '', '', ( #194 ) ) ;
#32 = AXIS2_PLACEMENT_3D ( 'NONE', #93, #131, #288 ) ;
#33 = EDGE_CURVE ( 'NONE', #199, #58, #312, .T. ) ;
#34 = DIRECTION ( 'NONE',  ( 0.000000000000000000, 0.000000000000000000, -1.000000000000000000 ) ) ;
#35 = UNCERTAINTY_MEASURE_WITH_UNIT (LENGTH_MEASURE( 1.000000000000000082E-05 ), #243, 'distance_accuracy_value', 'NONE');
#36 = PRODUCT_DEFINITION ( 'UNKNOWN', '', #310, #129 ) ;
#37 = CARTESIAN_POINT ( 'NONE',  ( -6.123233995736766036E-17, 0.5000000000000000000, 0.000000000000000000 ) ) ;
#38 = SURFACE_STYLE_FILL_AREA ( #7 ) ;
#39 = FILL_AREA_STYLE_COLOUR ( '', #353 ) ;
#40 = STYLED_ITEM ( 'NONE', ( #135 ), #122 ) ;
#41 = EDGE_CURVE ( 'NONE', #113, #223, #170, .T. ) ;
#42 = UNCERTAINTY_MEASURE_WITH_UNIT (LENGTH_MEASURE( 1.000000000000000082E-05 ), #217, 'distance_accuracy_value', 'NONE');
#43 = CLOSED_SHELL ( 'NONE', ( #155, #181, #116, #218, #122 ) ) ;
#44 = LENGTH_MEASURE_WITH_UNIT ( LENGTH_MEASURE( 0.02539999999999999897 ), #318 );
#45 = LINE ( 'NONE', #215, #320 ) ;
#46 = LINE ( 'NONE', #183, #124 ) ;
#47 = CARTESIAN_POINT ( 'NONE',  ( -0.5000000000000000000, 0.5000000000000000000, 6.123233995736764803E-17 ) ) ;
#48 = EDGE_CURVE ( 'NONE', #113, #58, #46, .T. ) ;
#49 = CARTESIAN_POINT ( 'NONE',  ( -1.224646799147351975E-16, 7.000000000000000000, 0.000000000000000000 ) ) ;
#50 = MANIFOLD_SOLID_BREP ( 'Revolve - Tool Body (Straight Shanked)', #127 ) ;
#51 = VECTOR ( 'NONE', #102, 39.37007874015748143 ) ;
#52 = VERTEX_POINT ( 'NONE', #302 ) ;
#53 = APPLICATION_CONTEXT ( 'automotive_design' ) ;
#54 = DIRECTION ( 'NONE',  ( -1.224646799147353207E-16, 1.000000000000000000, -0.000000000000000000 ) ) ;
#55 = CARTESIAN_POINT ( 'NONE',  ( -1.224646799147351975E-16, 7.000000000000000000, 0.000000000000000000 ) ) ;
#56 = EDGE_CURVE ( 'NONE', #117, #52, #3, .T. ) ;
#57 = DIRECTION ( 'NONE',  ( -0.000000000000000000, -1.000000000000000000, -0.000000000000000000 ) ) ;
#58 = VERTEX_POINT ( 'NONE', #294 ) ;
#59 =( CONVERSION_BASED_UNIT ( 'INCH', #224 ) LENGTH_UNIT ( ) NAMED_UNIT ( #342 ) );
#60 = DIRECTION ( 'NONE',  ( -0.000000000000000000, -1.000000000000000000, -0.000000000000000000 ) ) ;
#61 = ORIENTED_EDGE ( 'NONE', *, *, #160, .T. ) ;
#62 =( NAMED_UNIT ( * ) SI_UNIT ( $, .STERADIAN. ) SOLID_ANGLE_UNIT ( ) );
#63 = ADVANCED_FACE ( 'NONE', ( #107 ), #323, .T. ) ;
#64 = ADVANCED_BREP_SHAPE_REPRESENTATION ( '56752', ( #292, #50, #347 ), #285 ) ;
#65 = COLOUR_RGB ( '',1.000000000000000000, 0.000000000000000000, 0.000000000000000000 ) ;
#66 = CIRCLE ( 'NONE', #296, 0.4999999999999995004 ) ;
#67 = DIRECTION ( 'NONE',  ( -1.000000000000000000, 0.000000000000000000, 0.000000000000000000 ) ) ;
#68 = UNCERTAINTY_MEASURE_WITH_UNIT (LENGTH_MEASURE( 1.000000000000000082E-05 ), #205, 'distance_accuracy_value', 'NONE');
#69 = PRESENTATION_LAYER_ASSIGNMENT (  '', '', ( #204 ) ) ;
#70 = AXIS2_PLACEMENT_3D ( 'NONE', #281, #259, #67 ) ;
#71 =( NAMED_UNIT ( * ) PLANE_ANGLE_UNIT ( ) SI_UNIT ( $, .RADIAN. ) );
#72 = CARTESIAN_POINT ( 'NONE',  ( 0.000000000000000000, 0.000000000000000000, 0.000000000000000000 ) ) ;
#73 = PRODUCT_CONTEXT ( 'NONE', #261, 'mechanical' ) ;
#74 = MECHANICAL_DESIGN_GEOMETRIC_PRESENTATION_REPRESENTATION (  '', ( #204 ), #149 ) ;
#75 = FACE_OUTER_BOUND ( 'NONE', #309, .T. ) ;
#76 = FILL_AREA_STYLE ('',( #39 ) ) ;
#77 = CYLINDRICAL_SURFACE ( 'NONE', #206, 0.4999999999999994449 ) ;
#78 = ORIENTED_EDGE ( 'NONE', *, *, #41, .T. ) ;
#79 = FILL_AREA_STYLE_COLOUR ( '', #150 ) ;
#80 = DIRECTION ( 'NONE',  ( -1.000000000000000000, -1.224646799147353207E-16, 0.000000000000000000 ) ) ;
#81 = LINE ( 'NONE', #192, #105 ) ;
#82 = FACE_OUTER_BOUND ( 'NONE', #119, .T. ) ;
#83 = DIRECTION ( 'NONE',  ( 0.000000000000000000, -0.000000000000000000, 1.000000000000000000 ) ) ;
#84 = AXIS2_PLACEMENT_3D ( 'NONE', #37, #357, #264 ) ;
#85 = DIRECTION ( 'NONE',  ( 0.000000000000000000, 0.000000000000000000, -1.000000000000000000 ) ) ;
#86 = ORIENTED_EDGE ( 'NONE', *, *, #203, .F. ) ;
#87 = EDGE_LOOP ( 'NONE', ( #17, #29 ) ) ;
#88 = CARTESIAN_POINT ( 'NONE',  ( 0.000000000000000000, 0.5000000000000000000, -0.5000000000000000000 ) ) ;
#89 = ORIENTED_EDGE ( 'NONE', *, *, #25, .T. ) ;
#90 = ORIENTED_EDGE ( 'NONE', *, *, #8, .F. ) ;
#91 = SURFACE_SIDE_STYLE ('',( #141 ) ) ;
#92 = CARTESIAN_POINT ( 'NONE',  ( -1.224646799147351975E-16, 7.000000000000000000, 0.000000000000000000 ) ) ;
#93 = CARTESIAN_POINT ( 'NONE',  ( -6.123233995736766036E-17, 0.5000000000000000000, 0.000000000000000000 ) ) ;
#94 = PRESENTATION_STYLE_ASSIGNMENT (( #98 ) ) ;
#95 =( GEOMETRIC_REPRESENTATION_CONTEXT ( 3 ) GLOBAL_UNCERTAINTY_ASSIGNED_CONTEXT ( ( #154 ) ) GLOBAL_UNIT_ASSIGNED_CONTEXT ( ( #159, #198, #62 ) ) REPRESENTATION_CONTEXT ( 'NONE', 'WORKASPACE' ) );
#96 = AXIS2_PLACEMENT_3D ( 'NONE', #92, #313, #28 ) ;
#97 = EDGE_LOOP ( 'NONE', ( #340, #329, #108, #365 ) ) ;
#98 = SURFACE_STYLE_USAGE ( .BOTH. , #321 ) ;
#99 =( GEOMETRIC_REPRESENTATION_CONTEXT ( 3 ) GLOBAL_UNCERTAINTY_ASSIGNED_CONTEXT ( ( #242 ) ) GLOBAL_UNIT_ASSIGNED_CONTEXT ( ( #18, #350, #184 ) ) REPRESENTATION_CONTEXT ( 'NONE', 'WORKASPACE' ) );
#100 = PRESENTATION_LAYER_ASSIGNMENT (  '', '', ( #163 ) ) ;
#101 = FILL_AREA_STYLE ('',( #79 ) ) ;
#102 = DIRECTION ( 'NONE',  ( -1.224646799147353207E-16, 1.000000000000000000, -0.000000000000000000 ) ) ;
#103 = EDGE_CURVE ( 'NONE', #223, #199, #356, .T. ) ;
#104 = CARTESIAN_POINT ( 'NONE',  ( -0.4999999999999991118, 4.250000000000000000, 0.000000000000000000 ) ) ;
#105 = VECTOR ( 'NONE', #60, 39.37007874015748143 ) ;
#106 = SHAPE_DEFINITION_REPRESENTATION ( #125, #64 ) ;
#107 = FACE_OUTER_BOUND ( 'NONE', #301, .T. ) ;
#108 = ORIENTED_EDGE ( 'NONE', *, *, #278, .T. ) ;
#109 = FILL_AREA_STYLE_COLOUR ( '', #65 ) ;
#110 = SURFACE_STYLE_USAGE ( .BOTH. , #137 ) ;
#111 =( LENGTH_UNIT ( ) NAMED_UNIT ( * ) SI_UNIT ( $, .METRE. ) );
#112 = VERTEX_POINT ( 'NONE', #354 ) ;
#113 = VERTEX_POINT ( 'NONE', #104 ) ;
#114 = AXIS2_PLACEMENT_3D ( 'NONE', #255, #57, #282 ) ;
#115 = DIRECTION ( 'NONE',  ( 0.000000000000000000, 0.000000000000000000, -1.000000000000000000 ) ) ;
#116 = ADVANCED_FACE ( 'NONE', ( #75 ), #140, .T. ) ;
#117 = VERTEX_POINT ( 'NONE', #47 ) ;
#118 = PRESENTATION_STYLE_ASSIGNMENT (( #275 ) ) ;
#119 = EDGE_LOOP ( 'NONE', ( #247, #228, #270, #89 ) ) ;
#120 = FILL_AREA_STYLE_COLOUR ( '', #16 ) ;
#121 = ORIENTED_EDGE ( 'NONE', *, *, #33, .F. ) ;
#122 = ADVANCED_FACE ( 'NONE', ( #268 ), #327, .T. ) ;
#123 =( NAMED_UNIT ( * ) SI_UNIT ( $, .STERADIAN. ) SOLID_ANGLE_UNIT ( ) );
#124 = VECTOR ( 'NONE', #349, 39.37007874015748143 ) ;
#125 = PRODUCT_DEFINITION_SHAPE ( 'NONE', 'NONE',  #36 ) ;
#126 = COLOUR_RGB ( '',1.000000000000000000, 0.000000000000000000, 0.000000000000000000 ) ;
#127 = CLOSED_SHELL ( 'NONE', ( #63, #190, #133, #345 ) ) ;
#128 = FILL_AREA_STYLE_COLOUR ( '', #222 ) ;
#129 = PRODUCT_DEFINITION_CONTEXT ( 'detailed design', #53, 'design' ) ;
#130 = DIMENSIONAL_EXPONENTS ( 1.000000000000000000, 0.000000000000000000, 0.000000000000000000, 0.000000000000000000, 0.000000000000000000, 0.000000000000000000, 0.000000000000000000 ) ;
#131 = DIRECTION ( 'NONE',  ( 0.000000000000000000, 0.000000000000000000, 1.000000000000000000 ) ) ;
#132 = PRODUCT ( '56752', '56752', '', ( #73 ) ) ;
#133 = ADVANCED_FACE ( 'NONE', ( #291 ), #77, .T. ) ;
#134 = AXIS2_PLACEMENT_3D ( 'NONE', #241, #269, #80 ) ;
#135 = PRESENTATION_STYLE_ASSIGNMENT (( #110 ) ) ;
#136 = DIRECTION ( 'NONE',  ( -1.224646799147353207E-16, 1.000000000000000000, -0.000000000000000000 ) ) ;
#137 = SURFACE_SIDE_STYLE ('',( #38 ) ) ;
#138 = DIRECTION ( 'NONE',  ( 0.000000000000000000, 0.000000000000000000, -1.000000000000000000 ) ) ;
#139 = ORIENTED_EDGE ( 'NONE', *, *, #8, .T. ) ;
#140 = PLANE ( 'NONE',  #260 ) ;
#141 = SURFACE_STYLE_FILL_AREA ( #258 ) ;
#142 = DIRECTION ( 'NONE',  ( 1.000000000000000000, 1.224646799147353207E-16, 0.000000000000000000 ) ) ;
#143 = CARTESIAN_POINT ( 'NONE',  ( -6.123233995736766036E-17, 0.5000000000000000000, 0.000000000000000000 ) ) ;
#144 = AXIS2_PLACEMENT_3D ( 'NONE', #55, #276, #171 ) ;
#145 = EDGE_LOOP ( 'NONE', ( #369, #164 ) ) ;
#146 = CARTESIAN_POINT ( 'NONE',  ( 0.4999999999999995004, 7.000000000000000000, 0.000000000000000000 ) ) ;
#147 = DIRECTION ( 'NONE',  ( -1.000000000000000000, 0.000000000000000000, 0.000000000000000000 ) ) ;
#148 = MECHANICAL_DESIGN_GEOMETRIC_PRESENTATION_REPRESENTATION (  '', ( #208 ), #95 ) ;
#149 =( GEOMETRIC_REPRESENTATION_CONTEXT ( 3 ) GLOBAL_UNCERTAINTY_ASSIGNED_CONTEXT ( ( #157 ) ) GLOBAL_UNIT_ASSIGNED_CONTEXT ( ( #59, #169, #123 ) ) REPRESENTATION_CONTEXT ( 'NONE', 'WORKASPACE' ) );
#150 = COLOUR_RGB ( '',1.000000000000000000, 0.000000000000000000, 0.000000000000000000 ) ;
#151 = CIRCLE ( 'NONE', #287, 0.5000000000000000000 ) ;
#152 = FACE_OUTER_BOUND ( 'NONE', #172, .T. ) ;
#153 = STYLED_ITEM ( 'NONE', ( #94 ), #50 ) ;
#154 = UNCERTAINTY_MEASURE_WITH_UNIT (LENGTH_MEASURE( 1.000000000000000082E-05 ), #159, 'distance_accuracy_value', 'NONE');
#155 = ADVANCED_FACE ( 'NONE', ( #82 ), #344, .T. ) ;
#156 = PRESENTATION_STYLE_ASSIGNMENT (( #360 ) ) ;
#157 = UNCERTAINTY_MEASURE_WITH_UNIT (LENGTH_MEASURE( 1.000000000000000082E-05 ), #59, 'distance_accuracy_value', 'NONE');
#158 = CIRCLE ( 'NONE', #371, 0.5000000000000000000 ) ;
#159 =( CONVERSION_BASED_UNIT ( 'INCH', #324 ) LENGTH_UNIT ( ) NAMED_UNIT ( #1 ) );
#160 = EDGE_CURVE ( 'NONE', #227, #367, #15, .T. ) ;
#161 = SURFACE_SIDE_STYLE ('',( #209 ) ) ;
#162 = DIRECTION ( 'NONE',  ( 1.000000000000000000, 0.000000000000000000, 0.000000000000000000 ) ) ;
#163 = STYLED_ITEM ( 'NONE', ( #193 ), #155 ) ;
#164 = ORIENTED_EDGE ( 'NONE', *, *, #33, .T. ) ;
#165 = ORIENTED_EDGE ( 'NONE', *, *, #160, .F. ) ;
#166 =( LENGTH_UNIT ( ) NAMED_UNIT ( * ) SI_UNIT ( $, .METRE. ) );
#167 = DIRECTION ( 'NONE',  ( -1.000000000000000000, 0.000000000000000000, 0.000000000000000000 ) ) ;
#168 = ORIENTED_EDGE ( 'NONE', *, *, #333, .F. ) ;
#169 =( NAMED_UNIT ( * ) PLANE_ANGLE_UNIT ( ) SI_UNIT ( $, .RADIAN. ) );
#170 = CIRCLE ( 'NONE', #70, 0.4999999999999993339 ) ;
#171 = DIRECTION ( 'NONE',  ( -1.000000000000000000, 0.000000000000000000, 0.000000000000000000 ) ) ;
#172 = EDGE_LOOP ( 'NONE', ( #61, #139, #252, #311, #86 ) ) ;
#173 = FILL_AREA_STYLE_COLOUR ( '', #364 ) ;
#174 =( CONVERSION_BASED_UNIT ( 'INCH', #314 ) LENGTH_UNIT ( ) NAMED_UNIT ( #4 ) );
#175 = LENGTH_MEASURE_WITH_UNIT ( LENGTH_MEASURE( 0.02539999999999999897 ), #166 );
#176 = CARTESIAN_POINT ( 'NONE',  ( -6.123233995736766036E-17, 0.5000000000000000000, 0.000000000000000000 ) ) ;
#177 = MECHANICAL_DESIGN_GEOMETRIC_PRESENTATION_REPRESENTATION (  '', ( #40 ), #99 ) ;
#178 = CIRCLE ( 'NONE', #231, 0.4999999999999993339 ) ;
#179 =( NAMED_UNIT ( * ) SI_UNIT ( $, .STERADIAN. ) SOLID_ANGLE_UNIT ( ) );
#180 = DIMENSIONAL_EXPONENTS ( 1.000000000000000000, 0.000000000000000000, 0.000000000000000000, 0.000000000000000000, 0.000000000000000000, 0.000000000000000000, 0.000000000000000000 ) ;
#181 = ADVANCED_FACE ( 'NONE', ( #152 ), #2, .T. ) ;
#182 = CIRCLE ( 'NONE', #96, 0.4999999999999996669 ) ;
#183 = CARTESIAN_POINT ( 'NONE',  ( -0.4999999999999996114, 7.000000000000000000, 0.000000000000000000 ) ) ;
#184 =( NAMED_UNIT ( * ) SI_UNIT ( $, .STERADIAN. ) SOLID_ANGLE_UNIT ( ) );
#185 = DIRECTION ( 'NONE',  ( -0.000000000000000000, -1.000000000000000000, -0.000000000000000000 ) ) ;
#186 = PRODUCT_RELATED_PRODUCT_CATEGORY ( 'part', '', ( #132 ) ) ;
#187 = SURFACE_SIDE_STYLE ('',( #236 ) ) ;
#188 = SURFACE_SIDE_STYLE ('',( #331 ) ) ;
#189 = ORIENTED_EDGE ( 'NONE', *, *, #284, .F. ) ;
#190 = ADVANCED_FACE ( 'NONE', ( #328 ), #300, .F. ) ;
#191 =( GEOMETRIC_REPRESENTATION_CONTEXT ( 3 ) GLOBAL_UNCERTAINTY_ASSIGNED_CONTEXT ( ( #35 ) ) GLOBAL_UNIT_ASSIGNED_CONTEXT ( ( #243, #266, #9 ) ) REPRESENTATION_CONTEXT ( 'NONE', 'WORKASPACE' ) );
#192 = CARTESIAN_POINT ( 'NONE',  ( 6.123233995736763571E-17, 0.000000000000000000, 0.4999999999999997224 ) ) ;
#193 = PRESENTATION_STYLE_ASSIGNMENT (( #220 ) ) ;
#194 = STYLED_ITEM ( 'NONE', ( #214 ), #116 ) ;
#195 = CARTESIAN_POINT ( 'NONE',  ( 0.000000000000000000, 4.250000000000000000, -0.4999999999999995004 ) ) ;
#196 =( GEOMETRIC_REPRESENTATION_CONTEXT ( 3 ) GLOBAL_UNCERTAINTY_ASSIGNED_CONTEXT ( ( #68 ) ) GLOBAL_UNIT_ASSIGNED_CONTEXT ( ( #205, #71, #179 ) ) REPRESENTATION_CONTEXT ( 'NONE', 'WORKASPACE' ) );
#197 = DIRECTION ( 'NONE',  ( -0.000000000000000000, -1.000000000000000000, -0.000000000000000000 ) ) ;
#198 =( NAMED_UNIT ( * ) PLANE_ANGLE_UNIT ( ) SI_UNIT ( $, .RADIAN. ) );
#199 = VERTEX_POINT ( 'NONE', #237 ) ;
#200 = CARTESIAN_POINT ( 'NONE',  ( 0.000000000000000000, 0.5000000000000000000, 0.000000000000000000 ) ) ;
#201 = DIRECTION ( 'NONE',  ( 0.000000000000000000, 0.000000000000000000, -1.000000000000000000 ) ) ;
#202 = CARTESIAN_POINT ( 'NONE',  ( 0.000000000000000000, 0.5000000000000000000, 0.000000000000000000 ) ) ;
#203 = EDGE_CURVE ( 'NONE', #227, #361, #45, .T. ) ;
#204 = STYLED_ITEM ( 'NONE', ( #118 ), #292 ) ;
#205 =( CONVERSION_BASED_UNIT ( 'INCH', #175 ) LENGTH_UNIT ( ) NAMED_UNIT ( #283 ) );
#206 = AXIS2_PLACEMENT_3D ( 'NONE', #5, #210, #362 ) ;
#207 = AXIS2_PLACEMENT_3D ( 'NONE', #176, #12, #221 ) ;
#208 = STYLED_ITEM ( 'NONE', ( #156 ), #218 ) ;
#209 = SURFACE_STYLE_FILL_AREA ( #76 ) ;
#210 = DIRECTION ( 'NONE',  ( -1.224646799147353207E-16, 1.000000000000000000, -0.000000000000000000 ) ) ;
#211 = LENGTH_MEASURE_WITH_UNIT ( LENGTH_MEASURE( 0.02539999999999999897 ), #358 );
#212 = FACE_OUTER_BOUND ( 'NONE', #339, .T. ) ;
#213 = DIRECTION ( 'NONE',  ( 0.000000000000000000, 0.000000000000000000, 1.000000000000000000 ) ) ;
#214 = PRESENTATION_STYLE_ASSIGNMENT (( #10 ) ) ;
#215 = CARTESIAN_POINT ( 'NONE',  ( 0.000000000000000000, 0.000000000000000000, -0.4999999999999997224 ) ) ;
#216 =( LENGTH_UNIT ( ) NAMED_UNIT ( * ) SI_UNIT ( $, .METRE. ) );
#217 =( CONVERSION_BASED_UNIT ( 'INCH', #211 ) LENGTH_UNIT ( ) NAMED_UNIT ( #257 ) );
#218 = ADVANCED_FACE ( 'NONE', ( #212 ), #246, .T. ) ;
#219 = ORIENTED_EDGE ( 'NONE', *, *, #103, .F. ) ;
#220 = SURFACE_STYLE_USAGE ( .BOTH. , #248 ) ;
#221 = DIRECTION ( 'NONE',  ( 1.000000000000000000, 0.000000000000000000, -1.224646799147353207E-16 ) ) ;
#222 = COLOUR_RGB ( '',1.000000000000000000, 0.000000000000000000, 0.000000000000000000 ) ;
#223 = VERTEX_POINT ( 'NONE', #370 ) ;
#224 = LENGTH_MEASURE_WITH_UNIT ( LENGTH_MEASURE( 0.02539999999999999897 ), #111 );
#225 = EDGE_CURVE ( 'NONE', #112, #117, #315, .T. ) ;
#226 = EDGE_LOOP ( 'NONE', ( #219, #337, #21, #121 ) ) ;
#227 = VERTEX_POINT ( 'NONE', #195 ) ;
#228 = ORIENTED_EDGE ( 'NONE', *, *, #56, .T. ) ;
#229 = DIRECTION ( 'NONE',  ( -0.000000000000000000, -1.000000000000000000, -0.000000000000000000 ) ) ;
#230 = ORIENTED_EDGE ( 'NONE', *, *, #203, .T. ) ;
#231 = AXIS2_PLACEMENT_3D ( 'NONE', #363, #54, #167 ) ;
#232 = PRESENTATION_LAYER_ASSIGNMENT (  '', '', ( #153 ) ) ;
#233 = DIMENSIONAL_EXPONENTS ( 1.000000000000000000, 0.000000000000000000, 0.000000000000000000, 0.000000000000000000, 0.000000000000000000, 0.000000000000000000, 0.000000000000000000 ) ;
#234 = PRESENTATION_LAYER_ASSIGNMENT (  '', '', ( #40 ) ) ;
#235 = EDGE_CURVE ( 'NONE', #280, #52, #151, .T. ) ;
#236 = SURFACE_STYLE_FILL_AREA ( #317 ) ;
#237 = CARTESIAN_POINT ( 'NONE',  ( 0.4999999999999996114, 7.000000000000000000, 6.123233995736761105E-17 ) ) ;
#238 = MECHANICAL_DESIGN_GEOMETRIC_PRESENTATION_REPRESENTATION (  '', ( #194 ), #6 ) ;
#239 = PRESENTATION_LAYER_ASSIGNMENT (  '', '', ( #346 ) ) ;
#240 = DIRECTION ( 'NONE',  ( -1.000000000000000000, 0.000000000000000000, 0.000000000000000000 ) ) ;
#241 = CARTESIAN_POINT ( 'NONE',  ( 2.143131898507869037E-16, 4.250000000000000000, 0.000000000000000000 ) ) ;
#242 = UNCERTAINTY_MEASURE_WITH_UNIT (LENGTH_MEASURE( 1.000000000000000082E-05 ), #18, 'distance_accuracy_value', 'NONE');
#243 =( CONVERSION_BASED_UNIT ( 'INCH', #245 ) LENGTH_UNIT ( ) NAMED_UNIT ( #233 ) );
#244 = APPLICATION_PROTOCOL_DEFINITION ( 'draft international standard', 'automotive_design', 1998, #53 ) ;
#245 = LENGTH_MEASURE_WITH_UNIT ( LENGTH_MEASURE( 0.02539999999999999897 ), #216 );
#246 = CYLINDRICAL_SURFACE ( 'NONE', #114, 0.4999999999999997224 ) ;
#247 = ORIENTED_EDGE ( 'NONE', *, *, #225, .T. ) ;
#248 = SURFACE_SIDE_STYLE ('',( #274 ) ) ;
#249 = CARTESIAN_POINT ( 'NONE',  ( 0.000000000000000000, 4.250000000000000000, 0.000000000000000000 ) ) ;
#250 = ORIENTED_EDGE ( 'NONE', *, *, #298, .T. ) ;
#251 = DIRECTION ( 'NONE',  ( -0.000000000000000000, -1.000000000000000000, -0.000000000000000000 ) ) ;
#252 = ORIENTED_EDGE ( 'NONE', *, *, #25, .F. ) ;
#253 = DIRECTION ( 'NONE',  ( 0.000000000000000000, 0.000000000000000000, -1.000000000000000000 ) ) ;
#254 = ORIENTED_EDGE ( 'NONE', *, *, #48, .F. ) ;
#255 = CARTESIAN_POINT ( 'NONE',  ( 0.000000000000000000, 0.000000000000000000, 0.000000000000000000 ) ) ;
#256 = ORIENTED_EDGE ( 'NONE', *, *, #225, .F. ) ;
#257 = DIMENSIONAL_EXPONENTS ( 1.000000000000000000, 0.000000000000000000, 0.000000000000000000, 0.000000000000000000, 0.000000000000000000, 0.000000000000000000, 0.000000000000000000 ) ;
#258 = FILL_AREA_STYLE ('',( #173 ) ) ;
#259 = DIRECTION ( 'NONE',  ( -1.224646799147353207E-16, 1.000000000000000000, -0.000000000000000000 ) ) ;
#260 = AXIS2_PLACEMENT_3D ( 'NONE', #249, #265, #83 ) ;
#261 = APPLICATION_CONTEXT ( 'automotive_design' ) ;
#262 = UNCERTAINTY_MEASURE_WITH_UNIT (LENGTH_MEASURE( 1.000000000000000082E-05 ), #174, 'distance_accuracy_value', 'NONE');
#263 = SURFACE_STYLE_FILL_AREA ( #286 ) ;
#264 = DIRECTION ( 'NONE',  ( 1.000000000000000000, 0.000000000000000000, 0.000000000000000000 ) ) ;
#265 = DIRECTION ( 'NONE',  ( 0.000000000000000000, 1.000000000000000000, 0.000000000000000000 ) ) ;
#266 =( NAMED_UNIT ( * ) PLANE_ANGLE_UNIT ( ) SI_UNIT ( $, .RADIAN. ) );
#267 =( NAMED_UNIT ( * ) PLANE_ANGLE_UNIT ( ) SI_UNIT ( $, .RADIAN. ) );
#268 = FACE_OUTER_BOUND ( 'NONE', #97, .T. ) ;
#269 = DIRECTION ( 'NONE',  ( -1.224646799147353207E-16, 1.000000000000000000, 0.000000000000000000 ) ) ;
#270 = ORIENTED_EDGE ( 'NONE', *, *, #235, .F. ) ;
#271 = LENGTH_MEASURE_WITH_UNIT ( LENGTH_MEASURE( 0.02539999999999999897 ), #306 );
#272 = CARTESIAN_POINT ( 'NONE',  ( 0.4999999999999993339, 7.000000000000000000, 6.123233995736758640E-17 ) ) ;
#273 = CARTESIAN_POINT ( 'NONE',  ( 0.000000000000000000, 0.5000000000000000000, 0.000000000000000000 ) ) ;
#274 = SURFACE_STYLE_FILL_AREA ( #330 ) ;
#275 = SURFACE_STYLE_USAGE ( .BOTH. , #91 ) ;
#276 = DIRECTION ( 'NONE',  ( -1.224646799147353207E-16, 1.000000000000000000, -0.000000000000000000 ) ) ;
#277 = CARTESIAN_POINT ( 'NONE',  ( 0.000000000000000000, 0.5000000000000000000, 0.000000000000000000 ) ) ;
#278 = EDGE_CURVE ( 'NONE', #361, #280, #334, .T. ) ;
#279 = MECHANICAL_DESIGN_GEOMETRIC_PRESENTATION_REPRESENTATION (  '', ( #346 ), #191 ) ;
#280 = VERTEX_POINT ( 'NONE', #338 ) ;
#281 = CARTESIAN_POINT ( 'NONE',  ( 2.143131898507869037E-16, 4.250000000000000000, 0.000000000000000000 ) ) ;
#282 = DIRECTION ( 'NONE',  ( 0.000000000000000000, 0.000000000000000000, -1.000000000000000000 ) ) ;
#283 = DIMENSIONAL_EXPONENTS ( 1.000000000000000000, 0.000000000000000000, 0.000000000000000000, 0.000000000000000000, 0.000000000000000000, 0.000000000000000000, 0.000000000000000000 ) ;
#284 = EDGE_CURVE ( 'NONE', #117, #361, #158, .T. ) ;
#285 =( GEOMETRIC_REPRESENTATION_CONTEXT ( 3 ) GLOBAL_UNCERTAINTY_ASSIGNED_CONTEXT ( ( #262 ) ) GLOBAL_UNIT_ASSIGNED_CONTEXT ( ( #174, #30, #373 ) ) REPRESENTATION_CONTEXT ( 'NONE', 'WORKASPACE' ) );
#286 = FILL_AREA_STYLE ('',( #120 ) ) ;
#287 = AXIS2_PLACEMENT_3D ( 'NONE', #143, #115, #147 ) ;
#288 = DIRECTION ( 'NONE',  ( 1.000000000000000000, 0.000000000000000000, 0.000000000000000000 ) ) ;
#289 = EDGE_CURVE ( 'NONE', #223, #113, #178, .T. ) ;
#290 = DIRECTION ( 'NONE',  ( -0.000000000000000000, -1.000000000000000000, -0.000000000000000000 ) ) ;
#291 = FACE_OUTER_BOUND ( 'NONE', #226, .T. ) ;
#292 = MANIFOLD_SOLID_BREP ( 'Revolve - Cutting Edge', #43 ) ;
#293 = APPLICATION_PROTOCOL_DEFINITION ( 'draft international standard', 'automotive_design', 1998, #261 ) ;
#294 = CARTESIAN_POINT ( 'NONE',  ( -0.4999999999999997780, 7.000000000000000000, 0.000000000000000000 ) ) ;
#295 = AXIS2_PLACEMENT_3D ( 'NONE', #22, #290, #34 ) ;
#296 = AXIS2_PLACEMENT_3D ( 'NONE', #332, #366, #85 ) ;
#297 =( NAMED_UNIT ( * ) SI_UNIT ( $, .STERADIAN. ) SOLID_ANGLE_UNIT ( ) );
#298 = EDGE_CURVE ( 'NONE', #367, #227, #66, .T. ) ;
#299 = SURFACE_STYLE_USAGE ( .BOTH. , #187 ) ;
#300 = PLANE ( 'NONE',  #134 ) ;
#301 = EDGE_LOOP ( 'NONE', ( #78, #27, #168, #254 ) ) ;
#302 = CARTESIAN_POINT ( 'NONE',  ( -3.061616997868383018E-17, 0.000000000000000000, 0.000000000000000000 ) ) ;
#303 = MECHANICAL_DESIGN_GEOMETRIC_PRESENTATION_REPRESENTATION (  '', ( #163 ), #196 ) ;
#304 = AXIS2_PLACEMENT_3D ( 'NONE', #49, #136, #240 ) ;
#305 = AXIS2_PLACEMENT_3D ( 'NONE', #277, #24, #336 ) ;
#306 =( LENGTH_UNIT ( ) NAMED_UNIT ( * ) SI_UNIT ( $, .METRE. ) );
#307 = PLANE ( 'NONE',  #316 ) ;
#308 = DIRECTION ( 'NONE',  ( 0.000000000000000000, 0.000000000000000000, -1.000000000000000000 ) ) ;
#309 = EDGE_LOOP ( 'NONE', ( #165, #335 ) ) ;
#310 = PRODUCT_DEFINITION_FORMATION_WITH_SPECIFIED_SOURCE ( 'ANY', '', #132, .NOT_KNOWN. ) ;
#311 = ORIENTED_EDGE ( 'NONE', *, *, #278, .F. ) ;
#312 = CIRCLE ( 'NONE', #144, 0.4999999999999996669 ) ;
#313 = DIRECTION ( 'NONE',  ( -1.224646799147353207E-16, 1.000000000000000000, -0.000000000000000000 ) ) ;
#314 = LENGTH_MEASURE_WITH_UNIT ( LENGTH_MEASURE( 0.02539999999999999897 ), #343 );
#315 = CIRCLE ( 'NONE', #305, 0.5000000000000000000 ) ;
#316 = AXIS2_PLACEMENT_3D ( 'NONE', #146, #23, #142 ) ;
#317 = FILL_AREA_STYLE ('',( #128 ) ) ;
#318 =( LENGTH_UNIT ( ) NAMED_UNIT ( * ) SI_UNIT ( $, .METRE. ) );
#319 = UNCERTAINTY_MEASURE_WITH_UNIT (LENGTH_MEASURE( 1.000000000000000082E-05 ), #322, 'distance_accuracy_value', 'NONE');
#320 = VECTOR ( 'NONE', #185, 39.37007874015748143 ) ;
#321 = SURFACE_SIDE_STYLE ('',( #263 ) ) ;
#322 =( CONVERSION_BASED_UNIT ( 'INCH', #44 ) LENGTH_UNIT ( ) NAMED_UNIT ( #180 ) );
#323 = CYLINDRICAL_SURFACE ( 'NONE', #304, 0.4999999999999994449 ) ;
#324 = LENGTH_MEASURE_WITH_UNIT ( LENGTH_MEASURE( 0.02539999999999999897 ), #355 );
#325 = AXIS2_PLACEMENT_3D ( 'NONE', #72, #352, #138 ) ;
#326 = MECHANICAL_DESIGN_GEOMETRIC_PRESENTATION_REPRESENTATION (  '', ( #153 ), #372 ) ;
#327 = SPHERICAL_SURFACE ( 'NONE', #84, 0.5000000000000000000 ) ;
#328 = FACE_OUTER_BOUND ( 'NONE', #87, .T. ) ;
#329 = ORIENTED_EDGE ( 'NONE', *, *, #284, .T. ) ;
#330 = FILL_AREA_STYLE ('',( #109 ) ) ;
#331 = SURFACE_STYLE_FILL_AREA ( #101 ) ;
#332 = CARTESIAN_POINT ( 'NONE',  ( 0.000000000000000000, 4.250000000000000000, 0.000000000000000000 ) ) ;
#333 = EDGE_CURVE ( 'NONE', #58, #199, #182, .T. ) ;
#334 = CIRCLE ( 'NONE', #26, 0.5000000000000000000 ) ;
#335 = ORIENTED_EDGE ( 'NONE', *, *, #298, .F. ) ;
#336 = DIRECTION ( 'NONE',  ( 0.000000000000000000, 0.000000000000000000, -1.000000000000000000 ) ) ;
#337 = ORIENTED_EDGE ( 'NONE', *, *, #289, .T. ) ;
#338 = CARTESIAN_POINT ( 'NONE',  ( 0.5000000000000000000, 0.5000000000000000000, 0.000000000000000000 ) ) ;
#339 = EDGE_LOOP ( 'NONE', ( #90, #250, #230, #189, #256 ) ) ;
#340 = ORIENTED_EDGE ( 'NONE', *, *, #56, .F. ) ;
#341 = CIRCLE ( 'NONE', #348, 0.5000000000000000000 ) ;
#342 = DIMENSIONAL_EXPONENTS ( 1.000000000000000000, 0.000000000000000000, 0.000000000000000000, 0.000000000000000000, 0.000000000000000000, 0.000000000000000000, 0.000000000000000000 ) ;
#343 =( LENGTH_UNIT ( ) NAMED_UNIT ( * ) SI_UNIT ( $, .METRE. ) );
#344 = SPHERICAL_SURFACE ( 'NONE', #32, 0.5000000000000000000 ) ;
#345 = ADVANCED_FACE ( 'NONE', ( #20 ), #307, .F. ) ;
#346 = STYLED_ITEM ( 'NONE', ( #13 ), #181 ) ;
#347 = AXIS2_PLACEMENT_3D ( 'NONE', #11, #213, #162 ) ;
#348 = AXIS2_PLACEMENT_3D ( 'NONE', #273, #197, #308 ) ;
#349 = DIRECTION ( 'NONE',  ( -1.224646799147353207E-16, 1.000000000000000000, -0.000000000000000000 ) ) ;
#350 =( NAMED_UNIT ( * ) PLANE_ANGLE_UNIT ( ) SI_UNIT ( $, .RADIAN. ) );
#351 = PRESENTATION_LAYER_ASSIGNMENT (  '', '', ( #208 ) ) ;
#352 = DIRECTION ( 'NONE',  ( -0.000000000000000000, -1.000000000000000000, -0.000000000000000000 ) ) ;
#353 = COLOUR_RGB ( '',1.000000000000000000, 0.000000000000000000, 0.000000000000000000 ) ;
#354 = CARTESIAN_POINT ( 'NONE',  ( 6.123233995736766036E-17, 0.5000000000000000000, 0.4999999999999999445 ) ) ;
#355 =( LENGTH_UNIT ( ) NAMED_UNIT ( * ) SI_UNIT ( $, .METRE. ) );
#356 = LINE ( 'NONE', #272, #51 ) ;
#357 = DIRECTION ( 'NONE',  ( 0.000000000000000000, 0.000000000000000000, 1.000000000000000000 ) ) ;
#358 =( LENGTH_UNIT ( ) NAMED_UNIT ( * ) SI_UNIT ( $, .METRE. ) );
#359 =( NAMED_UNIT ( * ) SI_UNIT ( $, .STERADIAN. ) SOLID_ANGLE_UNIT ( ) );
#360 = SURFACE_STYLE_USAGE ( .BOTH. , #161 ) ;
#361 = VERTEX_POINT ( 'NONE', #88 ) ;
#362 = DIRECTION ( 'NONE',  ( -1.000000000000000000, 0.000000000000000000, 0.000000000000000000 ) ) ;
#363 = CARTESIAN_POINT ( 'NONE',  ( 2.143131898507869037E-16, 4.250000000000000000, 0.000000000000000000 ) ) ;
#364 = COLOUR_RGB ( '',0.7921568627450980005, 0.8196078431372548767, 0.9333333333333333481 ) ;
#365 = ORIENTED_EDGE ( 'NONE', *, *, #235, .T. ) ;
#366 = DIRECTION ( 'NONE',  ( -0.000000000000000000, -1.000000000000000000, -0.000000000000000000 ) ) ;
#367 = VERTEX_POINT ( 'NONE', #368 ) ;
#368 = CARTESIAN_POINT ( 'NONE',  ( 6.123233995736762338E-17, 4.250000000000000000, 0.4999999999999995004 ) ) ;
#369 = ORIENTED_EDGE ( 'NONE', *, *, #333, .T. ) ;
#370 = CARTESIAN_POINT ( 'NONE',  ( 0.4999999999999996114, 4.250000000000000000, 6.123233995736761105E-17 ) ) ;
#371 = AXIS2_PLACEMENT_3D ( 'NONE', #202, #229, #201 ) ;
#372 =( GEOMETRIC_REPRESENTATION_CONTEXT ( 3 ) GLOBAL_UNCERTAINTY_ASSIGNED_CONTEXT ( ( #319 ) ) GLOBAL_UNIT_ASSIGNED_CONTEXT ( ( #322, #267, #359 ) ) REPRESENTATION_CONTEXT ( 'NONE', 'WORKASPACE' ) );
#373 =( NAMED_UNIT ( * ) SI_UNIT ( $, .STERADIAN. ) SOLID_ANGLE_UNIT ( ) );
ENDSEC;
END-ISO-10303-21;
