ISO-10303-21;
HEADER;
FILE_DESCRIPTION (( 'STEP AP214' ),
    '1' );
FILE_NAME ('Micro_SFPM-020-20.STEP',
    '2021-09-02T06:36:43',
    ( '' ),
    ( '' ),
    'SwSTEP 2.0',
    'SolidWorks 2020',
    '' );
FILE_SCHEMA (( 'AUTOMOTIVE_DESIGN' ));
ENDSEC;

DATA;
#1 = CARTESIAN_POINT ( 'NONE',  ( -0.05905500000000001720, 0.0000000000000000000, 1.496062999999999921 ) ) ;
#2 = DIRECTION ( 'NONE',  ( -1.224646799147353207E-16, -0.0000000000000000000, -1.000000000000000000 ) ) ;
#3 = AXIS2_PLACEMENT_3D ( 'NONE', #100, #239, #191 ) ;
#4 = AXIS2_PLACEMENT_3D ( 'NONE', #87, #18, #177 ) ;
#5 = DIRECTION ( 'NONE',  ( -1.224646799147353207E-16, -0.0000000000000000000, -1.000000000000000000 ) ) ;
#6 = ORIENTED_EDGE ( 'NONE', *, *, #93, .T. ) ;
#7 = CARTESIAN_POINT ( 'NONE',  ( 0.0000000000000000000, 0.0000000000000000000, 1.496062999999999921 ) ) ;
#8 = ORIENTED_EDGE ( 'NONE', *, *, #224, .T. ) ;
#9 = LINE ( 'NONE', #211, #72 ) ;
#10 = PRODUCT_DEFINITION_CONTEXT ( 'detailed design', #54, 'design' ) ;
#11 = DIRECTION ( 'NONE',  ( 0.0000000000000000000, 0.0000000000000000000, -1.000000000000000000 ) ) ;
#12 = STYLED_ITEM ( 'NONE', ( #92 ), #126 ) ;
#13 = CARTESIAN_POINT ( 'NONE',  ( 0.0000000000000000000, 0.0000000000000000000, 1.496062999999999921 ) ) ;
#14 = AXIS2_PLACEMENT_3D ( 'NONE', #212, #278, #121 ) ;
#15 = DIRECTION ( 'NONE',  ( -1.224646799147353207E-16, -0.0000000000000000000, -1.000000000000000000 ) ) ;
#16 = CARTESIAN_POINT ( 'NONE',  ( 0.0000000000000000000, 0.0000000000000000000, 1.496062999999999921 ) ) ;
#17 = ORIENTED_EDGE ( 'NONE', *, *, #78, .T. ) ;
#18 = DIRECTION ( 'NONE',  ( -0.0000000000000000000, -0.0000000000000000000, -1.000000000000000000 ) ) ;
#19 = VERTEX_POINT ( 'NONE', #259 ) ;
#20 = ADVANCED_FACE ( 'NONE', ( #230 ), #149, .T. ) ;
#21 = ORIENTED_EDGE ( 'NONE', *, *, #120, .F. ) ;
#22 = CIRCLE ( 'NONE', #287, 0.03933062999999999837 ) ;
#23 = DIRECTION ( 'NONE',  ( 1.000000000000000000, 0.0000000000000000000, 0.0000000000000000000 ) ) ;
#24 = ORIENTED_EDGE ( 'NONE', *, *, #46, .F. ) ;
#25 = ORIENTED_EDGE ( 'NONE', *, *, #284, .F. ) ;
#26 = PRODUCT_DEFINITION_SHAPE ( 'NONE', 'NONE',  #232 ) ;
#27 = CARTESIAN_POINT ( 'NONE',  ( -0.03933062999999994980, 4.816613013794886973E-18, 0.3937009999999999676 ) ) ;
#28 = DIRECTION ( 'NONE',  ( 1.224646799147353207E-16, 0.0000000000000000000, 1.000000000000000000 ) ) ;
#29 = DIRECTION ( 'NONE',  ( 0.0000000000000000000, 0.0000000000000000000, -1.000000000000000000 ) ) ;
#30 = CIRCLE ( 'NONE', #242, 0.05905500000000001720 ) ;
#31 = CARTESIAN_POINT ( 'NONE',  ( 6.191366742604183439E-17, 0.0000000000000000000, 0.5055634609844124050 ) ) ;
#32 = CARTESIAN_POINT ( 'NONE',  ( -0.05905499999999995475, 0.0000000000000000000, 0.5055634609844124050 ) ) ;
#33 =( NAMED_UNIT ( * ) SI_UNIT ( $, .STERADIAN. ) SOLID_ANGLE_UNIT ( ) );
#34 = CARTESIAN_POINT ( 'NONE',  ( 0.0000000000000000000, 0.0000000000000000000, 0.0000000000000000000 ) ) ;
#35 = DIRECTION ( 'NONE',  ( 1.000000000000000000, 0.0000000000000000000, -0.0000000000000000000 ) ) ;
#36 = DIRECTION ( 'NONE',  ( -1.000000000000000000, 0.0000000000000000000, 0.0000000000000000000 ) ) ;
#37 = PLANE ( 'NONE',  #169 ) ;
#38 = STYLED_ITEM ( 'NONE', ( #164 ), #189 ) ;
#39 = DIRECTION ( 'NONE',  ( 1.000000000000000000, 0.0000000000000000000, 0.0000000000000000000 ) ) ;
#40 = ORIENTED_EDGE ( 'NONE', *, *, #129, .F. ) ;
#41 = APPLICATION_PROTOCOL_DEFINITION ( 'draft international standard', 'automotive_design', 1998, #54 ) ;
#42 = PRODUCT_RELATED_PRODUCT_CATEGORY ( 'part', '', ( #217 ) ) ;
#43 = ORIENTED_EDGE ( 'NONE', *, *, #165, .F. ) ;
#44 = CIRCLE ( 'NONE', #174, 0.03933063000000000531 ) ;
#45 = VERTEX_POINT ( 'NONE', #125 ) ;
#46 = EDGE_CURVE ( 'NONE', #274, #134, #79, .T. ) ;
#47 = SHAPE_DEFINITION_REPRESENTATION ( #26, #126 ) ;
#48 = ADVANCED_FACE ( 'NONE', ( #276 ), #76, .T. ) ;
#49 = SURFACE_SIDE_STYLE ('',( #66 ) ) ;
#50 = VECTOR ( 'NONE', #148, 39.37007874015748143 ) ;
#51 = PRODUCT_DEFINITION_FORMATION_WITH_SPECIFIED_SOURCE ( 'ANY', '', #217, .NOT_KNOWN. ) ;
#52 = CARTESIAN_POINT ( 'NONE',  ( 0.04405499999999974020, 5.395181473643631161E-18, 1.496062999999999921 ) ) ;
#53 = CARTESIAN_POINT ( 'NONE',  ( 4.821446694711121291E-17, 0.0000000000000000000, 0.3937009999999999676 ) ) ;
#54 = APPLICATION_CONTEXT ( 'automotive_design' ) ;
#55 = DIRECTION ( 'NONE',  ( -1.224646799147353207E-16, -0.0000000000000000000, -1.000000000000000000 ) ) ;
#56 = VECTOR ( 'NONE', #71, 39.37007874015748143 ) ;
#57 = DIRECTION ( 'NONE',  ( 0.1736481776669314137, 0.0000000000000000000, 0.9848077530122077983 ) ) ;
#58 = DIMENSIONAL_EXPONENTS ( 1.000000000000000000, 0.0000000000000000000, 0.0000000000000000000, 0.0000000000000000000, 0.0000000000000000000, 0.0000000000000000000, 0.0000000000000000000 ) ;
#59 = CARTESIAN_POINT ( 'NONE',  ( 0.0000000000000000000, 0.0000000000000000000, 0.0000000000000000000 ) ) ;
#60 = CARTESIAN_POINT ( 'NONE',  ( 0.0000000000000000000, 0.0000000000000000000, 1.496062999999999921 ) ) ;
#61 = VECTOR ( 'NONE', #99, 39.37007874015748143 ) ;
#62 = ORIENTED_EDGE ( 'NONE', *, *, #145, .F. ) ;
#63 =( GEOMETRIC_REPRESENTATION_CONTEXT ( 3 ) GLOBAL_UNCERTAINTY_ASSIGNED_CONTEXT ( ( #208 ) ) GLOBAL_UNIT_ASSIGNED_CONTEXT ( ( #119, #282, #33 ) ) REPRESENTATION_CONTEXT ( 'NONE', 'WORKASPACE' ) );
#64 = EDGE_CURVE ( 'NONE', #134, #226, #200, .T. ) ;
#65 = ORIENTED_EDGE ( 'NONE', *, *, #284, .T. ) ;
#66 = SURFACE_STYLE_FILL_AREA ( #294 ) ;
#67 = ORIENTED_EDGE ( 'NONE', *, *, #64, .T. ) ;
#68 = DIRECTION ( 'NONE',  ( 1.000000000000000000, 0.0000000000000000000, 0.0000000000000000000 ) ) ;
#69 = CONICAL_SURFACE ( 'NONE', #235, 0.03933063000000000531, 0.1745329251994339192 ) ;
#70 = APPLICATION_CONTEXT ( 'automotive_design' ) ;
#71 = DIRECTION ( 'NONE',  ( -0.0000000000000000000, -0.0000000000000000000, -1.000000000000000000 ) ) ;
#72 = VECTOR ( 'NONE', #57, 39.37007874015748143 ) ;
#73 = SURFACE_STYLE_FILL_AREA ( #81 ) ;
#74 = CARTESIAN_POINT ( 'NONE',  ( 0.03933063000000000531, 4.816613013794886973E-18, -4.816613013794886973E-18 ) ) ;
#75 = SURFACE_STYLE_USAGE ( .BOTH. , #262 ) ;
#76 = CYLINDRICAL_SURFACE ( 'NONE', #14, 0.03933063000000000531 ) ;
#77 = CARTESIAN_POINT ( 'NONE',  ( -0.04405499999999974020, 0.0000000000000000000, 1.496062999999999921 ) ) ;
#78 = EDGE_CURVE ( 'NONE', #19, #186, #253, .T. ) ;
#79 = LINE ( 'NONE', #27, #128 ) ;
#80 = AXIS2_PLACEMENT_3D ( 'NONE', #59, #173, #268 ) ;
#81 = FILL_AREA_STYLE ('',( #286 ) ) ;
#82 = EDGE_CURVE ( 'NONE', #135, #226, #9, .T. ) ;
#83 = CARTESIAN_POINT ( 'NONE',  ( 5.898649710075393742E-34, 0.0000000000000000000, 4.816613013794885432E-18 ) ) ;
#84 = FACE_OUTER_BOUND ( 'NONE', #296, .T. ) ;
#85 = AXIS2_PLACEMENT_3D ( 'NONE', #272, #248, #68 ) ;
#86 = EDGE_CURVE ( 'NONE', #274, #135, #44, .T. ) ;
#87 = CARTESIAN_POINT ( 'NONE',  ( 0.0000000000000000000, 0.0000000000000000000, 1.496062999999999921 ) ) ;
#88 = VECTOR ( 'NONE', #231, 39.37007874015748143 ) ;
#89 = ORIENTED_EDGE ( 'NONE', *, *, #120, .T. ) ;
#90 = AXIS2_PLACEMENT_3D ( 'NONE', #83, #216, #108 ) ;
#91 = PRODUCT_CONTEXT ( 'NONE', #70, 'mechanical' ) ;
#92 = PRESENTATION_STYLE_ASSIGNMENT (( #225 ) ) ;
#93 = EDGE_CURVE ( 'NONE', #45, #297, #22, .T. ) ;
#94 = ORIENTED_EDGE ( 'NONE', *, *, #86, .T. ) ;
#95 = CARTESIAN_POINT ( 'NONE',  ( 0.04405499999999974020, 6.313666573004163292E-18, 1.496062999999999921 ) ) ;
#96 = LINE ( 'NONE', #52, #158 ) ;
#97 = CARTESIAN_POINT ( 'NONE',  ( 4.821446694711121291E-17, 0.0000000000000000000, 0.3937009999999999676 ) ) ;
#98 = LINE ( 'NONE', #74, #245 ) ;
#99 = DIRECTION ( 'NONE',  ( -1.224646799147353207E-16, -0.0000000000000000000, -1.000000000000000000 ) ) ;
#100 = CARTESIAN_POINT ( 'NONE',  ( 0.0000000000000000000, 0.0000000000000000000, 1.496062999999999921 ) ) ;
#101 = FACE_OUTER_BOUND ( 'NONE', #182, .T. ) ;
#102 = DIRECTION ( 'NONE',  ( -1.000000000000000000, 0.0000000000000000000, 0.0000000000000000000 ) ) ;
#103 = AXIS2_PLACEMENT_3D ( 'NONE', #16, #11, #258 ) ;
#104 = FACE_OUTER_BOUND ( 'NONE', #187, .T. ) ;
#105 =( GEOMETRIC_REPRESENTATION_CONTEXT ( 3 ) GLOBAL_UNCERTAINTY_ASSIGNED_CONTEXT ( ( #229 ) ) GLOBAL_UNIT_ASSIGNED_CONTEXT ( ( #270, #298, #112 ) ) REPRESENTATION_CONTEXT ( 'NONE', 'WORKASPACE' ) );
#106 = DIRECTION ( 'NONE',  ( -1.000000000000000000, 0.0000000000000000000, 1.224646799147353207E-16 ) ) ;
#107 = ORIENTED_EDGE ( 'NONE', *, *, #220, .T. ) ;
#108 = DIRECTION ( 'NONE',  ( -1.000000000000000000, 0.0000000000000000000, 1.224646799147352961E-16 ) ) ;
#109 = ORIENTED_EDGE ( 'NONE', *, *, #141, .F. ) ;
#110 = ORIENTED_EDGE ( 'NONE', *, *, #238, .T. ) ;
#111 = MECHANICAL_DESIGN_GEOMETRIC_PRESENTATION_REPRESENTATION (  '', ( #12 ), #105 ) ;
#112 =( NAMED_UNIT ( * ) SI_UNIT ( $, .STERADIAN. ) SOLID_ANGLE_UNIT ( ) );
#113 = ORIENTED_EDGE ( 'NONE', *, *, #86, .F. ) ;
#114 = ORIENTED_EDGE ( 'NONE', *, *, #64, .F. ) ;
#115 = LENGTH_MEASURE_WITH_UNIT ( LENGTH_MEASURE( 0.02539999999999999897 ), #116 );
#116 =( LENGTH_UNIT ( ) NAMED_UNIT ( * ) SI_UNIT ( $, .METRE. ) );
#117 = AXIS2_PLACEMENT_3D ( 'NONE', #34, #15, #106 ) ;
#118 = ORIENTED_EDGE ( 'NONE', *, *, #145, .T. ) ;
#119 =( CONVERSION_BASED_UNIT ( 'INCH', #170 ) LENGTH_UNIT ( ) NAMED_UNIT ( #175 ) );
#120 = EDGE_CURVE ( 'NONE', #135, #274, #210, .T. ) ;
#121 = DIRECTION ( 'NONE',  ( -1.000000000000000000, 0.0000000000000000000, 1.224646799147353207E-16 ) ) ;
#122 = DIRECTION ( 'NONE',  ( 1.000000000000000000, 0.0000000000000000000, 0.0000000000000000000 ) ) ;
#123 = AXIS2_PLACEMENT_3D ( 'NONE', #31, #190, #163 ) ;
#124 = LINE ( 'NONE', #1, #56 ) ;
#125 = CARTESIAN_POINT ( 'NONE',  ( -0.03933062999999999837, 0.0000000000000000000, 9.633226027589770864E-18 ) ) ;
#126 = ADVANCED_BREP_SHAPE_REPRESENTATION ( 'Micro_SFPM-020-20', ( #189, #85 ), #254 ) ;
#127 = FACE_OUTER_BOUND ( 'NONE', #271, .T. ) ;
#128 = VECTOR ( 'NONE', #257, 39.37007874015747433 ) ;
#129 = EDGE_CURVE ( 'NONE', #277, #226, #188, .T. ) ;
#130 = DIRECTION ( 'NONE',  ( 0.0000000000000000000, 0.0000000000000000000, -1.000000000000000000 ) ) ;
#131 = CYLINDRICAL_SURFACE ( 'NONE', #117, 0.03933063000000000531 ) ;
#132 = MECHANICAL_DESIGN_GEOMETRIC_PRESENTATION_REPRESENTATION (  '', ( #38 ), #63 ) ;
#133 = PRESENTATION_LAYER_ASSIGNMENT (  '', '', ( #12 ) ) ;
#134 = VERTEX_POINT ( 'NONE', #32 ) ;
#135 = VERTEX_POINT ( 'NONE', #236 ) ;
#136 = CONICAL_SURFACE ( 'NONE', #269, 0.03933063000000000531, 0.1745329251994339192 ) ;
#137 = FILL_AREA_STYLE_COLOUR ( '', #288 ) ;
#138 = ORIENTED_EDGE ( 'NONE', *, *, #46, .T. ) ;
#139 = ORIENTED_EDGE ( 'NONE', *, *, #141, .T. ) ;
#140 = APPLICATION_PROTOCOL_DEFINITION ( 'draft international standard', 'automotive_design', 1998, #70 ) ;
#141 = EDGE_CURVE ( 'NONE', #159, #134, #124, .T. ) ;
#142 = CIRCLE ( 'NONE', #180, 0.04405499999999974020 ) ;
#143 = FACE_OUTER_BOUND ( 'NONE', #201, .T. ) ;
#144 = CARTESIAN_POINT ( 'NONE',  ( 0.05905500000000007965, 7.232151672364703126E-18, 0.5055634609844124050 ) ) ;
#145 = EDGE_CURVE ( 'NONE', #226, #134, #249, .T. ) ;
#146 = DIRECTION ( 'NONE',  ( 0.7071067811865482389, 8.659560562354941486E-17, -0.7071067811865469066 ) ) ;
#147 = CARTESIAN_POINT ( 'NONE',  ( -0.03933063000000000531, 0.0000000000000000000, 4.816613013794886973E-18 ) ) ;
#148 = DIRECTION ( 'NONE',  ( -0.0000000000000000000, -0.0000000000000000000, -1.000000000000000000 ) ) ;
#149 = CONICAL_SURFACE ( 'NONE', #260, 0.04405499999999974020, 0.7853981633974491672 ) ;
#150 = ORIENTED_EDGE ( 'NONE', *, *, #82, .T. ) ;
#151 = CARTESIAN_POINT ( 'NONE',  ( 0.05905500000000001720, 7.232151672364695422E-18, 1.481062999999999574 ) ) ;
#152 = DIRECTION ( 'NONE',  ( 1.000000000000000000, 0.0000000000000000000, 0.0000000000000000000 ) ) ;
#153 = AXIS2_PLACEMENT_3D ( 'NONE', #13, #240, #36 ) ;
#154 = CARTESIAN_POINT ( 'NONE',  ( 0.0000000000000000000, 0.0000000000000000000, 1.481062999999999574 ) ) ;
#155 = CARTESIAN_POINT ( 'NONE',  ( 4.821446694711121291E-17, 0.0000000000000000000, 0.3937009999999999676 ) ) ;
#156 = ORIENTED_EDGE ( 'NONE', *, *, #267, .T. ) ;
#157 = ORIENTED_EDGE ( 'NONE', *, *, #176, .T. ) ;
#158 = VECTOR ( 'NONE', #146, 39.37007874015748143 ) ;
#159 = VERTEX_POINT ( 'NONE', #255 ) ;
#160 = ORIENTED_EDGE ( 'NONE', *, *, #82, .F. ) ;
#161 = UNCERTAINTY_MEASURE_WITH_UNIT (LENGTH_MEASURE( 1.000000000000000082E-05 ), #285, 'distance_accuracy_value', 'NONE');
#162 = AXIS2_PLACEMENT_3D ( 'NONE', #168, #2, #122 ) ;
#163 = DIRECTION ( 'NONE',  ( 1.000000000000000000, 0.0000000000000000000, 0.0000000000000000000 ) ) ;
#164 = PRESENTATION_STYLE_ASSIGNMENT (( #75 ) ) ;
#165 = EDGE_CURVE ( 'NONE', #135, #297, #98, .T. ) ;
#166 = DIRECTION ( 'NONE',  ( -1.000000000000000000, 0.0000000000000000000, 1.224646799147352961E-16 ) ) ;
#167 = DIRECTION ( 'NONE',  ( 0.0000000000000000000, 0.0000000000000000000, -1.000000000000000000 ) ) ;
#168 = CARTESIAN_POINT ( 'NONE',  ( 6.191366742604183439E-17, 0.0000000000000000000, 0.5055634609844124050 ) ) ;
#169 = AXIS2_PLACEMENT_3D ( 'NONE', #60, #243, #35 ) ;
#170 = LENGTH_MEASURE_WITH_UNIT ( LENGTH_MEASURE( 0.02539999999999999897 ), #194 );
#171 = ORIENTED_EDGE ( 'NONE', *, *, #129, .T. ) ;
#172 = DIRECTION ( 'NONE',  ( 1.000000000000000000, 0.0000000000000000000, 0.0000000000000000000 ) ) ;
#173 = DIRECTION ( 'NONE',  ( 0.0000000000000000000, 0.0000000000000000000, 1.000000000000000000 ) ) ;
#174 = AXIS2_PLACEMENT_3D ( 'NONE', #97, #213, #102 ) ;
#175 = DIMENSIONAL_EXPONENTS ( 1.000000000000000000, 0.0000000000000000000, 0.0000000000000000000, 0.0000000000000000000, 0.0000000000000000000, 0.0000000000000000000, 0.0000000000000000000 ) ;
#176 = EDGE_CURVE ( 'NONE', #186, #277, #96, .T. ) ;
#177 = DIRECTION ( 'NONE',  ( -1.000000000000000000, 0.0000000000000000000, 0.0000000000000000000 ) ) ;
#178 = ORIENTED_EDGE ( 'NONE', *, *, #224, .F. ) ;
#179 = PLANE ( 'NONE',  #80 ) ;
#180 = AXIS2_PLACEMENT_3D ( 'NONE', #192, #256, #172 ) ;
#181 = CIRCLE ( 'NONE', #295, 0.05905500000000001720 ) ;
#182 = EDGE_LOOP ( 'NONE', ( #178, #157, #25, #247 ) ) ;
#183 = EDGE_LOOP ( 'NONE', ( #40, #273, #139, #62 ) ) ;
#184 = ADVANCED_FACE ( 'NONE', ( #143 ), #69, .T. ) ;
#185 = AXIS2_PLACEMENT_3D ( 'NONE', #53, #55, #281 ) ;
#186 = VERTEX_POINT ( 'NONE', #95 ) ;
#187 = EDGE_LOOP ( 'NONE', ( #6, #156 ) ) ;
#188 = LINE ( 'NONE', #261, #50 ) ;
#189 = MANIFOLD_SOLID_BREP ( 'Cut-Revolve1', #227 ) ;
#190 = DIRECTION ( 'NONE',  ( -1.224646799147353207E-16, -0.0000000000000000000, -1.000000000000000000 ) ) ;
#191 = DIRECTION ( 'NONE',  ( 1.000000000000000000, 0.0000000000000000000, 0.0000000000000000000 ) ) ;
#192 = CARTESIAN_POINT ( 'NONE',  ( 0.0000000000000000000, 0.0000000000000000000, 1.496062999999999921 ) ) ;
#193 = CARTESIAN_POINT ( 'NONE',  ( 5.898649710075393742E-34, 0.0000000000000000000, 4.816613013794885432E-18 ) ) ;
#194 =( LENGTH_UNIT ( ) NAMED_UNIT ( * ) SI_UNIT ( $, .METRE. ) );
#195 = PRESENTATION_LAYER_ASSIGNMENT (  '', '', ( #38 ) ) ;
#196 = LINE ( 'NONE', #147, #61 ) ;
#197 =( LENGTH_UNIT ( ) NAMED_UNIT ( * ) SI_UNIT ( $, .METRE. ) );
#198 = LENGTH_MEASURE_WITH_UNIT ( LENGTH_MEASURE( 0.02539999999999999897 ), #197 );
#199 = DIMENSIONAL_EXPONENTS ( 1.000000000000000000, 0.0000000000000000000, 0.0000000000000000000, 0.0000000000000000000, 0.0000000000000000000, 0.0000000000000000000, 0.0000000000000000000 ) ;
#200 = CIRCLE ( 'NONE', #162, 0.05905500000000001720 ) ;
#201 = EDGE_LOOP ( 'NONE', ( #113, #138, #67, #160 ) ) ;
#202 = CARTESIAN_POINT ( 'NONE',  ( -0.03933062999999994980, 6.024382343079791968E-18, 0.3937009999999999676 ) ) ;
#203 = EDGE_LOOP ( 'NONE', ( #24, #21, #150, #118 ) ) ;
#204 = ORIENTED_EDGE ( 'NONE', *, *, #78, .F. ) ;
#205 = EDGE_LOOP ( 'NONE', ( #251, #204, #110, #266 ) ) ;
#206 = ADVANCED_FACE ( 'NONE', ( #101 ), #228, .T. ) ;
#207 = DIRECTION ( 'NONE',  ( -1.000000000000000000, 0.0000000000000000000, 0.0000000000000000000 ) ) ;
#208 = UNCERTAINTY_MEASURE_WITH_UNIT (LENGTH_MEASURE( 1.000000000000000082E-05 ), #119, 'distance_accuracy_value', 'NONE');
#209 = LINE ( 'NONE', #77, #88 ) ;
#210 = CIRCLE ( 'NONE', #185, 0.03933063000000000531 ) ;
#211 = CARTESIAN_POINT ( 'NONE',  ( 0.03933063000000005388, 0.0000000000000000000, 0.3937009999999999676 ) ) ;
#212 = CARTESIAN_POINT ( 'NONE',  ( 0.0000000000000000000, 0.0000000000000000000, 0.0000000000000000000 ) ) ;
#213 = DIRECTION ( 'NONE',  ( -1.224646799147353207E-16, -0.0000000000000000000, -1.000000000000000000 ) ) ;
#214 = CYLINDRICAL_SURFACE ( 'NONE', #153, 0.05905500000000001720 ) ;
#215 = FACE_OUTER_BOUND ( 'NONE', #222, .T. ) ;
#216 = DIRECTION ( 'NONE',  ( -1.224646799147353207E-16, -0.0000000000000000000, -1.000000000000000000 ) ) ;
#217 = PRODUCT ( 'Micro_SFPM-020-20', 'Micro_SFPM-020-20', '', ( #91 ) ) ;
#218 = CYLINDRICAL_SURFACE ( 'NONE', #4, 0.05905500000000001720 ) ;
#219 = COLOUR_RGB ( '',0.7921568627450980005, 0.8196078431372548767, 0.9333333333333333481 ) ;
#220 = EDGE_CURVE ( 'NONE', #274, #45, #196, .T. ) ;
#221 = EDGE_LOOP ( 'NONE', ( #43, #89, #107, #246 ) ) ;
#222 = EDGE_LOOP ( 'NONE', ( #94, #292, #223, #250 ) ) ;
#223 = ORIENTED_EDGE ( 'NONE', *, *, #93, .F. ) ;
#224 = EDGE_CURVE ( 'NONE', #186, #19, #142, .T. ) ;
#225 = SURFACE_STYLE_USAGE ( .BOTH. , #49 ) ;
#226 = VERTEX_POINT ( 'NONE', #144 ) ;
#227 = CLOSED_SHELL ( 'NONE', ( #293, #184, #206, #279, #252, #265, #20, #244, #48, #275 ) ) ;
#228 = CONICAL_SURFACE ( 'NONE', #103, 0.04405499999999974020, 0.7853981633974491672 ) ;
#229 = UNCERTAINTY_MEASURE_WITH_UNIT (LENGTH_MEASURE( 1.000000000000000082E-05 ), #270, 'distance_accuracy_value', 'NONE');
#230 = FACE_OUTER_BOUND ( 'NONE', #205, .T. ) ;
#231 = DIRECTION ( 'NONE',  ( -0.7071067811865482389, 0.0000000000000000000, -0.7071067811865469066 ) ) ;
#232 = PRODUCT_DEFINITION ( 'UNKNOWN', '', #51, #10 ) ;
#233 = CARTESIAN_POINT ( 'NONE',  ( 4.821446694711121291E-17, 0.0000000000000000000, 0.3937009999999999676 ) ) ;
#234 = CARTESIAN_POINT ( 'NONE',  ( 0.0000000000000000000, 0.0000000000000000000, 1.481062999999999574 ) ) ;
#235 = AXIS2_PLACEMENT_3D ( 'NONE', #233, #28, #23 ) ;
#236 = CARTESIAN_POINT ( 'NONE',  ( 0.03933063000000005388, 0.0000000000000000000, 0.3937009999999999676 ) ) ;
#237 = CIRCLE ( 'NONE', #90, 0.03933062999999999837 ) ;
#238 = EDGE_CURVE ( 'NONE', #19, #159, #209, .T. ) ;
#239 = DIRECTION ( 'NONE',  ( 0.0000000000000000000, 0.0000000000000000000, 1.000000000000000000 ) ) ;
#240 = DIRECTION ( 'NONE',  ( -0.0000000000000000000, -0.0000000000000000000, -1.000000000000000000 ) ) ;
#241 = EDGE_CURVE ( 'NONE', #277, #159, #30, .T. ) ;
#242 = AXIS2_PLACEMENT_3D ( 'NONE', #234, #29, #39 ) ;
#243 = DIRECTION ( 'NONE',  ( 0.0000000000000000000, 0.0000000000000000000, 1.000000000000000000 ) ) ;
#244 = ADVANCED_FACE ( 'NONE', ( #290 ), #136, .T. ) ;
#245 = VECTOR ( 'NONE', #280, 39.37007874015748143 ) ;
#246 = ORIENTED_EDGE ( 'NONE', *, *, #267, .F. ) ;
#247 = ORIENTED_EDGE ( 'NONE', *, *, #238, .F. ) ;
#248 = DIRECTION ( 'NONE',  ( 0.0000000000000000000, 0.0000000000000000000, 1.000000000000000000 ) ) ;
#249 = CIRCLE ( 'NONE', #123, 0.05905500000000001720 ) ;
#250 = ORIENTED_EDGE ( 'NONE', *, *, #220, .F. ) ;
#251 = ORIENTED_EDGE ( 'NONE', *, *, #176, .F. ) ;
#252 = ADVANCED_FACE ( 'NONE', ( #291 ), #218, .T. ) ;
#253 = CIRCLE ( 'NONE', #3, 0.04405499999999974020 ) ;
#254 =( GEOMETRIC_REPRESENTATION_CONTEXT ( 3 ) GLOBAL_UNCERTAINTY_ASSIGNED_CONTEXT ( ( #161 ) ) GLOBAL_UNIT_ASSIGNED_CONTEXT ( ( #285, #289, #299 ) ) REPRESENTATION_CONTEXT ( 'NONE', 'WORKASPACE' ) );
#255 = CARTESIAN_POINT ( 'NONE',  ( -0.05905500000000001720, 0.0000000000000000000, 1.481062999999999574 ) ) ;
#256 = DIRECTION ( 'NONE',  ( 0.0000000000000000000, 0.0000000000000000000, 1.000000000000000000 ) ) ;
#257 = DIRECTION ( 'NONE',  ( -0.1736481776669312194, 2.126576849575783625E-17, 0.9848077530122080203 ) ) ;
#258 = DIRECTION ( 'NONE',  ( -1.000000000000000000, 0.0000000000000000000, 0.0000000000000000000 ) ) ;
#259 = CARTESIAN_POINT ( 'NONE',  ( -0.04405499999999974020, 0.0000000000000000000, 1.496062999999999921 ) ) ;
#260 = AXIS2_PLACEMENT_3D ( 'NONE', #7, #167, #207 ) ;
#261 = CARTESIAN_POINT ( 'NONE',  ( 0.05905500000000001720, 7.232151672364695422E-18, 1.496062999999999921 ) ) ;
#262 = SURFACE_SIDE_STYLE ('',( #73 ) ) ;
#263 = DIRECTION ( 'NONE',  ( 1.224646799147353207E-16, 0.0000000000000000000, 1.000000000000000000 ) ) ;
#264 = DIRECTION ( 'NONE',  ( 1.000000000000000000, 0.0000000000000000000, 0.0000000000000000000 ) ) ;
#265 = ADVANCED_FACE ( 'NONE', ( #127 ), #37, .T. ) ;
#266 = ORIENTED_EDGE ( 'NONE', *, *, #241, .F. ) ;
#267 = EDGE_CURVE ( 'NONE', #297, #45, #237, .T. ) ;
#268 = DIRECTION ( 'NONE',  ( 1.000000000000000000, 0.0000000000000000000, -0.0000000000000000000 ) ) ;
#269 = AXIS2_PLACEMENT_3D ( 'NONE', #155, #263, #264 ) ;
#270 =( CONVERSION_BASED_UNIT ( 'INCH', #115 ) LENGTH_UNIT ( ) NAMED_UNIT ( #199 ) );
#271 = EDGE_LOOP ( 'NONE', ( #17, #8 ) ) ;
#272 = CARTESIAN_POINT ( 'NONE',  ( 0.0000000000000000000, 0.0000000000000000000, 0.0000000000000000000 ) ) ;
#273 = ORIENTED_EDGE ( 'NONE', *, *, #241, .T. ) ;
#274 = VERTEX_POINT ( 'NONE', #202 ) ;
#275 = ADVANCED_FACE ( 'NONE', ( #104 ), #179, .F. ) ;
#276 = FACE_OUTER_BOUND ( 'NONE', #221, .T. ) ;
#277 = VERTEX_POINT ( 'NONE', #151 ) ;
#278 = DIRECTION ( 'NONE',  ( -1.224646799147353207E-16, -0.0000000000000000000, -1.000000000000000000 ) ) ;
#279 = ADVANCED_FACE ( 'NONE', ( #84 ), #214, .T. ) ;
#280 = DIRECTION ( 'NONE',  ( -1.224646799147353207E-16, -0.0000000000000000000, -1.000000000000000000 ) ) ;
#281 = DIRECTION ( 'NONE',  ( -1.000000000000000000, 0.0000000000000000000, 0.0000000000000000000 ) ) ;
#282 =( NAMED_UNIT ( * ) PLANE_ANGLE_UNIT ( ) SI_UNIT ( $, .RADIAN. ) );
#283 = CARTESIAN_POINT ( 'NONE',  ( 0.03933062999999999837, 4.816613013794885432E-18, -9.478001694819074349E-34 ) ) ;
#284 = EDGE_CURVE ( 'NONE', #159, #277, #181, .T. ) ;
#285 =( CONVERSION_BASED_UNIT ( 'INCH', #198 ) LENGTH_UNIT ( ) NAMED_UNIT ( #58 ) );
#286 = FILL_AREA_STYLE_COLOUR ( '', #219 ) ;
#287 = AXIS2_PLACEMENT_3D ( 'NONE', #193, #5, #166 ) ;
#288 = COLOUR_RGB ( '',0.7921568627450980005, 0.8196078431372548767, 0.9333333333333333481 ) ;
#289 =( NAMED_UNIT ( * ) PLANE_ANGLE_UNIT ( ) SI_UNIT ( $, .RADIAN. ) );
#290 = FACE_OUTER_BOUND ( 'NONE', #203, .T. ) ;
#291 = FACE_OUTER_BOUND ( 'NONE', #183, .T. ) ;
#292 = ORIENTED_EDGE ( 'NONE', *, *, #165, .T. ) ;
#293 = ADVANCED_FACE ( 'NONE', ( #215 ), #131, .T. ) ;
#294 = FILL_AREA_STYLE ('',( #137 ) ) ;
#295 = AXIS2_PLACEMENT_3D ( 'NONE', #154, #130, #152 ) ;
#296 = EDGE_LOOP ( 'NONE', ( #65, #171, #114, #109 ) ) ;
#297 = VERTEX_POINT ( 'NONE', #283 ) ;
#298 =( NAMED_UNIT ( * ) PLANE_ANGLE_UNIT ( ) SI_UNIT ( $, .RADIAN. ) );
#299 =( NAMED_UNIT ( * ) SI_UNIT ( $, .STERADIAN. ) SOLID_ANGLE_UNIT ( ) );
ENDSEC;
END-ISO-10303-21;
