ISO-10303-21;
HEADER;
FILE_DESCRIPTION (( 'STEP AP214' ),
    '1' );
FILE_NAME ('Micro_RNC-250-220.STEP',
    '2021-09-03T17:35:57',
    ( '' ),
    ( '' ),
    'SwSTEP 2.0',
    'SolidWorks 2020',
    '' );
FILE_SCHEMA (( 'AUTOMOTIVE_DESIGN' ));
ENDSEC;

DATA;
#1 = DIRECTION ( 'NONE',  ( 0.0000000000000000000, 0.0000000000000000000, -1.000000000000000000 ) ) ;
#2 = CARTESIAN_POINT ( 'NONE',  ( 0.0000000000000000000, 0.0000000000000000000, 0.0000000000000000000 ) ) ;
#3 = AXIS2_PLACEMENT_3D ( 'NONE', #8, #25, #190 ) ;
#4 = SURFACE_STYLE_USAGE ( .BOTH. , #173 ) ;
#5 = CARTESIAN_POINT ( 'NONE',  ( 0.0000000000000000000, 0.0000000000000000000, 2.385000000000000675 ) ) ;
#6 = DIRECTION ( 'NONE',  ( -0.0000000000000000000, -0.0000000000000000000, -1.000000000000000000 ) ) ;
#7 =( GEOMETRIC_REPRESENTATION_CONTEXT ( 3 ) GLOBAL_UNCERTAINTY_ASSIGNED_CONTEXT ( ( #179 ) ) GLOBAL_UNIT_ASSIGNED_CONTEXT ( ( #14, #219, #101 ) ) REPRESENTATION_CONTEXT ( 'NONE', 'WORKASPACE' ) );
#8 = CARTESIAN_POINT ( 'NONE',  ( 0.0000000000000000000, 0.0000000000000000000, 0.0000000000000000000 ) ) ;
#9 = EDGE_CURVE ( 'NONE', #168, #245, #203, .T. ) ;
#10 = DIRECTION ( 'NONE',  ( -1.000000000000000000, 0.0000000000000000000, 0.0000000000000000000 ) ) ;
#11 = PRODUCT_DEFINITION ( 'UNKNOWN', '', #235, #99 ) ;
#12 = PRESENTATION_STYLE_ASSIGNMENT (( #4 ) ) ;
#13 = PRESENTATION_LAYER_ASSIGNMENT (  '', '', ( #33 ) ) ;
#14 =( CONVERSION_BASED_UNIT ( 'INCH', #144 ) LENGTH_UNIT ( ) NAMED_UNIT ( #16 ) );
#15 = DIRECTION ( 'NONE',  ( 1.000000000000000000, 0.0000000000000000000, -0.0000000000000000000 ) ) ;
#16 = DIMENSIONAL_EXPONENTS ( 1.000000000000000000, 0.0000000000000000000, 0.0000000000000000000, 0.0000000000000000000, 0.0000000000000000000, 0.0000000000000000000, 0.0000000000000000000 ) ;
#17 = ORIENTED_EDGE ( 'NONE', *, *, #142, .T. ) ;
#18 = VERTEX_POINT ( 'NONE', #129 ) ;
#19 = PRODUCT ( 'Micro_RNC-250-220', 'Micro_RNC-250-220', '', ( #226 ) ) ;
#20 = STYLED_ITEM ( 'NONE', ( #105 ), #155 ) ;
#21 = DIRECTION ( 'NONE',  ( 0.0000000000000000000, 0.0000000000000000000, 1.000000000000000000 ) ) ;
#22 = CARTESIAN_POINT ( 'NONE',  ( 0.1250000000000000000, 1.530808498934191509E-17, 0.1149999999999995193 ) ) ;
#23 = FILL_AREA_STYLE ('',( #111 ) ) ;
#24 = AXIS2_PLACEMENT_3D ( 'NONE', #97, #211, #192 ) ;
#25 = DIRECTION ( 'NONE',  ( 0.0000000000000000000, 0.0000000000000000000, 1.000000000000000000 ) ) ;
#26 = LINE ( 'NONE', #56, #72 ) ;
#27 = ADVANCED_FACE ( 'NONE', ( #187 ), #189, .F. ) ;
#28 = DIRECTION ( 'NONE',  ( -0.0000000000000000000, -0.0000000000000000000, -1.000000000000000000 ) ) ;
#29 = AXIS2_PLACEMENT_3D ( 'NONE', #2, #35, #107 ) ;
#30 = FACE_OUTER_BOUND ( 'NONE', #184, .T. ) ;
#31 = FILL_AREA_STYLE ('',( #125 ) ) ;
#32 = CIRCLE ( 'NONE', #59, 0.1250000000000000000 ) ;
#33 = STYLED_ITEM ( 'NONE', ( #12 ), #228 ) ;
#34 = ORIENTED_EDGE ( 'NONE', *, *, #117, .T. ) ;
#35 = DIRECTION ( 'NONE',  ( 0.0000000000000000000, 0.0000000000000000000, 1.000000000000000000 ) ) ;
#36 = ORIENTED_EDGE ( 'NONE', *, *, #91, .F. ) ;
#37 = ORIENTED_EDGE ( 'NONE', *, *, #208, .T. ) ;
#38 =( GEOMETRIC_REPRESENTATION_CONTEXT ( 3 ) GLOBAL_UNCERTAINTY_ASSIGNED_CONTEXT ( ( #77 ) ) GLOBAL_UNIT_ASSIGNED_CONTEXT ( ( #182, #240, #164 ) ) REPRESENTATION_CONTEXT ( 'NONE', 'WORKASPACE' ) );
#39 = ORIENTED_EDGE ( 'NONE', *, *, #231, .T. ) ;
#40 = CARTESIAN_POINT ( 'NONE',  ( 0.0000000000000000000, 0.0000000000000000000, 2.500000000000000000 ) ) ;
#41 = FACE_OUTER_BOUND ( 'NONE', #69, .T. ) ;
#42 = AXIS2_PLACEMENT_3D ( 'NONE', #85, #92, #167 ) ;
#43 = DIRECTION ( 'NONE',  ( 1.000000000000000000, 0.0000000000000000000, 0.0000000000000000000 ) ) ;
#44 = CARTESIAN_POINT ( 'NONE',  ( -0.1250000000000000000, 0.0000000000000000000, 0.1149999999999995193 ) ) ;
#45 = MECHANICAL_DESIGN_GEOMETRIC_PRESENTATION_REPRESENTATION (  '', ( #20 ), #76 ) ;
#46 = APPLICATION_CONTEXT ( 'automotive_design' ) ;
#47 = CIRCLE ( 'NONE', #183, 0.01000000000000000021 ) ;
#48 = EDGE_CURVE ( 'NONE', #204, #54, #196, .T. ) ;
#49 = EDGE_CURVE ( 'NONE', #109, #18, #213, .T. ) ;
#50 = AXIS2_PLACEMENT_3D ( 'NONE', #131, #21, #15 ) ;
#51 = DIRECTION ( 'NONE',  ( -1.000000000000000000, 0.0000000000000000000, 0.0000000000000000000 ) ) ;
#52 = VERTEX_POINT ( 'NONE', #133 ) ;
#53 = DIRECTION ( 'NONE',  ( 0.0000000000000000000, 0.0000000000000000000, -1.000000000000000000 ) ) ;
#54 = VERTEX_POINT ( 'NONE', #22 ) ;
#55 = AXIS2_PLACEMENT_3D ( 'NONE', #171, #1, #244 ) ;
#56 = CARTESIAN_POINT ( 'NONE',  ( -0.01000000000000000021, 1.224646799147353384E-18, 0.0000000000000000000 ) ) ;
#57 = DIRECTION ( 'NONE',  ( 1.000000000000000000, 0.0000000000000000000, 0.0000000000000000000 ) ) ;
#58 = FACE_OUTER_BOUND ( 'NONE', #90, .T. ) ;
#59 = AXIS2_PLACEMENT_3D ( 'NONE', #64, #121, #82 ) ;
#60 = DIRECTION ( 'NONE',  ( 0.0000000000000000000, 0.0000000000000000000, -1.000000000000000000 ) ) ;
#61 = CARTESIAN_POINT ( 'NONE',  ( 0.0000000000000000000, 0.0000000000000000000, 2.500000000000000000 ) ) ;
#62 = AXIS2_PLACEMENT_3D ( 'NONE', #175, #6, #115 ) ;
#63 = CARTESIAN_POINT ( 'NONE',  ( -0.1250000000000000000, 0.0000000000000000000, 2.385000000000000675 ) ) ;
#64 = CARTESIAN_POINT ( 'NONE',  ( 0.0000000000000000000, 0.0000000000000000000, 0.1149999999999995193 ) ) ;
#65 = VECTOR ( 'NONE', #134, 39.37007874015748143 ) ;
#66 = ADVANCED_FACE ( 'NONE', ( #93 ), #169, .T. ) ;
#67 = EDGE_LOOP ( 'NONE', ( #223, #36, #153, #249 ) ) ;
#68 = ORIENTED_EDGE ( 'NONE', *, *, #49, .F. ) ;
#69 = EDGE_LOOP ( 'NONE', ( #106, #68 ) ) ;
#70 = ADVANCED_FACE ( 'NONE', ( #186 ), #87, .T. ) ;
#71 = ORIENTED_EDGE ( 'NONE', *, *, #9, .T. ) ;
#72 = VECTOR ( 'NONE', #194, 39.37007874015748143 ) ;
#73 = DIRECTION ( 'NONE',  ( -0.0000000000000000000, -0.0000000000000000000, -1.000000000000000000 ) ) ;
#74 = DIRECTION ( 'NONE',  ( 0.7071067811865490160, 0.0000000000000000000, 0.7071067811865460184 ) ) ;
#75 = FACE_OUTER_BOUND ( 'NONE', #170, .T. ) ;
#76 =( GEOMETRIC_REPRESENTATION_CONTEXT ( 3 ) GLOBAL_UNCERTAINTY_ASSIGNED_CONTEXT ( ( #233 ) ) GLOBAL_UNIT_ASSIGNED_CONTEXT ( ( #217, #221, #103 ) ) REPRESENTATION_CONTEXT ( 'NONE', 'WORKASPACE' ) );
#77 = UNCERTAINTY_MEASURE_WITH_UNIT (LENGTH_MEASURE( 1.000000000000000082E-05 ), #182, 'distance_accuracy_value', 'NONE');
#78 = CARTESIAN_POINT ( 'NONE',  ( 0.1250000000000000000, 1.530808498934191509E-17, 2.385000000000000675 ) ) ;
#79 = LINE ( 'NONE', #154, #132 ) ;
#80 = EDGE_CURVE ( 'NONE', #200, #54, #79, .T. ) ;
#81 = CONICAL_SURFACE ( 'NONE', #3, 0.01000000000000000021, 0.7853981633974503884 ) ;
#82 = DIRECTION ( 'NONE',  ( -1.000000000000000000, 0.0000000000000000000, 0.0000000000000000000 ) ) ;
#83 = CLOSED_SHELL ( 'NONE', ( #95, #145, #126, #70, #66, #27, #112, #122 ) ) ;
#84 =( LENGTH_UNIT ( ) NAMED_UNIT ( * ) SI_UNIT ( $, .METRE. ) );
#85 = CARTESIAN_POINT ( 'NONE',  ( 0.0000000000000000000, 0.0000000000000000000, 0.1149999999999995193 ) ) ;
#86 = DIMENSIONAL_EXPONENTS ( 1.000000000000000000, 0.0000000000000000000, 0.0000000000000000000, 0.0000000000000000000, 0.0000000000000000000, 0.0000000000000000000, 0.0000000000000000000 ) ;
#87 = CYLINDRICAL_SURFACE ( 'NONE', #241, 0.1250000000000000000 ) ;
#88 = SHAPE_DEFINITION_REPRESENTATION ( #197, #155 ) ;
#89 = MECHANICAL_DESIGN_GEOMETRIC_PRESENTATION_REPRESENTATION (  '', ( #33 ), #7 ) ;
#90 = EDGE_LOOP ( 'NONE', ( #207, #225, #202, #110 ) ) ;
#91 = EDGE_CURVE ( 'NONE', #200, #52, #136, .T. ) ;
#92 = DIRECTION ( 'NONE',  ( -0.0000000000000000000, -0.0000000000000000000, -1.000000000000000000 ) ) ;
#93 = FACE_OUTER_BOUND ( 'NONE', #67, .T. ) ;
#94 = SURFACE_STYLE_FILL_AREA ( #23 ) ;
#95 = ADVANCED_FACE ( 'NONE', ( #232 ), #191, .T. ) ;
#96 = LINE ( 'NONE', #174, #119 ) ;
#97 = CARTESIAN_POINT ( 'NONE',  ( 0.0000000000000000000, 0.0000000000000000000, 2.500000000000000000 ) ) ;
#98 = DIRECTION ( 'NONE',  ( 0.0000000000000000000, 0.0000000000000000000, -1.000000000000000000 ) ) ;
#99 = PRODUCT_DEFINITION_CONTEXT ( 'detailed design', #247, 'design' ) ;
#100 = LINE ( 'NONE', #157, #198 ) ;
#101 =( NAMED_UNIT ( * ) SI_UNIT ( $, .STERADIAN. ) SOLID_ANGLE_UNIT ( ) );
#102 = CONICAL_SURFACE ( 'NONE', #229, 0.01000000000000000021, 0.7853981633974503884 ) ;
#103 =( NAMED_UNIT ( * ) SI_UNIT ( $, .STERADIAN. ) SOLID_ANGLE_UNIT ( ) );
#104 = LENGTH_MEASURE_WITH_UNIT ( LENGTH_MEASURE( 0.02539999999999999897 ), #84 );
#105 = PRESENTATION_STYLE_ASSIGNMENT (( #120 ) ) ;
#106 = ORIENTED_EDGE ( 'NONE', *, *, #142, .F. ) ;
#107 = DIRECTION ( 'NONE',  ( 1.000000000000000000, 0.0000000000000000000, 0.0000000000000000000 ) ) ;
#108 = EDGE_LOOP ( 'NONE', ( #130, #71, #152, #222 ) ) ;
#109 = VERTEX_POINT ( 'NONE', #113 ) ;
#110 = ORIENTED_EDGE ( 'NONE', *, *, #201, .F. ) ;
#111 = FILL_AREA_STYLE_COLOUR ( '', #162 ) ;
#112 = ADVANCED_FACE ( 'NONE', ( #58 ), #102, .T. ) ;
#113 = CARTESIAN_POINT ( 'NONE',  ( -0.01000000000000000021, -8.266365894244634333E-18, 2.500000000000000000 ) ) ;
#114 = AXIS2_PLACEMENT_3D ( 'NONE', #156, #116, #43 ) ;
#115 = DIRECTION ( 'NONE',  ( -1.000000000000000000, 0.0000000000000000000, 0.0000000000000000000 ) ) ;
#116 = DIRECTION ( 'NONE',  ( 0.0000000000000000000, 0.0000000000000000000, -1.000000000000000000 ) ) ;
#117 = EDGE_CURVE ( 'NONE', #52, #204, #26, .T. ) ;
#118 = CARTESIAN_POINT ( 'NONE',  ( -0.01000000000000000021, -1.224646799147353384E-18, 2.500000000000000000 ) ) ;
#119 = VECTOR ( 'NONE', #195, 39.37007874015748143 ) ;
#120 = SURFACE_STYLE_USAGE ( .BOTH. , #220 ) ;
#121 = DIRECTION ( 'NONE',  ( -0.0000000000000000000, -0.0000000000000000000, -1.000000000000000000 ) ) ;
#122 = ADVANCED_FACE ( 'NONE', ( #41 ), #135, .T. ) ;
#123 =( LENGTH_UNIT ( ) NAMED_UNIT ( * ) SI_UNIT ( $, .METRE. ) );
#124 = COLOUR_RGB ( '',0.7921568627450980005, 0.8196078431372548767, 0.9333333333333333481 ) ;
#125 = FILL_AREA_STYLE_COLOUR ( '', #124 ) ;
#126 = ADVANCED_FACE ( 'NONE', ( #75 ), #193, .T. ) ;
#127 = EDGE_LOOP ( 'NONE', ( #166, #39 ) ) ;
#128 = AXIS2_PLACEMENT_3D ( 'NONE', #146, #53, #51 ) ;
#129 = CARTESIAN_POINT ( 'NONE',  ( 0.01000000000000000021, 0.0000000000000000000, 2.500000000000000000 ) ) ;
#130 = ORIENTED_EDGE ( 'NONE', *, *, #148, .F. ) ;
#131 = CARTESIAN_POINT ( 'NONE',  ( 0.0000000000000000000, 0.0000000000000000000, 0.0000000000000000000 ) ) ;
#132 = VECTOR ( 'NONE', #74, 39.37007874015748143 ) ;
#133 = CARTESIAN_POINT ( 'NONE',  ( -0.01000000000000000021, 8.266365894244634333E-18, 0.0000000000000000000 ) ) ;
#134 = DIRECTION ( 'NONE',  ( -0.7071067811865490160, -8.659560562354951347E-17, -0.7071067811865460184 ) ) ;
#135 = PLANE ( 'NONE',  #24 ) ;
#136 = CIRCLE ( 'NONE', #62, 0.01000000000000000021 ) ;
#137 = CARTESIAN_POINT ( 'NONE',  ( 0.1250000000000000000, 1.530808498934191509E-17, 2.500000000000000000 ) ) ;
#138 = EDGE_CURVE ( 'NONE', #18, #168, #100, .T. ) ;
#139 = CARTESIAN_POINT ( 'NONE',  ( 0.01000000000000000021, 0.0000000000000000000, 0.0000000000000000000 ) ) ;
#140 = LENGTH_MEASURE_WITH_UNIT ( LENGTH_MEASURE( 0.02539999999999999897 ), #123 );
#141 = CIRCLE ( 'NONE', #177, 0.1250000000000000000 ) ;
#142 = EDGE_CURVE ( 'NONE', #18, #109, #47, .T. ) ;
#143 =( LENGTH_UNIT ( ) NAMED_UNIT ( * ) SI_UNIT ( $, .METRE. ) );
#144 = LENGTH_MEASURE_WITH_UNIT ( LENGTH_MEASURE( 0.02539999999999999897 ), #143 );
#145 = ADVANCED_FACE ( 'NONE', ( #30 ), #81, .T. ) ;
#146 = CARTESIAN_POINT ( 'NONE',  ( 0.0000000000000000000, 0.0000000000000000000, 2.385000000000000675 ) ) ;
#147 = AXIS2_PLACEMENT_3D ( 'NONE', #210, #238, #161 ) ;
#148 = EDGE_CURVE ( 'NONE', #168, #54, #160, .T. ) ;
#149 = ORIENTED_EDGE ( 'NONE', *, *, #148, .T. ) ;
#150 = ORIENTED_EDGE ( 'NONE', *, *, #48, .F. ) ;
#151 = APPLICATION_PROTOCOL_DEFINITION ( 'draft international standard', 'automotive_design', 1998, #247 ) ;
#152 = ORIENTED_EDGE ( 'NONE', *, *, #199, .T. ) ;
#153 = ORIENTED_EDGE ( 'NONE', *, *, #80, .T. ) ;
#154 = CARTESIAN_POINT ( 'NONE',  ( 0.01000000000000000021, 0.0000000000000000000, 0.0000000000000000000 ) ) ;
#155 = ADVANCED_BREP_SHAPE_REPRESENTATION ( 'Micro_RNC-250-220', ( #228, #218 ), #38 ) ;
#156 = CARTESIAN_POINT ( 'NONE',  ( 0.0000000000000000000, 0.0000000000000000000, 2.500000000000000000 ) ) ;
#157 = CARTESIAN_POINT ( 'NONE',  ( 0.01000000000000000021, 0.0000000000000000000, 2.500000000000000000 ) ) ;
#158 = PRESENTATION_LAYER_ASSIGNMENT (  '', '', ( #20 ) ) ;
#159 = CARTESIAN_POINT ( 'NONE',  ( 0.0000000000000000000, 0.0000000000000000000, 2.500000000000000000 ) ) ;
#160 = LINE ( 'NONE', #137, #180 ) ;
#161 = DIRECTION ( 'NONE',  ( -1.000000000000000000, 0.0000000000000000000, 0.0000000000000000000 ) ) ;
#162 = COLOUR_RGB ( '',0.7921568627450980005, 0.8196078431372548767, 0.9333333333333333481 ) ;
#163 = SURFACE_STYLE_FILL_AREA ( #31 ) ;
#164 =( NAMED_UNIT ( * ) SI_UNIT ( $, .STERADIAN. ) SOLID_ANGLE_UNIT ( ) );
#165 = AXIS2_PLACEMENT_3D ( 'NONE', #159, #236, #237 ) ;
#166 = ORIENTED_EDGE ( 'NONE', *, *, #91, .T. ) ;
#167 = DIRECTION ( 'NONE',  ( -1.000000000000000000, 0.0000000000000000000, 0.0000000000000000000 ) ) ;
#168 = VERTEX_POINT ( 'NONE', #78 ) ;
#169 = CONICAL_SURFACE ( 'NONE', #29, 0.01000000000000000021, 0.7853981633974503884 ) ;
#170 = EDGE_LOOP ( 'NONE', ( #188, #149, #150, #239 ) ) ;
#171 = CARTESIAN_POINT ( 'NONE',  ( 0.0000000000000000000, 0.0000000000000000000, 2.500000000000000000 ) ) ;
#172 = EDGE_LOOP ( 'NONE', ( #17, #37, #205, #227 ) ) ;
#173 = SURFACE_SIDE_STYLE ('',( #94 ) ) ;
#174 = CARTESIAN_POINT ( 'NONE',  ( -0.1250000000000000000, 0.0000000000000000000, 2.500000000000000000 ) ) ;
#175 = CARTESIAN_POINT ( 'NONE',  ( 0.0000000000000000000, 0.0000000000000000000, 0.0000000000000000000 ) ) ;
#176 = DIRECTION ( 'NONE',  ( -1.000000000000000000, 0.0000000000000000000, 0.0000000000000000000 ) ) ;
#177 = AXIS2_PLACEMENT_3D ( 'NONE', #5, #234, #216 ) ;
#178 = DIRECTION ( 'NONE',  ( 0.7071067811865490160, 0.0000000000000000000, -0.7071067811865460184 ) ) ;
#179 = UNCERTAINTY_MEASURE_WITH_UNIT (LENGTH_MEASURE( 1.000000000000000082E-05 ), #14, 'distance_accuracy_value', 'NONE');
#180 = VECTOR ( 'NONE', #28, 39.37007874015748143 ) ;
#181 = APPLICATION_PROTOCOL_DEFINITION ( 'draft international standard', 'automotive_design', 1998, #46 ) ;
#182 =( CONVERSION_BASED_UNIT ( 'INCH', #104 ) LENGTH_UNIT ( ) NAMED_UNIT ( #86 ) );
#183 = AXIS2_PLACEMENT_3D ( 'NONE', #61, #60, #176 ) ;
#184 = EDGE_LOOP ( 'NONE', ( #209, #34, #230, #224 ) ) ;
#185 = DIRECTION ( 'NONE',  ( 0.0000000000000000000, 0.0000000000000000000, 1.000000000000000000 ) ) ;
#186 = FACE_OUTER_BOUND ( 'NONE', #108, .T. ) ;
#187 = FACE_OUTER_BOUND ( 'NONE', #127, .T. ) ;
#188 = ORIENTED_EDGE ( 'NONE', *, *, #201, .T. ) ;
#189 = PLANE ( 'NONE',  #50 ) ;
#190 = DIRECTION ( 'NONE',  ( 1.000000000000000000, 0.0000000000000000000, 0.0000000000000000000 ) ) ;
#191 = CONICAL_SURFACE ( 'NONE', #114, 0.01000000000000000021, 0.7853981633974503884 ) ;
#192 = DIRECTION ( 'NONE',  ( 1.000000000000000000, 0.0000000000000000000, -0.0000000000000000000 ) ) ;
#193 = CYLINDRICAL_SURFACE ( 'NONE', #165, 0.1250000000000000000 ) ;
#194 = DIRECTION ( 'NONE',  ( -0.7071067811865490160, 8.659560562354951347E-17, 0.7071067811865460184 ) ) ;
#195 = DIRECTION ( 'NONE',  ( -0.0000000000000000000, -0.0000000000000000000, -1.000000000000000000 ) ) ;
#196 = CIRCLE ( 'NONE', #42, 0.1250000000000000000 ) ;
#197 = PRODUCT_DEFINITION_SHAPE ( 'NONE', 'NONE',  #11 ) ;
#198 = VECTOR ( 'NONE', #178, 39.37007874015748143 ) ;
#199 = EDGE_CURVE ( 'NONE', #245, #204, #96, .T. ) ;
#200 = VERTEX_POINT ( 'NONE', #139 ) ;
#201 = EDGE_CURVE ( 'NONE', #245, #168, #141, .T. ) ;
#202 = ORIENTED_EDGE ( 'NONE', *, *, #138, .T. ) ;
#203 = CIRCLE ( 'NONE', #128, 0.1250000000000000000 ) ;
#204 = VERTEX_POINT ( 'NONE', #44 ) ;
#205 = ORIENTED_EDGE ( 'NONE', *, *, #9, .F. ) ;
#206 = DIRECTION ( 'NONE',  ( 1.000000000000000000, 0.0000000000000000000, 0.0000000000000000000 ) ) ;
#207 = ORIENTED_EDGE ( 'NONE', *, *, #208, .F. ) ;
#208 = EDGE_CURVE ( 'NONE', #109, #245, #214, .T. ) ;
#209 = ORIENTED_EDGE ( 'NONE', *, *, #231, .F. ) ;
#210 = CARTESIAN_POINT ( 'NONE',  ( 0.0000000000000000000, 0.0000000000000000000, 0.0000000000000000000 ) ) ;
#211 = DIRECTION ( 'NONE',  ( 0.0000000000000000000, 0.0000000000000000000, 1.000000000000000000 ) ) ;
#212 = PRODUCT_RELATED_PRODUCT_CATEGORY ( 'part', '', ( #19 ) ) ;
#213 = CIRCLE ( 'NONE', #55, 0.01000000000000000021 ) ;
#214 = LINE ( 'NONE', #118, #65 ) ;
#215 = CARTESIAN_POINT ( 'NONE',  ( 0.0000000000000000000, 0.0000000000000000000, 2.500000000000000000 ) ) ;
#216 = DIRECTION ( 'NONE',  ( -1.000000000000000000, 0.0000000000000000000, 0.0000000000000000000 ) ) ;
#217 =( CONVERSION_BASED_UNIT ( 'INCH', #140 ) LENGTH_UNIT ( ) NAMED_UNIT ( #243 ) );
#218 = AXIS2_PLACEMENT_3D ( 'NONE', #242, #185, #206 ) ;
#219 =( NAMED_UNIT ( * ) PLANE_ANGLE_UNIT ( ) SI_UNIT ( $, .RADIAN. ) );
#220 = SURFACE_SIDE_STYLE ('',( #163 ) ) ;
#221 =( NAMED_UNIT ( * ) PLANE_ANGLE_UNIT ( ) SI_UNIT ( $, .RADIAN. ) );
#222 = ORIENTED_EDGE ( 'NONE', *, *, #248, .F. ) ;
#223 = ORIENTED_EDGE ( 'NONE', *, *, #117, .F. ) ;
#224 = ORIENTED_EDGE ( 'NONE', *, *, #80, .F. ) ;
#225 = ORIENTED_EDGE ( 'NONE', *, *, #49, .T. ) ;
#226 = PRODUCT_CONTEXT ( 'NONE', #46, 'mechanical' ) ;
#227 = ORIENTED_EDGE ( 'NONE', *, *, #138, .F. ) ;
#228 = MANIFOLD_SOLID_BREP ( 'Mirror1', #83 ) ;
#229 = AXIS2_PLACEMENT_3D ( 'NONE', #215, #98, #57 ) ;
#230 = ORIENTED_EDGE ( 'NONE', *, *, #48, .T. ) ;
#231 = EDGE_CURVE ( 'NONE', #52, #200, #246, .T. ) ;
#232 = FACE_OUTER_BOUND ( 'NONE', #172, .T. ) ;
#233 = UNCERTAINTY_MEASURE_WITH_UNIT (LENGTH_MEASURE( 1.000000000000000082E-05 ), #217, 'distance_accuracy_value', 'NONE');
#234 = DIRECTION ( 'NONE',  ( 0.0000000000000000000, 0.0000000000000000000, -1.000000000000000000 ) ) ;
#235 = PRODUCT_DEFINITION_FORMATION_WITH_SPECIFIED_SOURCE ( 'ANY', '', #19, .NOT_KNOWN. ) ;
#236 = DIRECTION ( 'NONE',  ( -0.0000000000000000000, -0.0000000000000000000, -1.000000000000000000 ) ) ;
#237 = DIRECTION ( 'NONE',  ( -1.000000000000000000, 0.0000000000000000000, 0.0000000000000000000 ) ) ;
#238 = DIRECTION ( 'NONE',  ( -0.0000000000000000000, -0.0000000000000000000, -1.000000000000000000 ) ) ;
#239 = ORIENTED_EDGE ( 'NONE', *, *, #199, .F. ) ;
#240 =( NAMED_UNIT ( * ) PLANE_ANGLE_UNIT ( ) SI_UNIT ( $, .RADIAN. ) );
#241 = AXIS2_PLACEMENT_3D ( 'NONE', #40, #73, #10 ) ;
#242 = CARTESIAN_POINT ( 'NONE',  ( 0.0000000000000000000, 0.0000000000000000000, 0.0000000000000000000 ) ) ;
#243 = DIMENSIONAL_EXPONENTS ( 1.000000000000000000, 0.0000000000000000000, 0.0000000000000000000, 0.0000000000000000000, 0.0000000000000000000, 0.0000000000000000000, 0.0000000000000000000 ) ;
#244 = DIRECTION ( 'NONE',  ( -1.000000000000000000, 0.0000000000000000000, 0.0000000000000000000 ) ) ;
#245 = VERTEX_POINT ( 'NONE', #63 ) ;
#246 = CIRCLE ( 'NONE', #147, 0.01000000000000000021 ) ;
#247 = APPLICATION_CONTEXT ( 'automotive_design' ) ;
#248 = EDGE_CURVE ( 'NONE', #54, #204, #32, .T. ) ;
#249 = ORIENTED_EDGE ( 'NONE', *, *, #248, .T. ) ;
ENDSEC;
END-ISO-10303-21;
