ISO-10303-21;
HEADER;
FILE_DESCRIPTION (( 'STEP AP214' ),
    '1' );
FILE_NAME ('59540.STEP',
    '2023-07-24T15:48:40',
    ( '' ),
    ( '' ),
    'SwSTEP 2.0',
    'SolidWorks 2023',
    '' );
FILE_SCHEMA (( 'AUTOMOTIVE_DESIGN' ));
ENDSEC;

DATA;
#1 = CYLINDRICAL_SURFACE ( 'NONE', #160, 4.999999999999998224 ) ;
#2 = ORIENTED_EDGE ( 'NONE', *, *, #183, .T. ) ;
#3 = DIRECTION ( 'NONE',  ( -0.000000000000000000, -1.000000000000000000, -0.000000000000000000 ) ) ;
#4 = PRODUCT ( '59540', '59540', '', ( #203 ) ) ;
#5 = VECTOR ( 'NONE', #72, 1000.000000000000000 ) ;
#6 = PRESENTATION_STYLE_ASSIGNMENT (( #266 ) ) ;
#7 = ORIENTED_EDGE ( 'NONE', *, *, #85, .T. ) ;
#8 = ADVANCED_FACE ( 'NONE', ( #116 ), #219, .T. ) ;
#9 = VERTEX_POINT ( 'NONE', #141 ) ;
#10 = PRESENTATION_STYLE_ASSIGNMENT (( #38 ) ) ;
#11 = AXIS2_PLACEMENT_3D ( 'NONE', #69, #176, #222 ) ;
#12 = ADVANCED_FACE ( 'NONE', ( #184 ), #253, .T. ) ;
#13 = CARTESIAN_POINT ( 'NONE',  ( 0.000000000000000000, 0.000000000000000000, 0.000000000000000000 ) ) ;
#14 = CARTESIAN_POINT ( 'NONE',  ( 0.000000000000000000, 0.000000000000000000, 0.000000000000000000 ) ) ;
#15 = CARTESIAN_POINT ( 'NONE',  ( 0.000000000000000000, 20.00000000000000000, -5.000000000000000000 ) ) ;
#16 = PRESENTATION_STYLE_ASSIGNMENT (( #279 ) ) ;
#17 = DIRECTION ( 'NONE',  ( 7.404841111123529214E-17, 1.000000000000000000, -0.000000000000000000 ) ) ;
#18 = STYLED_ITEM ( 'NONE', ( #180 ), #8 ) ;
#19 = DIRECTION ( 'NONE',  ( 0.000000000000000000, -1.000000000000000000, -0.000000000000000000 ) ) ;
#20 = SURFACE_SIDE_STYLE ('',( #212 ) ) ;
#21 = DIRECTION ( 'NONE',  ( 7.404841111123529214E-17, 1.000000000000000000, -0.000000000000000000 ) ) ;
#22 = AXIS2_PLACEMENT_3D ( 'NONE', #13, #19, #80 ) ;
#23 = CARTESIAN_POINT ( 'NONE',  ( 5.000000000000000000, 63.00000000000000000, 0.000000000000000000 ) ) ;
#24 = ORIENTED_EDGE ( 'NONE', *, *, #191, .T. ) ;
#25 =( NAMED_UNIT ( * ) PLANE_ANGLE_UNIT ( ) SI_UNIT ( $, .RADIAN. ) );
#26 = DIRECTION ( 'NONE',  ( 7.404841111123529214E-17, 1.000000000000000000, -0.000000000000000000 ) ) ;
#27 = FILL_AREA_STYLE ('',( #135 ) ) ;
#28 = CARTESIAN_POINT ( 'NONE',  ( 6.123233995736766282E-16, 0.000000000000000000, 5.000000000000000000 ) ) ;
#29 = PRESENTATION_LAYER_ASSIGNMENT (  '', '', ( #151 ) ) ;
#30 = EDGE_LOOP ( 'NONE', ( #274, #175 ) ) ;
#31 = SURFACE_SIDE_STYLE ('',( #220 ) ) ;
#32 = VERTEX_POINT ( 'NONE', #187 ) ;
#33 =( LENGTH_UNIT ( ) NAMED_UNIT ( * ) SI_UNIT ( .MILLI., .METRE. ) );
#34 = CIRCLE ( 'NONE', #189, 5.000000000000000000 ) ;
#35 = AXIS2_PLACEMENT_3D ( 'NONE', #14, #206, #60 ) ;
#36 = DIRECTION ( 'NONE',  ( 7.404841111123529214E-17, 1.000000000000000000, -0.000000000000000000 ) ) ;
#37 = EDGE_CURVE ( 'NONE', #177, #114, #256, .T. ) ;
#38 = SURFACE_STYLE_USAGE ( .BOTH. , #57 ) ;
#39 = CARTESIAN_POINT ( 'NONE',  ( 6.123233995736766282E-16, 20.00000000000000000, 5.000000000000000000 ) ) ;
#40 =( GEOMETRIC_REPRESENTATION_CONTEXT ( 3 ) GLOBAL_UNCERTAINTY_ASSIGNED_CONTEXT ( ( #46 ) ) GLOBAL_UNIT_ASSIGNED_CONTEXT ( ( #99, #101, #185 ) ) REPRESENTATION_CONTEXT ( 'NONE', 'WORKASPACE' ) );
#41 = CLOSED_SHELL ( 'NONE', ( #214, #122, #12, #8 ) ) ;
#42 = COLOUR_RGB ( '',0.7921568627450980005, 0.8196078431372548767, 0.9333333333333333481 ) ;
#43 = DIRECTION ( 'NONE',  ( 0.000000000000000000, -0.000000000000000000, 1.000000000000000000 ) ) ;
#44 = EDGE_CURVE ( 'NONE', #93, #77, #34, .T. ) ;
#45 = DIRECTION ( 'NONE',  ( -1.000000000000000000, 0.000000000000000000, 0.000000000000000000 ) ) ;
#46 = UNCERTAINTY_MEASURE_WITH_UNIT (LENGTH_MEASURE( 1.000000000000000082E-05 ), #99, 'distance_accuracy_value', 'NONE');
#47 = ADVANCED_BREP_SHAPE_REPRESENTATION ( '59540', ( #261, #162, #35 ), #144 ) ;
#48 = EDGE_LOOP ( 'NONE', ( #196, #246 ) ) ;
#49 = DIRECTION ( 'NONE',  ( -1.000000000000000000, 0.000000000000000000, 0.000000000000000000 ) ) ;
#50 = EDGE_LOOP ( 'NONE', ( #74, #76 ) ) ;
#51 = EDGE_LOOP ( 'NONE', ( #7, #248, #199, #96 ) ) ;
#52 = LINE ( 'NONE', #134, #5 ) ;
#53 = EDGE_CURVE ( 'NONE', #152, #114, #82, .T. ) ;
#54 = ORIENTED_EDGE ( 'NONE', *, *, #53, .F. ) ;
#55 = PRODUCT_DEFINITION_FORMATION_WITH_SPECIFIED_SOURCE ( 'ANY', '', #4, .NOT_KNOWN. ) ;
#56 =( LENGTH_UNIT ( ) NAMED_UNIT ( * ) SI_UNIT ( .MILLI., .METRE. ) );
#57 = SURFACE_SIDE_STYLE ('',( #81 ) ) ;
#58 = SURFACE_SIDE_STYLE ('',( #140 ) ) ;
#59 = CARTESIAN_POINT ( 'NONE',  ( -4.999999999999994671, 63.00000000000000000, 0.000000000000000000 ) ) ;
#60 = DIRECTION ( 'NONE',  ( 1.000000000000000000, 0.000000000000000000, 0.000000000000000000 ) ) ;
#61 = FACE_OUTER_BOUND ( 'NONE', #159, .T. ) ;
#62 = DIRECTION ( 'NONE',  ( -0.000000000000000000, -1.000000000000000000, -0.000000000000000000 ) ) ;
#63 = SURFACE_SIDE_STYLE ('',( #257 ) ) ;
#64 = CARTESIAN_POINT ( 'NONE',  ( 3.184081677783117402E-15, 63.00000000000000000, 0.000000000000000000 ) ) ;
#65 = EDGE_CURVE ( 'NONE', #32, #177, #280, .T. ) ;
#66 = PLANE ( 'NONE',  #89 ) ;
#67 = MECHANICAL_DESIGN_GEOMETRIC_PRESENTATION_REPRESENTATION (  '', ( #18 ), #40 ) ;
#68 = FILL_AREA_STYLE_COLOUR ( '', #113 ) ;
#69 = CARTESIAN_POINT ( 'NONE',  ( 0.000000000000000000, 0.000000000000000000, 0.000000000000000000 ) ) ;
#70 = APPLICATION_CONTEXT ( 'automotive_design' ) ;
#71 = ORIENTED_EDGE ( 'NONE', *, *, #173, .T. ) ;
#72 = DIRECTION ( 'NONE',  ( -0.000000000000000000, -1.000000000000000000, -0.000000000000000000 ) ) ;
#73 = PRESENTATION_LAYER_ASSIGNMENT (  '', '', ( #178 ) ) ;
#74 = ORIENTED_EDGE ( 'NONE', *, *, #125, .T. ) ;
#75 = FACE_OUTER_BOUND ( 'NONE', #51, .T. ) ;
#76 = ORIENTED_EDGE ( 'NONE', *, *, #53, .T. ) ;
#77 = VERTEX_POINT ( 'NONE', #39 ) ;
#78 = COLOUR_RGB ( '',0.7921568627450980005, 0.8196078431372548767, 0.9333333333333333481 ) ;
#79 = CARTESIAN_POINT ( 'NONE',  ( 0.000000000000000000, 20.00000000000000000, 0.000000000000000000 ) ) ;
#80 = DIRECTION ( 'NONE',  ( 0.000000000000000000, 0.000000000000000000, -1.000000000000000000 ) ) ;
#81 = SURFACE_STYLE_FILL_AREA ( #139 ) ;
#82 = CIRCLE ( 'NONE', #223, 4.999999999999996447 ) ;
#83 = DIRECTION ( 'NONE',  ( 0.000000000000000000, 0.000000000000000000, -1.000000000000000000 ) ) ;
#84 =( NAMED_UNIT ( * ) PLANE_ANGLE_UNIT ( ) SI_UNIT ( $, .RADIAN. ) );
#85 = EDGE_CURVE ( 'NONE', #177, #32, #237, .T. ) ;
#86 = CARTESIAN_POINT ( 'NONE',  ( 5.000000000000000000, 63.00000000000000000, 6.123233995736765296E-16 ) ) ;
#87 = MECHANICAL_DESIGN_GEOMETRIC_PRESENTATION_REPRESENTATION (  '', ( #233 ), #268 ) ;
#88 = DIRECTION ( 'NONE',  ( 0.000000000000000000, 0.000000000000000000, -1.000000000000000000 ) ) ;
#89 = AXIS2_PLACEMENT_3D ( 'NONE', #150, #238, #43 ) ;
#90 = DIRECTION ( 'NONE',  ( 7.404841111123529214E-17, 1.000000000000000000, -0.000000000000000000 ) ) ;
#91 = ORIENTED_EDGE ( 'NONE', *, *, #37, .T. ) ;
#92 = FILL_AREA_STYLE_COLOUR ( '', #148 ) ;
#93 = VERTEX_POINT ( 'NONE', #15 ) ;
#94 = DIRECTION ( 'NONE',  ( 1.000000000000000000, -7.404841111123529214E-17, 0.000000000000000000 ) ) ;
#95 = COLOUR_RGB ( '',1.000000000000000000, 0.000000000000000000, 0.000000000000000000 ) ;
#96 = ORIENTED_EDGE ( 'NONE', *, *, #37, .F. ) ;
#97 = PRODUCT_RELATED_PRODUCT_CATEGORY ( 'part', '', ( #4 ) ) ;
#98 = STYLED_ITEM ( 'NONE', ( #10 ), #12 ) ;
#99 =( LENGTH_UNIT ( ) NAMED_UNIT ( * ) SI_UNIT ( .MILLI., .METRE. ) );
#100 = PLANE ( 'NONE',  #103 ) ;
#101 =( NAMED_UNIT ( * ) PLANE_ANGLE_UNIT ( ) SI_UNIT ( $, .RADIAN. ) );
#102 = PRESENTATION_LAYER_ASSIGNMENT (  '', '', ( #233 ) ) ;
#103 = AXIS2_PLACEMENT_3D ( 'NONE', #186, #167, #254 ) ;
#104 = AXIS2_PLACEMENT_3D ( 'NONE', #23, #106, #94 ) ;
#105 =( LENGTH_UNIT ( ) NAMED_UNIT ( * ) SI_UNIT ( .MILLI., .METRE. ) );
#106 = DIRECTION ( 'NONE',  ( -7.404841111123529214E-17, -1.000000000000000000, 0.000000000000000000 ) ) ;
#107 = UNCERTAINTY_MEASURE_WITH_UNIT (LENGTH_MEASURE( 1.000000000000000082E-05 ), #105, 'distance_accuracy_value', 'NONE');
#108 = DIRECTION ( 'NONE',  ( 7.404841111123529214E-17, 1.000000000000000000, -0.000000000000000000 ) ) ;
#109 = ORIENTED_EDGE ( 'NONE', *, *, #44, .T. ) ;
#110 = LINE ( 'NONE', #28, #211 ) ;
#111 = SURFACE_STYLE_FILL_AREA ( #27 ) ;
#112 = DIRECTION ( 'NONE',  ( -0.000000000000000000, -1.000000000000000000, -0.000000000000000000 ) ) ;
#113 = COLOUR_RGB ( '',1.000000000000000000, 0.000000000000000000, 0.000000000000000000 ) ;
#114 = VERTEX_POINT ( 'NONE', #117 ) ;
#115 = ADVANCED_FACE ( 'NONE', ( #204 ), #100, .F. ) ;
#116 = FACE_OUTER_BOUND ( 'NONE', #30, .T. ) ;
#117 = CARTESIAN_POINT ( 'NONE',  ( -4.999999999999992895, 63.00000000000000000, 0.000000000000000000 ) ) ;
#118 = AXIS2_PLACEMENT_3D ( 'NONE', #158, #3, #88 ) ;
#119 =( NAMED_UNIT ( * ) SI_UNIT ( $, .STERADIAN. ) SOLID_ANGLE_UNIT ( ) );
#120 = DIRECTION ( 'NONE',  ( 7.404841111123529214E-17, 1.000000000000000000, -0.000000000000000000 ) ) ;
#121 = AXIS2_PLACEMENT_3D ( 'NONE', #64, #21, #188 ) ;
#122 = ADVANCED_FACE ( 'NONE', ( #61 ), #66, .T. ) ;
#123 = MECHANICAL_DESIGN_GEOMETRIC_PRESENTATION_REPRESENTATION (  '', ( #98 ), #244 ) ;
#124 = AXIS2_PLACEMENT_3D ( 'NONE', #195, #267, #277 ) ;
#125 = EDGE_CURVE ( 'NONE', #114, #152, #249, .T. ) ;
#126 = FILL_AREA_STYLE_COLOUR ( '', #78 ) ;
#127 = CARTESIAN_POINT ( 'NONE',  ( 6.123233995736766282E-16, 0.000000000000000000, 5.000000000000000000 ) ) ;
#128 = EDGE_LOOP ( 'NONE', ( #157, #24, #2, #131 ) ) ;
#129 = LINE ( 'NONE', #217, #137 ) ;
#130 = PRODUCT_DEFINITION_CONTEXT ( 'detailed design', #255, 'design' ) ;
#131 = ORIENTED_EDGE ( 'NONE', *, *, #193, .F. ) ;
#132 =( NAMED_UNIT ( * ) SI_UNIT ( $, .STERADIAN. ) SOLID_ANGLE_UNIT ( ) );
#133 = EDGE_LOOP ( 'NONE', ( #272, #218, #91, #54 ) ) ;
#134 = CARTESIAN_POINT ( 'NONE',  ( 0.000000000000000000, 0.000000000000000000, -5.000000000000000000 ) ) ;
#135 = FILL_AREA_STYLE_COLOUR ( '', #95 ) ;
#136 = MECHANICAL_DESIGN_GEOMETRIC_PRESENTATION_REPRESENTATION (  '', ( #151 ), #209 ) ;
#137 = VECTOR ( 'NONE', #108, 1000.000000000000000 ) ;
#138 = ORIENTED_EDGE ( 'NONE', *, *, #183, .F. ) ;
#139 = FILL_AREA_STYLE ('',( #278 ) ) ;
#140 = SURFACE_STYLE_FILL_AREA ( #275 ) ;
#141 = CARTESIAN_POINT ( 'NONE',  ( 0.000000000000000000, 0.000000000000000000, -5.000000000000000000 ) ) ;
#142 =( LENGTH_UNIT ( ) NAMED_UNIT ( * ) SI_UNIT ( .MILLI., .METRE. ) );
#143 = CLOSED_SHELL ( 'NONE', ( #198, #115, #230, #226 ) ) ;
#144 =( GEOMETRIC_REPRESENTATION_CONTEXT ( 3 ) GLOBAL_UNCERTAINTY_ASSIGNED_CONTEXT ( ( #243 ) ) GLOBAL_UNIT_ASSIGNED_CONTEXT ( ( #56, #84, #168 ) ) REPRESENTATION_CONTEXT ( 'NONE', 'WORKASPACE' ) );
#145 = CARTESIAN_POINT ( 'NONE',  ( 3.184081677783117402E-15, 63.00000000000000000, 0.000000000000000000 ) ) ;
#146 = APPLICATION_PROTOCOL_DEFINITION ( 'draft international standard', 'automotive_design', 1998, #255 ) ;
#147 = DIRECTION ( 'NONE',  ( -1.000000000000000000, 0.000000000000000000, 0.000000000000000000 ) ) ;
#148 = COLOUR_RGB ( '',1.000000000000000000, 0.000000000000000000, 0.000000000000000000 ) ;
#149 = SURFACE_STYLE_USAGE ( .BOTH. , #63 ) ;
#150 = CARTESIAN_POINT ( 'NONE',  ( 0.000000000000000000, 20.00000000000000000, 0.000000000000000000 ) ) ;
#151 = STYLED_ITEM ( 'NONE', ( #259 ), #122 ) ;
#152 = VERTEX_POINT ( 'NONE', #86 ) ;
#153 = FACE_OUTER_BOUND ( 'NONE', #265, .T. ) ;
#154 = AXIS2_PLACEMENT_3D ( 'NONE', #207, #252, #83 ) ;
#155 = CIRCLE ( 'NONE', #124, 5.000000000000000000 ) ;
#156 = CARTESIAN_POINT ( 'NONE',  ( 3.184081677783117402E-15, 63.00000000000000000, 0.000000000000000000 ) ) ;
#157 = ORIENTED_EDGE ( 'NONE', *, *, #173, .F. ) ;
#158 = CARTESIAN_POINT ( 'NONE',  ( 0.000000000000000000, 20.00000000000000000, 0.000000000000000000 ) ) ;
#159 = EDGE_LOOP ( 'NONE', ( #241, #179 ) ) ;
#160 = AXIS2_PLACEMENT_3D ( 'NONE', #270, #90, #49 ) ;
#161 = DIRECTION ( 'NONE',  ( -1.000000000000000000, 0.000000000000000000, 0.000000000000000000 ) ) ;
#162 = MANIFOLD_SOLID_BREP ( 'Revolve - Tool Body (Straight Shanked)', #143 ) ;
#163 = APPLICATION_PROTOCOL_DEFINITION ( 'draft international standard', 'automotive_design', 1998, #70 ) ;
#164 =( NAMED_UNIT ( * ) PLANE_ANGLE_UNIT ( ) SI_UNIT ( $, .RADIAN. ) );
#165 =( NAMED_UNIT ( * ) PLANE_ANGLE_UNIT ( ) SI_UNIT ( $, .RADIAN. ) );
#166 = AXIS2_PLACEMENT_3D ( 'NONE', #245, #112, #240 ) ;
#167 = DIRECTION ( 'NONE',  ( 7.404841111123529214E-17, 1.000000000000000000, -0.000000000000000000 ) ) ;
#168 =( NAMED_UNIT ( * ) SI_UNIT ( $, .STERADIAN. ) SOLID_ANGLE_UNIT ( ) );
#169 = FILL_AREA_STYLE ('',( #126 ) ) ;
#170 =( LENGTH_UNIT ( ) NAMED_UNIT ( * ) SI_UNIT ( .MILLI., .METRE. ) );
#171 = FILL_AREA_STYLE ('',( #68 ) ) ;
#172 =( GEOMETRIC_REPRESENTATION_CONTEXT ( 3 ) GLOBAL_UNCERTAINTY_ASSIGNED_CONTEXT ( ( #174 ) ) GLOBAL_UNIT_ASSIGNED_CONTEXT ( ( #142, #165, #181 ) ) REPRESENTATION_CONTEXT ( 'NONE', 'WORKASPACE' ) );
#173 = EDGE_CURVE ( 'NONE', #77, #225, #110, .T. ) ;
#174 = UNCERTAINTY_MEASURE_WITH_UNIT (LENGTH_MEASURE( 1.000000000000000082E-05 ), #142, 'distance_accuracy_value', 'NONE');
#175 = ORIENTED_EDGE ( 'NONE', *, *, #193, .T. ) ;
#176 = DIRECTION ( 'NONE',  ( -0.000000000000000000, -1.000000000000000000, -0.000000000000000000 ) ) ;
#177 = VERTEX_POINT ( 'NONE', #282 ) ;
#178 = STYLED_ITEM ( 'NONE', ( #6 ), #214 ) ;
#179 = ORIENTED_EDGE ( 'NONE', *, *, #191, .F. ) ;
#180 = PRESENTATION_STYLE_ASSIGNMENT (( #221 ) ) ;
#181 =( NAMED_UNIT ( * ) SI_UNIT ( $, .STERADIAN. ) SOLID_ANGLE_UNIT ( ) );
#182 = PRESENTATION_LAYER_ASSIGNMENT (  '', '', ( #98 ) ) ;
#183 = EDGE_CURVE ( 'NONE', #93, #9, #52, .T. ) ;
#184 = FACE_OUTER_BOUND ( 'NONE', #128, .T. ) ;
#185 =( NAMED_UNIT ( * ) SI_UNIT ( $, .STERADIAN. ) SOLID_ANGLE_UNIT ( ) );
#186 = CARTESIAN_POINT ( 'NONE',  ( 1.370791797024628714E-32, 20.00000000000000000, 0.000000000000000000 ) ) ;
#187 = CARTESIAN_POINT ( 'NONE',  ( 5.000000000000000000, 20.00000000000000355, 6.123233995736765296E-16 ) ) ;
#188 = DIRECTION ( 'NONE',  ( -1.000000000000000000, 0.000000000000000000, 0.000000000000000000 ) ) ;
#189 = AXIS2_PLACEMENT_3D ( 'NONE', #79, #62, #232 ) ;
#190 = AXIS2_PLACEMENT_3D ( 'NONE', #156, #26, #45 ) ;
#191 = EDGE_CURVE ( 'NONE', #77, #93, #271, .T. ) ;
#192 =( LENGTH_UNIT ( ) NAMED_UNIT ( * ) SI_UNIT ( .MILLI., .METRE. ) );
#193 = EDGE_CURVE ( 'NONE', #225, #9, #285, .T. ) ;
#194 = FACE_OUTER_BOUND ( 'NONE', #133, .T. ) ;
#195 = CARTESIAN_POINT ( 'NONE',  ( 0.000000000000000000, 0.000000000000000000, 0.000000000000000000 ) ) ;
#196 = ORIENTED_EDGE ( 'NONE', *, *, #85, .F. ) ;
#197 = FILL_AREA_STYLE ('',( #92 ) ) ;
#198 = ADVANCED_FACE ( 'NONE', ( #75 ), #200, .T. ) ;
#199 = ORIENTED_EDGE ( 'NONE', *, *, #125, .F. ) ;
#200 = CYLINDRICAL_SURFACE ( 'NONE', #190, 4.999999999999998224 ) ;
#201 = PRESENTATION_LAYER_ASSIGNMENT (  '', '', ( #250 ) ) ;
#202 = SURFACE_SIDE_STYLE ('',( #111 ) ) ;
#203 = PRODUCT_CONTEXT ( 'NONE', #70, 'mechanical' ) ;
#204 = FACE_OUTER_BOUND ( 'NONE', #48, .T. ) ;
#205 = COLOUR_RGB ( '',1.000000000000000000, 0.000000000000000000, 0.000000000000000000 ) ;
#206 = DIRECTION ( 'NONE',  ( 0.000000000000000000, 0.000000000000000000, 1.000000000000000000 ) ) ;
#207 = CARTESIAN_POINT ( 'NONE',  ( 0.000000000000000000, 0.000000000000000000, 0.000000000000000000 ) ) ;
#208 = FILL_AREA_STYLE_COLOUR ( '', #42 ) ;
#209 =( GEOMETRIC_REPRESENTATION_CONTEXT ( 3 ) GLOBAL_UNCERTAINTY_ASSIGNED_CONTEXT ( ( #107 ) ) GLOBAL_UNIT_ASSIGNED_CONTEXT ( ( #105, #260, #283 ) ) REPRESENTATION_CONTEXT ( 'NONE', 'WORKASPACE' ) );
#210 = DIRECTION ( 'NONE',  ( -1.000000000000000000, 0.000000000000000000, 0.000000000000000000 ) ) ;
#211 = VECTOR ( 'NONE', #247, 1000.000000000000000 ) ;
#212 = SURFACE_STYLE_FILL_AREA ( #171 ) ;
#213 = UNCERTAINTY_MEASURE_WITH_UNIT (LENGTH_MEASURE( 1.000000000000000082E-05 ), #33, 'distance_accuracy_value', 'NONE');
#214 = ADVANCED_FACE ( 'NONE', ( #153 ), #264, .T. ) ;
#215 = FACE_OUTER_BOUND ( 'NONE', #50, .T. ) ;
#216 = UNCERTAINTY_MEASURE_WITH_UNIT (LENGTH_MEASURE( 1.000000000000000082E-05 ), #192, 'distance_accuracy_value', 'NONE');
#217 = CARTESIAN_POINT ( 'NONE',  ( 5.000000000000001776, 63.00000000000000000, 6.123233995736764310E-16 ) ) ;
#218 = ORIENTED_EDGE ( 'NONE', *, *, #65, .T. ) ;
#219 = PLANE ( 'NONE',  #22 ) ;
#220 = SURFACE_STYLE_FILL_AREA ( #197 ) ;
#221 = SURFACE_STYLE_USAGE ( .BOTH. , #202 ) ;
#222 = DIRECTION ( 'NONE',  ( 0.000000000000000000, 0.000000000000000000, -1.000000000000000000 ) ) ;
#223 = AXIS2_PLACEMENT_3D ( 'NONE', #145, #276, #161 ) ;
#224 = MECHANICAL_DESIGN_GEOMETRIC_PRESENTATION_REPRESENTATION (  '', ( #178 ), #263 ) ;
#225 = VERTEX_POINT ( 'NONE', #127 ) ;
#226 = ADVANCED_FACE ( 'NONE', ( #215 ), #242, .F. ) ;
#227 = AXIS2_PLACEMENT_3D ( 'NONE', #228, #36, #147 ) ;
#228 = CARTESIAN_POINT ( 'NONE',  ( 0.000000000000000000, 20.00000000000000355, 0.000000000000000000 ) ) ;
#229 = SHAPE_DEFINITION_REPRESENTATION ( #236, #47 ) ;
#230 = ADVANCED_FACE ( 'NONE', ( #194 ), #1, .T. ) ;
#231 = PRODUCT_DEFINITION ( 'UNKNOWN', '', #55, #130 ) ;
#232 = DIRECTION ( 'NONE',  ( 0.000000000000000000, 0.000000000000000000, -1.000000000000000000 ) ) ;
#233 = STYLED_ITEM ( 'NONE', ( #234 ), #162 ) ;
#234 = PRESENTATION_STYLE_ASSIGNMENT (( #149 ) ) ;
#235 = EDGE_CURVE ( 'NONE', #32, #152, #129, .T. ) ;
#236 = PRODUCT_DEFINITION_SHAPE ( 'NONE', 'NONE',  #231 ) ;
#237 = CIRCLE ( 'NONE', #262, 5.000000000000000000 ) ;
#238 = DIRECTION ( 'NONE',  ( 0.000000000000000000, 1.000000000000000000, 0.000000000000000000 ) ) ;
#239 = EDGE_CURVE ( 'NONE', #9, #225, #155, .T. ) ;
#240 = DIRECTION ( 'NONE',  ( 0.000000000000000000, 0.000000000000000000, -1.000000000000000000 ) ) ;
#241 = ORIENTED_EDGE ( 'NONE', *, *, #44, .F. ) ;
#242 = PLANE ( 'NONE',  #104 ) ;
#243 = UNCERTAINTY_MEASURE_WITH_UNIT (LENGTH_MEASURE( 1.000000000000000082E-05 ), #56, 'distance_accuracy_value', 'NONE');
#244 =( GEOMETRIC_REPRESENTATION_CONTEXT ( 3 ) GLOBAL_UNCERTAINTY_ASSIGNED_CONTEXT ( ( #213 ) ) GLOBAL_UNIT_ASSIGNED_CONTEXT ( ( #33, #164, #119 ) ) REPRESENTATION_CONTEXT ( 'NONE', 'WORKASPACE' ) );
#245 = CARTESIAN_POINT ( 'NONE',  ( 0.000000000000000000, 0.000000000000000000, 0.000000000000000000 ) ) ;
#246 = ORIENTED_EDGE ( 'NONE', *, *, #65, .F. ) ;
#247 = DIRECTION ( 'NONE',  ( -0.000000000000000000, -1.000000000000000000, -0.000000000000000000 ) ) ;
#248 = ORIENTED_EDGE ( 'NONE', *, *, #235, .T. ) ;
#249 = CIRCLE ( 'NONE', #121, 4.999999999999996447 ) ;
#250 = STYLED_ITEM ( 'NONE', ( #16 ), #261 ) ;
#251 = CARTESIAN_POINT ( 'NONE',  ( 0.000000000000000000, 20.00000000000000355, 0.000000000000000000 ) ) ;
#252 = DIRECTION ( 'NONE',  ( -0.000000000000000000, -1.000000000000000000, -0.000000000000000000 ) ) ;
#253 = CYLINDRICAL_SURFACE ( 'NONE', #154, 5.000000000000000000 ) ;
#254 = DIRECTION ( 'NONE',  ( -1.000000000000000000, 7.404841111123529214E-17, 0.000000000000000000 ) ) ;
#255 = APPLICATION_CONTEXT ( 'automotive_design' ) ;
#256 = LINE ( 'NONE', #59, #284 ) ;
#257 = SURFACE_STYLE_FILL_AREA ( #169 ) ;
#258 = PRESENTATION_LAYER_ASSIGNMENT (  '', '', ( #18 ) ) ;
#259 = PRESENTATION_STYLE_ASSIGNMENT (( #281 ) ) ;
#260 =( NAMED_UNIT ( * ) PLANE_ANGLE_UNIT ( ) SI_UNIT ( $, .RADIAN. ) );
#261 = MANIFOLD_SOLID_BREP ( 'Revolve - Cutting Edge', #41 ) ;
#262 = AXIS2_PLACEMENT_3D ( 'NONE', #251, #120, #210 ) ;
#263 =( GEOMETRIC_REPRESENTATION_CONTEXT ( 3 ) GLOBAL_UNCERTAINTY_ASSIGNED_CONTEXT ( ( #216 ) ) GLOBAL_UNIT_ASSIGNED_CONTEXT ( ( #192, #273, #132 ) ) REPRESENTATION_CONTEXT ( 'NONE', 'WORKASPACE' ) );
#264 = CYLINDRICAL_SURFACE ( 'NONE', #11, 5.000000000000000000 ) ;
#265 = EDGE_LOOP ( 'NONE', ( #109, #71, #269, #138 ) ) ;
#266 = SURFACE_STYLE_USAGE ( .BOTH. , #31 ) ;
#267 = DIRECTION ( 'NONE',  ( -0.000000000000000000, -1.000000000000000000, -0.000000000000000000 ) ) ;
#268 =( GEOMETRIC_REPRESENTATION_CONTEXT ( 3 ) GLOBAL_UNCERTAINTY_ASSIGNED_CONTEXT ( ( #286 ) ) GLOBAL_UNIT_ASSIGNED_CONTEXT ( ( #170, #25, #287 ) ) REPRESENTATION_CONTEXT ( 'NONE', 'WORKASPACE' ) );
#269 = ORIENTED_EDGE ( 'NONE', *, *, #239, .F. ) ;
#270 = CARTESIAN_POINT ( 'NONE',  ( 3.184081677783117402E-15, 63.00000000000000000, 0.000000000000000000 ) ) ;
#271 = CIRCLE ( 'NONE', #118, 5.000000000000000000 ) ;
#272 = ORIENTED_EDGE ( 'NONE', *, *, #235, .F. ) ;
#273 =( NAMED_UNIT ( * ) PLANE_ANGLE_UNIT ( ) SI_UNIT ( $, .RADIAN. ) );
#274 = ORIENTED_EDGE ( 'NONE', *, *, #239, .T. ) ;
#275 = FILL_AREA_STYLE ('',( #208 ) ) ;
#276 = DIRECTION ( 'NONE',  ( 7.404841111123529214E-17, 1.000000000000000000, -0.000000000000000000 ) ) ;
#277 = DIRECTION ( 'NONE',  ( 0.000000000000000000, 0.000000000000000000, -1.000000000000000000 ) ) ;
#278 = FILL_AREA_STYLE_COLOUR ( '', #205 ) ;
#279 = SURFACE_STYLE_USAGE ( .BOTH. , #58 ) ;
#280 = CIRCLE ( 'NONE', #227, 5.000000000000000000 ) ;
#281 = SURFACE_STYLE_USAGE ( .BOTH. , #20 ) ;
#282 = CARTESIAN_POINT ( 'NONE',  ( -5.000000000000000000, 20.00000000000000355, 0.000000000000000000 ) ) ;
#283 =( NAMED_UNIT ( * ) SI_UNIT ( $, .STERADIAN. ) SOLID_ANGLE_UNIT ( ) );
#284 = VECTOR ( 'NONE', #17, 1000.000000000000000 ) ;
#285 = CIRCLE ( 'NONE', #166, 5.000000000000000000 ) ;
#286 = UNCERTAINTY_MEASURE_WITH_UNIT (LENGTH_MEASURE( 1.000000000000000082E-05 ), #170, 'distance_accuracy_value', 'NONE');
#287 =( NAMED_UNIT ( * ) SI_UNIT ( $, .STERADIAN. ) SOLID_ANGLE_UNIT ( ) );
#288 = MECHANICAL_DESIGN_GEOMETRIC_PRESENTATION_REPRESENTATION (  '', ( #250 ), #172 ) ;
ENDSEC;
END-ISO-10303-21;
