ISO-10303-21;
HEADER;
FILE_DESCRIPTION (( 'STEP AP214' ),
    '1' );
FILE_NAME ('Micro_GEM-171-4X.STEP',
    '2021-09-01T19:58:36',
    ( '' ),
    ( '' ),
    'SwSTEP 2.0',
    'SolidWorks 2020',
    '' );
FILE_SCHEMA (( 'AUTOMOTIVE_DESIGN' ));
ENDSEC;

DATA;
#1 = AXIS2_PLACEMENT_3D ( 'NONE', #31, #264, #143 ) ;
#2 = DIRECTION ( 'NONE',  ( -1.224646799147353207E-16, -0.0000000000000000000, -1.000000000000000000 ) ) ;
#3 = DIRECTION ( 'NONE',  ( 1.000000000000000000, 0.0000000000000000000, 0.0000000000000000000 ) ) ;
#4 = ORIENTED_EDGE ( 'NONE', *, *, #203, .T. ) ;
#5 = VECTOR ( 'NONE', #15, 39.37007874015748143 ) ;
#6 = PRODUCT_CONTEXT ( 'NONE', #247, 'mechanical' ) ;
#7 = EDGE_LOOP ( 'NONE', ( #72, #114, #259, #280 ) ) ;
#8 =( LENGTH_UNIT ( ) NAMED_UNIT ( * ) SI_UNIT ( $, .METRE. ) );
#9 = APPLICATION_PROTOCOL_DEFINITION ( 'draft international standard', 'automotive_design', 1998, #281 ) ;
#10 = CIRCLE ( 'NONE', #184, 0.09375000000000001388 ) ;
#11 = AXIS2_PLACEMENT_3D ( 'NONE', #48, #113, #210 ) ;
#12 = CARTESIAN_POINT ( 'NONE',  ( -0.08586404999999999732, 0.0000000000000000000, 2.103062679886566065E-17 ) ) ;
#13 = FILL_AREA_STYLE ('',( #220 ) ) ;
#14 = ADVANCED_FACE ( 'NONE', ( #96 ), #33, .F. ) ;
#15 = DIRECTION ( 'NONE',  ( -0.0000000000000000000, -0.0000000000000000000, -1.000000000000000000 ) ) ;
#16 =( CONVERSION_BASED_UNIT ( 'INCH', #289 ) LENGTH_UNIT ( ) NAMED_UNIT ( #77 ) );
#17 = CARTESIAN_POINT ( 'NONE',  ( 7.654042494670957853E-17, 0.0000000000000000000, 0.6250000000000000000 ) ) ;
#18 = FACE_OUTER_BOUND ( 'NONE', #58, .T. ) ;
#19 = DIRECTION ( 'NONE',  ( -1.224646799147353207E-16, -0.0000000000000000000, -1.000000000000000000 ) ) ;
#20 = AXIS2_PLACEMENT_3D ( 'NONE', #42, #202, #3 ) ;
#21 = EDGE_CURVE ( 'NONE', #165, #47, #124, .T. ) ;
#22 = PRODUCT_DEFINITION_FORMATION_WITH_SPECIFIED_SOURCE ( 'ANY', '', #55, .NOT_KNOWN. ) ;
#23 = LINE ( 'NONE', #297, #270 ) ;
#24 =( LENGTH_UNIT ( ) NAMED_UNIT ( * ) SI_UNIT ( $, .METRE. ) );
#25 = EDGE_CURVE ( 'NONE', #213, #116, #103, .T. ) ;
#26 = ORIENTED_EDGE ( 'NONE', *, *, #224, .T. ) ;
#27 = CIRCLE ( 'NONE', #192, 0.08586404999999999732 ) ;
#28 = EDGE_LOOP ( 'NONE', ( #109, #187, #4, #92 ) ) ;
#29 = FILL_AREA_STYLE_COLOUR ( '', #177 ) ;
#30 = ORIENTED_EDGE ( 'NONE', *, *, #155, .F. ) ;
#31 = CARTESIAN_POINT ( 'NONE',  ( 0.0000000000000000000, 0.0000000000000000000, 0.0000000000000000000 ) ) ;
#32 = ADVANCED_BREP_SHAPE_REPRESENTATION ( 'Micro_GEM-171-4X', ( #39, #1 ), #91 ) ;
#33 = PLANE ( 'NONE',  #241 ) ;
#34 = DIRECTION ( 'NONE',  ( 1.000000000000000000, 0.0000000000000000000, 0.0000000000000000000 ) ) ;
#35 = EDGE_CURVE ( 'NONE', #228, #213, #239, .T. ) ;
#36 = DIRECTION ( 'NONE',  ( 1.000000000000000000, 0.0000000000000000000, 0.0000000000000000000 ) ) ;
#37 = MECHANICAL_DESIGN_GEOMETRIC_PRESENTATION_REPRESENTATION (  '', ( #298 ), #254 ) ;
#38 = CARTESIAN_POINT ( 'NONE',  ( 0.0000000000000000000, 0.0000000000000000000, 0.0000000000000000000 ) ) ;
#39 = MANIFOLD_SOLID_BREP ( 'Cut-Revolve1', #64 ) ;
#40 = CARTESIAN_POINT ( 'NONE',  ( 0.08586405000000006671, 0.0000000000000000000, 0.6250000000000000000 ) ) ;
#41 = DIRECTION ( 'NONE',  ( 1.224646799147353207E-16, 0.0000000000000000000, 1.000000000000000000 ) ) ;
#42 = CARTESIAN_POINT ( 'NONE',  ( 0.0000000000000000000, 0.0000000000000000000, 2.000000000000000000 ) ) ;
#43 = DIRECTION ( 'NONE',  ( -1.000000000000000000, 0.0000000000000000000, 1.224646799147353454E-16 ) ) ;
#44 = DIRECTION ( 'NONE',  ( -1.224646799147353207E-16, -0.0000000000000000000, -1.000000000000000000 ) ) ;
#45 = DIRECTION ( 'NONE',  ( -1.000000000000000000, 0.0000000000000000000, 0.0000000000000000000 ) ) ;
#46 = CIRCLE ( 'NONE', #120, 0.09375000000000001388 ) ;
#47 = VERTEX_POINT ( 'NONE', #12 ) ;
#48 = CARTESIAN_POINT ( 'NONE',  ( 0.0000000000000000000, 0.0000000000000000000, 2.000000000000000000 ) ) ;
#49 = ORIENTED_EDGE ( 'NONE', *, *, #86, .T. ) ;
#50 = LINE ( 'NONE', #214, #218 ) ;
#51 = ORIENTED_EDGE ( 'NONE', *, *, #164, .T. ) ;
#52 = ORIENTED_EDGE ( 'NONE', *, *, #291, .T. ) ;
#53 = AXIS2_PLACEMENT_3D ( 'NONE', #132, #100, #223 ) ;
#54 = VERTEX_POINT ( 'NONE', #191 ) ;
#55 = PRODUCT ( 'Micro_GEM-171-4X', 'Micro_GEM-171-4X', '', ( #6 ) ) ;
#56 = ORIENTED_EDGE ( 'NONE', *, *, #138, .F. ) ;
#57 = CIRCLE ( 'NONE', #242, 0.08586404999999999732 ) ;
#58 = EDGE_LOOP ( 'NONE', ( #204, #145, #127, #74 ) ) ;
#59 = PRODUCT_DEFINITION ( 'UNKNOWN', '', #22, #97 ) ;
#60 = DIRECTION ( 'NONE',  ( -1.224646799147353207E-16, -0.0000000000000000000, -1.000000000000000000 ) ) ;
#61 = CIRCLE ( 'NONE', #279, 0.09375000000000001388 ) ;
#62 = DIRECTION ( 'NONE',  ( -0.7071067811865463515, 0.0000000000000000000, -0.7071067811865486830 ) ) ;
#63 = CYLINDRICAL_SURFACE ( 'NONE', #207, 0.08586404999999999732 ) ;
#64 = CLOSED_SHELL ( 'NONE', ( #172, #235, #106, #149, #119, #299, #126, #249, #115, #14 ) ) ;
#65 = DIRECTION ( 'NONE',  ( -1.224646799147353207E-16, -0.0000000000000000000, -1.000000000000000000 ) ) ;
#66 = EDGE_CURVE ( 'NONE', #234, #228, #61, .T. ) ;
#67 = DIRECTION ( 'NONE',  ( -0.1736481776669311639, 2.126576849575782392E-17, 0.9848077530122080203 ) ) ;
#68 = CARTESIAN_POINT ( 'NONE',  ( -0.07874999999999980627, 0.0000000000000000000, 2.000000000000000000 ) ) ;
#69 = AXIS2_PLACEMENT_3D ( 'NONE', #273, #129, #178 ) ;
#70 = LENGTH_MEASURE_WITH_UNIT ( LENGTH_MEASURE( 0.02539999999999999897 ), #8 );
#71 = SURFACE_SIDE_STYLE ('',( #205 ) ) ;
#72 = ORIENTED_EDGE ( 'NONE', *, *, #130, .F. ) ;
#73 =( CONVERSION_BASED_UNIT ( 'INCH', #70 ) LENGTH_UNIT ( ) NAMED_UNIT ( #293 ) );
#74 = ORIENTED_EDGE ( 'NONE', *, *, #287, .F. ) ;
#75 = VECTOR ( 'NONE', #245, 39.37007874015748143 ) ;
#76 = CARTESIAN_POINT ( 'NONE',  ( 7.654042494670957853E-17, 0.0000000000000000000, 0.6250000000000000000 ) ) ;
#77 = DIMENSIONAL_EXPONENTS ( 1.000000000000000000, 0.0000000000000000000, 0.0000000000000000000, 0.0000000000000000000, 0.0000000000000000000, 0.0000000000000000000, 0.0000000000000000000 ) ;
#78 = PRESENTATION_LAYER_ASSIGNMENT (  '', '', ( #105 ) ) ;
#79 = CARTESIAN_POINT ( 'NONE',  ( 0.0000000000000000000, 0.0000000000000000000, 0.0000000000000000000 ) ) ;
#80 = EDGE_CURVE ( 'NONE', #111, #54, #227, .T. ) ;
#81 = UNCERTAINTY_MEASURE_WITH_UNIT (LENGTH_MEASURE( 1.000000000000000082E-05 ), #16, 'distance_accuracy_value', 'NONE');
#82 = PRESENTATION_LAYER_ASSIGNMENT (  '', '', ( #298 ) ) ;
#83 = DIRECTION ( 'NONE',  ( -1.000000000000000000, 0.0000000000000000000, 1.224646799147353454E-16 ) ) ;
#84 = FACE_OUTER_BOUND ( 'NONE', #236, .T. ) ;
#85 = CARTESIAN_POINT ( 'NONE',  ( -0.07874999999999980627, 0.0000000000000000000, 2.000000000000000000 ) ) ;
#86 = EDGE_CURVE ( 'NONE', #234, #116, #122, .T. ) ;
#87 = AXIS2_PLACEMENT_3D ( 'NONE', #170, #146, #216 ) ;
#88 = CARTESIAN_POINT ( 'NONE',  ( 0.08586404999999999732, 1.051531339943283032E-17, 0.0000000000000000000 ) ) ;
#89 = FACE_OUTER_BOUND ( 'NONE', #265, .T. ) ;
#90 = ORIENTED_EDGE ( 'NONE', *, *, #269, .T. ) ;
#91 =( GEOMETRIC_REPRESENTATION_CONTEXT ( 3 ) GLOBAL_UNCERTAINTY_ASSIGNED_CONTEXT ( ( #244 ) ) GLOBAL_UNIT_ASSIGNED_CONTEXT ( ( #186, #232, #286 ) ) REPRESENTATION_CONTEXT ( 'NONE', 'WORKASPACE' ) );
#92 = ORIENTED_EDGE ( 'NONE', *, *, #66, .F. ) ;
#93 = FACE_OUTER_BOUND ( 'NONE', #7, .T. ) ;
#94 = CARTESIAN_POINT ( 'NONE',  ( -0.09375000000000001388, 0.0000000000000000000, 2.000000000000000000 ) ) ;
#95 = DIRECTION ( 'NONE',  ( -1.224646799147353207E-16, -0.0000000000000000000, -1.000000000000000000 ) ) ;
#96 = FACE_OUTER_BOUND ( 'NONE', #136, .T. ) ;
#97 = PRODUCT_DEFINITION_CONTEXT ( 'detailed design', #281, 'design' ) ;
#98 = VECTOR ( 'NONE', #295, 39.37007874015748143 ) ;
#99 = DIRECTION ( 'NONE',  ( 1.000000000000000000, 0.0000000000000000000, 0.0000000000000000000 ) ) ;
#100 = DIRECTION ( 'NONE',  ( 0.0000000000000000000, 0.0000000000000000000, -1.000000000000000000 ) ) ;
#101 = UNCERTAINTY_MEASURE_WITH_UNIT (LENGTH_MEASURE( 1.000000000000000082E-05 ), #73, 'distance_accuracy_value', 'NONE');
#102 = DIRECTION ( 'NONE',  ( 1.224646799147353207E-16, 0.0000000000000000000, 1.000000000000000000 ) ) ;
#103 = CIRCLE ( 'NONE', #285, 0.09375000000000001388 ) ;
#104 = CYLINDRICAL_SURFACE ( 'NONE', #237, 0.09375000000000001388 ) ;
#105 = STYLED_ITEM ( 'NONE', ( #162 ), #32 ) ;
#106 = ADVANCED_FACE ( 'NONE', ( #93 ), #195, .T. ) ;
#107 = ORIENTED_EDGE ( 'NONE', *, *, #35, .F. ) ;
#108 = CARTESIAN_POINT ( 'NONE',  ( 0.07874999999999980627, 9.644093543285380530E-18, 2.000000000000000000 ) ) ;
#109 = ORIENTED_EDGE ( 'NONE', *, *, #188, .F. ) ;
#110 = FILL_AREA_STYLE ('',( #29 ) ) ;
#111 = VERTEX_POINT ( 'NONE', #40 ) ;
#112 = AXIS2_PLACEMENT_3D ( 'NONE', #79, #60, #148 ) ;
#113 = DIRECTION ( 'NONE',  ( 0.0000000000000000000, 0.0000000000000000000, 1.000000000000000000 ) ) ;
#114 = ORIENTED_EDGE ( 'NONE', *, *, #188, .T. ) ;
#115 = ADVANCED_FACE ( 'NONE', ( #267 ), #193, .T. ) ;
#116 = VERTEX_POINT ( 'NONE', #240 ) ;
#117 = ORIENTED_EDGE ( 'NONE', *, *, #21, .F. ) ;
#118 = APPLICATION_PROTOCOL_DEFINITION ( 'draft international standard', 'automotive_design', 1998, #247 ) ;
#119 = ADVANCED_FACE ( 'NONE', ( #18 ), #104, .T. ) ;
#120 = AXIS2_PLACEMENT_3D ( 'NONE', #189, #258, #166 ) ;
#121 = PRESENTATION_STYLE_ASSIGNMENT (( #238 ) ) ;
#122 = LINE ( 'NONE', #123, #75 ) ;
#123 = CARTESIAN_POINT ( 'NONE',  ( 0.09375000000000001388, 1.148106374200643863E-17, 2.000000000000000000 ) ) ;
#124 = CIRCLE ( 'NONE', #260, 0.08586404999999999732 ) ;
#125 = ORIENTED_EDGE ( 'NONE', *, *, #287, .T. ) ;
#126 = ADVANCED_FACE ( 'NONE', ( #154 ), #151, .T. ) ;
#127 = ORIENTED_EDGE ( 'NONE', *, *, #35, .T. ) ;
#128 = DIRECTION ( 'NONE',  ( 1.000000000000000000, 0.0000000000000000000, -0.0000000000000000000 ) ) ;
#129 = DIRECTION ( 'NONE',  ( -0.0000000000000000000, -0.0000000000000000000, -1.000000000000000000 ) ) ;
#130 = EDGE_CURVE ( 'NONE', #211, #282, #169, .T. ) ;
#131 =( GEOMETRIC_REPRESENTATION_CONTEXT ( 3 ) GLOBAL_UNCERTAINTY_ASSIGNED_CONTEXT ( ( #101 ) ) GLOBAL_UNIT_ASSIGNED_CONTEXT ( ( #73, #256, #168 ) ) REPRESENTATION_CONTEXT ( 'NONE', 'WORKASPACE' ) );
#132 = CARTESIAN_POINT ( 'NONE',  ( 0.0000000000000000000, 0.0000000000000000000, 2.000000000000000000 ) ) ;
#133 = CARTESIAN_POINT ( 'NONE',  ( 7.654042494670957853E-17, 0.0000000000000000000, 0.6250000000000000000 ) ) ;
#134 = EDGE_CURVE ( 'NONE', #47, #165, #57, .T. ) ;
#135 = CARTESIAN_POINT ( 'NONE',  ( 1.287754489664668799E-33, 0.0000000000000000000, 1.051531339943283032E-17 ) ) ;
#136 = EDGE_LOOP ( 'NONE', ( #263, #139 ) ) ;
#137 = CARTESIAN_POINT ( 'NONE',  ( -0.09374999999999991673, 0.0000000000000000000, 0.6697234448654140193 ) ) ;
#138 = EDGE_CURVE ( 'NONE', #111, #165, #274, .T. ) ;
#139 = ORIENTED_EDGE ( 'NONE', *, *, #21, .T. ) ;
#140 = CONICAL_SURFACE ( 'NONE', #215, 0.08586404999999999732, 0.1745329251994338360 ) ;
#141 = ORIENTED_EDGE ( 'NONE', *, *, #25, .F. ) ;
#142 = LENGTH_MEASURE_WITH_UNIT ( LENGTH_MEASURE( 0.02539999999999999897 ), #24 );
#143 = DIRECTION ( 'NONE',  ( 1.000000000000000000, 0.0000000000000000000, 0.0000000000000000000 ) ) ;
#144 = COLOUR_RGB ( '',0.7921568627450980005, 0.8196078431372548767, 0.9333333333333333481 ) ;
#145 = ORIENTED_EDGE ( 'NONE', *, *, #66, .T. ) ;
#146 = DIRECTION ( 'NONE',  ( 0.0000000000000000000, 0.0000000000000000000, -1.000000000000000000 ) ) ;
#147 = ORIENTED_EDGE ( 'NONE', *, *, #134, .F. ) ;
#148 = DIRECTION ( 'NONE',  ( -1.000000000000000000, 0.0000000000000000000, 1.224646799147353454E-16 ) ) ;
#149 = ADVANCED_FACE ( 'NONE', ( #198 ), #179, .T. ) ;
#150 = SURFACE_SIDE_STYLE ('',( #221 ) ) ;
#151 = CONICAL_SURFACE ( 'NONE', #53, 0.07874999999999980627, 0.7853981633974466137 ) ;
#152 = CIRCLE ( 'NONE', #294, 0.07874999999999980627 ) ;
#153 = CARTESIAN_POINT ( 'NONE',  ( 0.0000000000000000000, 0.0000000000000000000, 1.984999999999999654 ) ) ;
#154 = FACE_OUTER_BOUND ( 'NONE', #28, .T. ) ;
#155 = EDGE_CURVE ( 'NONE', #54, #213, #23, .T. ) ;
#156 = LINE ( 'NONE', #108, #217 ) ;
#157 = VECTOR ( 'NONE', #62, 39.37007874015748143 ) ;
#158 = LINE ( 'NONE', #85, #157 ) ;
#159 = DIRECTION ( 'NONE',  ( 0.0000000000000000000, 0.0000000000000000000, -1.000000000000000000 ) ) ;
#160 = FACE_OUTER_BOUND ( 'NONE', #167, .T. ) ;
#161 = ORIENTED_EDGE ( 'NONE', *, *, #130, .T. ) ;
#162 = PRESENTATION_STYLE_ASSIGNMENT (( #283 ) ) ;
#163 = MECHANICAL_DESIGN_GEOMETRIC_PRESENTATION_REPRESENTATION (  '', ( #105 ), #131 ) ;
#164 = EDGE_CURVE ( 'NONE', #228, #234, #10, .T. ) ;
#165 = VERTEX_POINT ( 'NONE', #88 ) ;
#166 = DIRECTION ( 'NONE',  ( 1.000000000000000000, 0.0000000000000000000, 0.0000000000000000000 ) ) ;
#167 = EDGE_LOOP ( 'NONE', ( #26, #277, #147, #230 ) ) ;
#168 =( NAMED_UNIT ( * ) SI_UNIT ( $, .STERADIAN. ) SOLID_ANGLE_UNIT ( ) );
#169 = CIRCLE ( 'NONE', #20, 0.07874999999999980627 ) ;
#170 = CARTESIAN_POINT ( 'NONE',  ( 0.0000000000000000000, 0.0000000000000000000, 2.000000000000000000 ) ) ;
#171 = DIRECTION ( 'NONE',  ( -1.224646799147353207E-16, -0.0000000000000000000, -1.000000000000000000 ) ) ;
#172 = ADVANCED_FACE ( 'NONE', ( #160 ), #63, .T. ) ;
#173 = ORIENTED_EDGE ( 'NONE', *, *, #155, .T. ) ;
#174 = PRODUCT_DEFINITION_SHAPE ( 'NONE', 'NONE',  #59 ) ;
#175 = EDGE_LOOP ( 'NONE', ( #90, #161 ) ) ;
#176 = DIRECTION ( 'NONE',  ( 0.0000000000000000000, 0.0000000000000000000, -1.000000000000000000 ) ) ;
#177 = COLOUR_RGB ( '',0.7921568627450980005, 0.8196078431372548767, 0.9333333333333333481 ) ;
#178 = DIRECTION ( 'NONE',  ( -1.000000000000000000, 0.0000000000000000000, 0.0000000000000000000 ) ) ;
#179 = CYLINDRICAL_SURFACE ( 'NONE', #69, 0.09375000000000001388 ) ;
#180 = DIRECTION ( 'NONE',  ( -1.000000000000000000, 0.0000000000000000000, 0.0000000000000000000 ) ) ;
#181 = DIRECTION ( 'NONE',  ( 0.7071067811865463515, 8.659560562354916834E-17, -0.7071067811865486830 ) ) ;
#182 = DIRECTION ( 'NONE',  ( 0.0000000000000000000, 0.0000000000000000000, 1.000000000000000000 ) ) ;
#183 = DIRECTION ( 'NONE',  ( 0.1736481776669313304, 0.0000000000000000000, 0.9848077530122077983 ) ) ;
#184 = AXIS2_PLACEMENT_3D ( 'NONE', #296, #159, #246 ) ;
#185 = ORIENTED_EDGE ( 'NONE', *, *, #261, .T. ) ;
#186 =( CONVERSION_BASED_UNIT ( 'INCH', #142 ) LENGTH_UNIT ( ) NAMED_UNIT ( #219 ) );
#187 = ORIENTED_EDGE ( 'NONE', *, *, #269, .F. ) ;
#188 = EDGE_CURVE ( 'NONE', #211, #234, #156, .T. ) ;
#189 = CARTESIAN_POINT ( 'NONE',  ( 8.201746730683681886E-17, 0.0000000000000000000, 0.6697234448654140193 ) ) ;
#190 = SHAPE_DEFINITION_REPRESENTATION ( #174, #32 ) ;
#191 = CARTESIAN_POINT ( 'NONE',  ( -0.08586404999999992793, 1.099818857071963216E-17, 0.6250000000000000000 ) ) ;
#192 = AXIS2_PLACEMENT_3D ( 'NONE', #275, #44, #45 ) ;
#193 = CYLINDRICAL_SURFACE ( 'NONE', #112, 0.08586404999999999732 ) ;
#194 = DIRECTION ( 'NONE',  ( -1.224646799147353207E-16, -0.0000000000000000000, -1.000000000000000000 ) ) ;
#195 = CONICAL_SURFACE ( 'NONE', #87, 0.07874999999999980627, 0.7853981633974466137 ) ;
#196 = CARTESIAN_POINT ( 'NONE',  ( 0.0000000000000000000, 0.0000000000000000000, 2.000000000000000000 ) ) ;
#197 = CARTESIAN_POINT ( 'NONE',  ( 0.08586404999999999732, 1.051531339943283032E-17, -1.051531339943283032E-17 ) ) ;
#198 = FACE_OUTER_BOUND ( 'NONE', #206, .T. ) ;
#199 = AXIS2_PLACEMENT_3D ( 'NONE', #76, #171, #271 ) ;
#200 = CONICAL_SURFACE ( 'NONE', #255, 0.08586404999999999732, 0.1745329251994338360 ) ;
#201 = CARTESIAN_POINT ( 'NONE',  ( 0.0000000000000000000, 0.0000000000000000000, 2.000000000000000000 ) ) ;
#202 = DIRECTION ( 'NONE',  ( 0.0000000000000000000, 0.0000000000000000000, 1.000000000000000000 ) ) ;
#203 = EDGE_CURVE ( 'NONE', #282, #228, #158, .T. ) ;
#204 = ORIENTED_EDGE ( 'NONE', *, *, #86, .F. ) ;
#205 = SURFACE_STYLE_FILL_AREA ( #110 ) ;
#206 = EDGE_LOOP ( 'NONE', ( #51, #49, #141, #107 ) ) ;
#207 = AXIS2_PLACEMENT_3D ( 'NONE', #226, #2, #43 ) ;
#208 = PLANE ( 'NONE',  #11 ) ;
#209 = ORIENTED_EDGE ( 'NONE', *, *, #80, .F. ) ;
#210 = DIRECTION ( 'NONE',  ( 1.000000000000000000, 0.0000000000000000000, -0.0000000000000000000 ) ) ;
#211 = VERTEX_POINT ( 'NONE', #225 ) ;
#212 = ORIENTED_EDGE ( 'NONE', *, *, #25, .T. ) ;
#213 = VERTEX_POINT ( 'NONE', #137 ) ;
#214 = CARTESIAN_POINT ( 'NONE',  ( 0.08586405000000006671, 0.0000000000000000000, 0.6250000000000000000 ) ) ;
#215 = AXIS2_PLACEMENT_3D ( 'NONE', #133, #41, #222 ) ;
#216 = DIRECTION ( 'NONE',  ( -1.000000000000000000, 0.0000000000000000000, 0.0000000000000000000 ) ) ;
#217 = VECTOR ( 'NONE', #181, 39.37007874015748143 ) ;
#218 = VECTOR ( 'NONE', #183, 39.37007874015748143 ) ;
#219 = DIMENSIONAL_EXPONENTS ( 1.000000000000000000, 0.0000000000000000000, 0.0000000000000000000, 0.0000000000000000000, 0.0000000000000000000, 0.0000000000000000000, 0.0000000000000000000 ) ;
#220 = FILL_AREA_STYLE_COLOUR ( '', #144 ) ;
#221 = SURFACE_STYLE_FILL_AREA ( #13 ) ;
#222 = DIRECTION ( 'NONE',  ( 1.000000000000000000, 0.0000000000000000000, 0.0000000000000000000 ) ) ;
#223 = DIRECTION ( 'NONE',  ( -1.000000000000000000, 0.0000000000000000000, 0.0000000000000000000 ) ) ;
#224 = EDGE_CURVE ( 'NONE', #54, #111, #27, .T. ) ;
#225 = CARTESIAN_POINT ( 'NONE',  ( 0.07874999999999980627, 1.056257864264590573E-17, 2.000000000000000000 ) ) ;
#226 = CARTESIAN_POINT ( 'NONE',  ( 0.0000000000000000000, 0.0000000000000000000, 0.0000000000000000000 ) ) ;
#227 = CIRCLE ( 'NONE', #199, 0.08586404999999999732 ) ;
#228 = VERTEX_POINT ( 'NONE', #272 ) ;
#229 = DIRECTION ( 'NONE',  ( -1.000000000000000000, 0.0000000000000000000, 1.224646799147353454E-16 ) ) ;
#230 = ORIENTED_EDGE ( 'NONE', *, *, #261, .F. ) ;
#231 = EDGE_LOOP ( 'NONE', ( #56, #257, #185, #117 ) ) ;
#232 =( NAMED_UNIT ( * ) PLANE_ANGLE_UNIT ( ) SI_UNIT ( $, .RADIAN. ) );
#233 = ORIENTED_EDGE ( 'NONE', *, *, #291, .F. ) ;
#234 = VERTEX_POINT ( 'NONE', #250 ) ;
#235 = ADVANCED_FACE ( 'NONE', ( #84 ), #140, .T. ) ;
#236 = EDGE_LOOP ( 'NONE', ( #284, #173, #212, #233 ) ) ;
#237 = AXIS2_PLACEMENT_3D ( 'NONE', #196, #253, #180 ) ;
#238 = SURFACE_STYLE_USAGE ( .BOTH. , #150 ) ;
#239 = LINE ( 'NONE', #94, #5 ) ;
#240 = CARTESIAN_POINT ( 'NONE',  ( 0.09375000000000009714, 1.148106374200644787E-17, 0.6697234448654140193 ) ) ;
#241 = AXIS2_PLACEMENT_3D ( 'NONE', #38, #268, #128 ) ;
#242 = AXIS2_PLACEMENT_3D ( 'NONE', #135, #65, #229 ) ;
#243 =( LENGTH_UNIT ( ) NAMED_UNIT ( * ) SI_UNIT ( $, .METRE. ) );
#244 = UNCERTAINTY_MEASURE_WITH_UNIT (LENGTH_MEASURE( 1.000000000000000082E-05 ), #186, 'distance_accuracy_value', 'NONE');
#245 = DIRECTION ( 'NONE',  ( -0.0000000000000000000, -0.0000000000000000000, -1.000000000000000000 ) ) ;
#246 = DIRECTION ( 'NONE',  ( 1.000000000000000000, 0.0000000000000000000, 0.0000000000000000000 ) ) ;
#247 = APPLICATION_CONTEXT ( 'automotive_design' ) ;
#248 = LINE ( 'NONE', #251, #262 ) ;
#249 = ADVANCED_FACE ( 'NONE', ( #89 ), #200, .T. ) ;
#250 = CARTESIAN_POINT ( 'NONE',  ( 0.09375000000000001388, 1.148106374200643863E-17, 1.984999999999999654 ) ) ;
#251 = CARTESIAN_POINT ( 'NONE',  ( -0.08586404999999999732, 0.0000000000000000000, 1.051531339943283032E-17 ) ) ;
#252 = PRODUCT_RELATED_PRODUCT_CATEGORY ( 'part', '', ( #55 ) ) ;
#253 = DIRECTION ( 'NONE',  ( -0.0000000000000000000, -0.0000000000000000000, -1.000000000000000000 ) ) ;
#254 =( GEOMETRIC_REPRESENTATION_CONTEXT ( 3 ) GLOBAL_UNCERTAINTY_ASSIGNED_CONTEXT ( ( #81 ) ) GLOBAL_UNIT_ASSIGNED_CONTEXT ( ( #16, #288, #292 ) ) REPRESENTATION_CONTEXT ( 'NONE', 'WORKASPACE' ) );
#255 = AXIS2_PLACEMENT_3D ( 'NONE', #17, #102, #99 ) ;
#256 =( NAMED_UNIT ( * ) PLANE_ANGLE_UNIT ( ) SI_UNIT ( $, .RADIAN. ) );
#257 = ORIENTED_EDGE ( 'NONE', *, *, #80, .T. ) ;
#258 = DIRECTION ( 'NONE',  ( -1.224646799147353207E-16, -0.0000000000000000000, -1.000000000000000000 ) ) ;
#259 = ORIENTED_EDGE ( 'NONE', *, *, #164, .F. ) ;
#260 = AXIS2_PLACEMENT_3D ( 'NONE', #290, #194, #83 ) ;
#261 = EDGE_CURVE ( 'NONE', #54, #47, #248, .T. ) ;
#262 = VECTOR ( 'NONE', #19, 39.37007874015748143 ) ;
#263 = ORIENTED_EDGE ( 'NONE', *, *, #134, .T. ) ;
#264 = DIRECTION ( 'NONE',  ( 0.0000000000000000000, 0.0000000000000000000, 1.000000000000000000 ) ) ;
#265 = EDGE_LOOP ( 'NONE', ( #30, #209, #52, #125 ) ) ;
#266 = CARTESIAN_POINT ( 'NONE',  ( 8.201746730683681886E-17, 0.0000000000000000000, 0.6697234448654140193 ) ) ;
#267 = FACE_OUTER_BOUND ( 'NONE', #231, .T. ) ;
#268 = DIRECTION ( 'NONE',  ( 0.0000000000000000000, 0.0000000000000000000, 1.000000000000000000 ) ) ;
#269 = EDGE_CURVE ( 'NONE', #282, #211, #152, .T. ) ;
#270 = VECTOR ( 'NONE', #67, 39.37007874015747433 ) ;
#271 = DIRECTION ( 'NONE',  ( -1.000000000000000000, 0.0000000000000000000, 0.0000000000000000000 ) ) ;
#272 = CARTESIAN_POINT ( 'NONE',  ( -0.09375000000000001388, 0.0000000000000000000, 1.984999999999999654 ) ) ;
#273 = CARTESIAN_POINT ( 'NONE',  ( 0.0000000000000000000, 0.0000000000000000000, 2.000000000000000000 ) ) ;
#274 = LINE ( 'NONE', #197, #98 ) ;
#275 = CARTESIAN_POINT ( 'NONE',  ( 7.654042494670957853E-17, 0.0000000000000000000, 0.6250000000000000000 ) ) ;
#276 = DIRECTION ( 'NONE',  ( 1.000000000000000000, 0.0000000000000000000, 0.0000000000000000000 ) ) ;
#277 = ORIENTED_EDGE ( 'NONE', *, *, #138, .T. ) ;
#278 = FACE_OUTER_BOUND ( 'NONE', #175, .T. ) ;
#279 = AXIS2_PLACEMENT_3D ( 'NONE', #153, #176, #34 ) ;
#280 = ORIENTED_EDGE ( 'NONE', *, *, #203, .F. ) ;
#281 = APPLICATION_CONTEXT ( 'automotive_design' ) ;
#282 = VERTEX_POINT ( 'NONE', #68 ) ;
#283 = SURFACE_STYLE_USAGE ( .BOTH. , #71 ) ;
#284 = ORIENTED_EDGE ( 'NONE', *, *, #224, .F. ) ;
#285 = AXIS2_PLACEMENT_3D ( 'NONE', #266, #95, #36 ) ;
#286 =( NAMED_UNIT ( * ) SI_UNIT ( $, .STERADIAN. ) SOLID_ANGLE_UNIT ( ) );
#287 = EDGE_CURVE ( 'NONE', #116, #213, #46, .T. ) ;
#288 =( NAMED_UNIT ( * ) PLANE_ANGLE_UNIT ( ) SI_UNIT ( $, .RADIAN. ) );
#289 = LENGTH_MEASURE_WITH_UNIT ( LENGTH_MEASURE( 0.02539999999999999897 ), #243 );
#290 = CARTESIAN_POINT ( 'NONE',  ( 1.287754489664668799E-33, 0.0000000000000000000, 1.051531339943283032E-17 ) ) ;
#291 = EDGE_CURVE ( 'NONE', #111, #116, #50, .T. ) ;
#292 =( NAMED_UNIT ( * ) SI_UNIT ( $, .STERADIAN. ) SOLID_ANGLE_UNIT ( ) );
#293 = DIMENSIONAL_EXPONENTS ( 1.000000000000000000, 0.0000000000000000000, 0.0000000000000000000, 0.0000000000000000000, 0.0000000000000000000, 0.0000000000000000000, 0.0000000000000000000 ) ;
#294 = AXIS2_PLACEMENT_3D ( 'NONE', #201, #182, #276 ) ;
#295 = DIRECTION ( 'NONE',  ( -1.224646799147353207E-16, -0.0000000000000000000, -1.000000000000000000 ) ) ;
#296 = CARTESIAN_POINT ( 'NONE',  ( 0.0000000000000000000, 0.0000000000000000000, 1.984999999999999654 ) ) ;
#297 = CARTESIAN_POINT ( 'NONE',  ( -0.08586404999999992793, 1.051531339943283032E-17, 0.6250000000000000000 ) ) ;
#298 = STYLED_ITEM ( 'NONE', ( #121 ), #39 ) ;
#299 = ADVANCED_FACE ( 'NONE', ( #278 ), #208, .T. ) ;
ENDSEC;
END-ISO-10303-21;
