ISO-10303-21;
HEADER;
FILE_DESCRIPTION (( 'STEP AP214' ),
    '1' );
FILE_NAME ('01557.STEP',
    '2023-06-22T14:36:47',
    ( '' ),
    ( '' ),
    'SwSTEP 2.0',
    'SolidWorks 2023',
    '' );
FILE_SCHEMA (( 'AUTOMOTIVE_DESIGN' ));
ENDSEC;

DATA;
#1 = MECHANICAL_DESIGN_GEOMETRIC_PRESENTATION_REPRESENTATION (  '', ( #99 ), #215 ) ;
#2 = CARTESIAN_POINT ( 'NONE',  ( 3.673940397442060361E-16, 3.000000000000000444, 0.000000000000000000 ) ) ;
#3 = SURFACE_STYLE_USAGE ( .BOTH. , #189 ) ;
#4 = FACE_OUTER_BOUND ( 'NONE', #45, .T. ) ;
#5 = DIRECTION ( 'NONE',  ( 1.632862398863137774E-16, 1.000000000000000000, -0.000000000000000000 ) ) ;
#6 = AXIS2_PLACEMENT_3D ( 'NONE', #225, #107, #147 ) ;
#7 = COLOUR_RGB ( '',1.000000000000000000, 0.000000000000000000, 0.000000000000000000 ) ;
#8 = CARTESIAN_POINT ( 'NONE',  ( 0.000000000000000000, 0.7499999999999998890, -0.3125000000000000000 ) ) ;
#9 = DIRECTION ( 'NONE',  ( -1.632862398863137774E-16, -1.000000000000000000, 0.000000000000000000 ) ) ;
#10 = DIMENSIONAL_EXPONENTS ( 1.000000000000000000, 0.000000000000000000, 0.000000000000000000, 0.000000000000000000, 0.000000000000000000, 0.000000000000000000, 0.000000000000000000 ) ;
#11 = UNCERTAINTY_MEASURE_WITH_UNIT (LENGTH_MEASURE( 1.000000000000000082E-05 ), #124, 'distance_accuracy_value', 'NONE');
#12 = ORIENTED_EDGE ( 'NONE', *, *, #224, .T. ) ;
#13 = DIRECTION ( 'NONE',  ( 1.632862398863137774E-16, 1.000000000000000000, -0.000000000000000000 ) ) ;
#14 = VERTEX_POINT ( 'NONE', #142 ) ;
#15 = SURFACE_STYLE_USAGE ( .BOTH. , #54 ) ;
#16 = ORIENTED_EDGE ( 'NONE', *, *, #248, .F. ) ;
#17 = AXIS2_PLACEMENT_3D ( 'NONE', #114, #179, #131 ) ;
#18 = DIRECTION ( 'NONE',  ( -0.000000000000000000, -1.000000000000000000, -0.000000000000000000 ) ) ;
#19 = DIRECTION ( 'NONE',  ( 1.632862398863137774E-16, 1.000000000000000000, -0.000000000000000000 ) ) ;
#20 = DIRECTION ( 'NONE',  ( -0.000000000000000000, -1.000000000000000000, -0.000000000000000000 ) ) ;
#21 = AXIS2_PLACEMENT_3D ( 'NONE', #50, #283, #262 ) ;
#22 = LINE ( 'NONE', #115, #123 ) ;
#23 =( NAMED_UNIT ( * ) SI_UNIT ( $, .STERADIAN. ) SOLID_ANGLE_UNIT ( ) );
#24 = CARTESIAN_POINT ( 'NONE',  ( 3.827021247335478926E-17, 0.7499999999999998890, 0.3125000000000000000 ) ) ;
#25 =( NAMED_UNIT ( * ) PLANE_ANGLE_UNIT ( ) SI_UNIT ( $, .RADIAN. ) );
#26 =( CONVERSION_BASED_UNIT ( 'INCH', #162 ) LENGTH_UNIT ( ) NAMED_UNIT ( #74 ) );
#27 = PRESENTATION_STYLE_ASSIGNMENT (( #217 ) ) ;
#28 =( GEOMETRIC_REPRESENTATION_CONTEXT ( 3 ) GLOBAL_UNCERTAINTY_ASSIGNED_CONTEXT ( ( #11 ) ) GLOBAL_UNIT_ASSIGNED_CONTEXT ( ( #124, #192, #247 ) ) REPRESENTATION_CONTEXT ( 'NONE', 'WORKASPACE' ) );
#29 = CYLINDRICAL_SURFACE ( 'NONE', #94, 0.3125000000000000000 ) ;
#30 = FILL_AREA_STYLE_COLOUR ( '', #7 ) ;
#31 = UNCERTAINTY_MEASURE_WITH_UNIT (LENGTH_MEASURE( 1.000000000000000082E-05 ), #154, 'distance_accuracy_value', 'NONE');
#32 = FACE_OUTER_BOUND ( 'NONE', #273, .T. ) ;
#33 = UNCERTAINTY_MEASURE_WITH_UNIT (LENGTH_MEASURE( 1.000000000000000082E-05 ), #289, 'distance_accuracy_value', 'NONE');
#34 =( LENGTH_UNIT ( ) NAMED_UNIT ( * ) SI_UNIT ( $, .METRE. ) );
#35 = DIRECTION ( 'NONE',  ( 0.000000000000000000, -1.000000000000000000, -0.000000000000000000 ) ) ;
#36 = AXIS2_PLACEMENT_3D ( 'NONE', #51, #185, #48 ) ;
#37 = FACE_OUTER_BOUND ( 'NONE', #174, .T. ) ;
#38 = ORIENTED_EDGE ( 'NONE', *, *, #49, .T. ) ;
#39 = CARTESIAN_POINT ( 'NONE',  ( 0.000000000000000000, 0.7499999999999998890, 0.000000000000000000 ) ) ;
#40 = LINE ( 'NONE', #134, #110 ) ;
#41 = COLOUR_RGB ( '',0.7921568627450980005, 0.8196078431372548767, 0.9333333333333333481 ) ;
#42 = PRODUCT_DEFINITION_FORMATION_WITH_SPECIFIED_SOURCE ( 'ANY', '', #210, .NOT_KNOWN. ) ;
#43 = EDGE_CURVE ( 'NONE', #14, #61, #105, .T. ) ;
#44 = PLANE ( 'NONE',  #17 ) ;
#45 = EDGE_LOOP ( 'NONE', ( #150, #116 ) ) ;
#46 =( LENGTH_UNIT ( ) NAMED_UNIT ( * ) SI_UNIT ( $, .METRE. ) );
#47 = CIRCLE ( 'NONE', #285, 0.3124999999999996669 ) ;
#48 = DIRECTION ( 'NONE',  ( 1.000000000000000000, 0.000000000000000000, 0.000000000000000000 ) ) ;
#49 = EDGE_CURVE ( 'NONE', #65, #307, #89, .T. ) ;
#50 = CARTESIAN_POINT ( 'NONE',  ( 3.673940397442060361E-16, 3.000000000000000444, 0.000000000000000000 ) ) ;
#51 = CARTESIAN_POINT ( 'NONE',  ( 0.000000000000000000, 0.000000000000000000, 0.000000000000000000 ) ) ;
#52 = SURFACE_SIDE_STYLE ('',( #242 ) ) ;
#53 = DIRECTION ( 'NONE',  ( -0.000000000000000000, -1.000000000000000000, -0.000000000000000000 ) ) ;
#54 = SURFACE_SIDE_STYLE ('',( #129 ) ) ;
#55 = ORIENTED_EDGE ( 'NONE', *, *, #43, .F. ) ;
#56 =( LENGTH_UNIT ( ) NAMED_UNIT ( * ) SI_UNIT ( $, .METRE. ) );
#57 = CARTESIAN_POINT ( 'NONE',  ( 0.000000000000000000, 0.000000000000000000, 0.000000000000000000 ) ) ;
#58 = FILL_AREA_STYLE ('',( #84 ) ) ;
#59 = CIRCLE ( 'NONE', #6, 0.3125000000000000000 ) ;
#60 = FACE_OUTER_BOUND ( 'NONE', #202, .T. ) ;
#61 = VERTEX_POINT ( 'NONE', #238 ) ;
#62 = ORIENTED_EDGE ( 'NONE', *, *, #70, .F. ) ;
#63 = MECHANICAL_DESIGN_GEOMETRIC_PRESENTATION_REPRESENTATION (  '', ( #119 ), #220 ) ;
#64 = PLANE ( 'NONE',  #263 ) ;
#65 = VERTEX_POINT ( 'NONE', #24 ) ;
#66 = ORIENTED_EDGE ( 'NONE', *, *, #248, .T. ) ;
#67 = DIRECTION ( 'NONE',  ( 1.000000000000000000, -1.632862398863137774E-16, 0.000000000000000000 ) ) ;
#68 = FILL_AREA_STYLE_COLOUR ( '', #266 ) ;
#69 =( NAMED_UNIT ( * ) SI_UNIT ( $, .STERADIAN. ) SOLID_ANGLE_UNIT ( ) );
#70 = EDGE_CURVE ( 'NONE', #82, #88, #297, .T. ) ;
#71 = AXIS2_PLACEMENT_3D ( 'NONE', #159, #20, #87 ) ;
#72 = STYLED_ITEM ( 'NONE', ( #139 ), #288 ) ;
#73 = DIRECTION ( 'NONE',  ( -1.000000000000000000, 0.000000000000000000, 0.000000000000000000 ) ) ;
#74 = DIMENSIONAL_EXPONENTS ( 1.000000000000000000, 0.000000000000000000, 0.000000000000000000, 0.000000000000000000, 0.000000000000000000, 0.000000000000000000, 0.000000000000000000 ) ;
#75 = UNCERTAINTY_MEASURE_WITH_UNIT (LENGTH_MEASURE( 1.000000000000000082E-05 ), #26, 'distance_accuracy_value', 'NONE');
#76 = ORIENTED_EDGE ( 'NONE', *, *, #135, .T. ) ;
#77 = EDGE_CURVE ( 'NONE', #88, #82, #47, .T. ) ;
#78 = DIRECTION ( 'NONE',  ( 0.000000000000000000, 0.000000000000000000, -1.000000000000000000 ) ) ;
#79 = MECHANICAL_DESIGN_GEOMETRIC_PRESENTATION_REPRESENTATION (  '', ( #172 ), #234 ) ;
#80 = LINE ( 'NONE', #198, #171 ) ;
#81 = DIRECTION ( 'NONE',  ( 0.000000000000000000, 1.000000000000000000, 0.000000000000000000 ) ) ;
#82 = VERTEX_POINT ( 'NONE', #85 ) ;
#83 = PRESENTATION_LAYER_ASSIGNMENT (  '', '', ( #72 ) ) ;
#84 = FILL_AREA_STYLE_COLOUR ( '', #258 ) ;
#85 = CARTESIAN_POINT ( 'NONE',  ( -0.3124999999999993339, 3.000000000000000444, 0.000000000000000000 ) ) ;
#86 = SURFACE_STYLE_FILL_AREA ( #58 ) ;
#87 = DIRECTION ( 'NONE',  ( 0.000000000000000000, 0.000000000000000000, -1.000000000000000000 ) ) ;
#88 = VERTEX_POINT ( 'NONE', #256 ) ;
#89 = CIRCLE ( 'NONE', #71, 0.3125000000000000000 ) ;
#90 = CARTESIAN_POINT ( 'NONE',  ( 3.673940397442060361E-16, 3.000000000000000444, 0.000000000000000000 ) ) ;
#91 = CARTESIAN_POINT ( 'NONE',  ( 0.000000000000000000, 0.7499999999999998890, 0.000000000000000000 ) ) ;
#92 = SHAPE_DEFINITION_REPRESENTATION ( #290, #121 ) ;
#93 = CYLINDRICAL_SURFACE ( 'NONE', #21, 0.3124999999999998890 ) ;
#94 = AXIS2_PLACEMENT_3D ( 'NONE', #261, #284, #118 ) ;
#95 = FILL_AREA_STYLE ('',( #30 ) ) ;
#96 = LENGTH_MEASURE_WITH_UNIT ( LENGTH_MEASURE( 0.02539999999999999897 ), #46 );
#97 = EDGE_CURVE ( 'NONE', #307, #65, #167, .T. ) ;
#98 = DIMENSIONAL_EXPONENTS ( 1.000000000000000000, 0.000000000000000000, 0.000000000000000000, 0.000000000000000000, 0.000000000000000000, 0.000000000000000000, 0.000000000000000000 ) ;
#99 = STYLED_ITEM ( 'NONE', ( #294 ), #251 ) ;
#100 = EDGE_CURVE ( 'NONE', #307, #178, #40, .T. ) ;
#101 = ORIENTED_EDGE ( 'NONE', *, *, #299, .T. ) ;
#102 = DIMENSIONAL_EXPONENTS ( 1.000000000000000000, 0.000000000000000000, 0.000000000000000000, 0.000000000000000000, 0.000000000000000000, 0.000000000000000000, 0.000000000000000000 ) ;
#103 = FILL_AREA_STYLE ('',( #301 ) ) ;
#104 = DIMENSIONAL_EXPONENTS ( 1.000000000000000000, 0.000000000000000000, 0.000000000000000000, 0.000000000000000000, 0.000000000000000000, 0.000000000000000000, 0.000000000000000000 ) ;
#105 = CIRCLE ( 'NONE', #226, 0.3125000000000000000 ) ;
#106 = STYLED_ITEM ( 'NONE', ( #152 ), #207 ) ;
#107 = DIRECTION ( 'NONE',  ( -0.000000000000000000, -1.000000000000000000, -0.000000000000000000 ) ) ;
#108 =( LENGTH_UNIT ( ) NAMED_UNIT ( * ) SI_UNIT ( $, .METRE. ) );
#109 = EDGE_LOOP ( 'NONE', ( #213, #38, #113, #132 ) ) ;
#110 = VECTOR ( 'NONE', #157, 39.37007874015748143 ) ;
#111 = ADVANCED_FACE ( 'NONE', ( #280 ), #137, .T. ) ;
#112 = LINE ( 'NONE', #165, #270 ) ;
#113 = ORIENTED_EDGE ( 'NONE', *, *, #100, .T. ) ;
#114 = CARTESIAN_POINT ( 'NONE',  ( 4.165999396282938712E-33, 0.7499999999999998890, 0.000000000000000000 ) ) ;
#115 = CARTESIAN_POINT ( 'NONE',  ( 3.827021247335478926E-17, 0.000000000000000000, 0.3125000000000000000 ) ) ;
#116 = ORIENTED_EDGE ( 'NONE', *, *, #77, .T. ) ;
#117 = AXIS2_PLACEMENT_3D ( 'NONE', #218, #9, #67 ) ;
#118 = DIRECTION ( 'NONE',  ( 0.000000000000000000, 0.000000000000000000, -1.000000000000000000 ) ) ;
#119 = STYLED_ITEM ( 'NONE', ( #257 ), #253 ) ;
#120 = APPLICATION_PROTOCOL_DEFINITION ( 'draft international standard', 'automotive_design', 1998, #195 ) ;
#121 = ADVANCED_BREP_SHAPE_REPRESENTATION ( '01557', ( #251, #253, #36 ), #245 ) ;
#122 = FACE_OUTER_BOUND ( 'NONE', #223, .T. ) ;
#123 = VECTOR ( 'NONE', #208, 39.37007874015748143 ) ;
#124 =( CONVERSION_BASED_UNIT ( 'INCH', #298 ) LENGTH_UNIT ( ) NAMED_UNIT ( #300 ) );
#125 = SURFACE_STYLE_USAGE ( .BOTH. , #219 ) ;
#126 = DIMENSIONAL_EXPONENTS ( 1.000000000000000000, 0.000000000000000000, 0.000000000000000000, 0.000000000000000000, 0.000000000000000000, 0.000000000000000000, 0.000000000000000000 ) ;
#127 = CLOSED_SHELL ( 'NONE', ( #194, #274, #111, #151 ) ) ;
#128 =( GEOMETRIC_REPRESENTATION_CONTEXT ( 3 ) GLOBAL_UNCERTAINTY_ASSIGNED_CONTEXT ( ( #146 ) ) GLOBAL_UNIT_ASSIGNED_CONTEXT ( ( #267, #169, #272 ) ) REPRESENTATION_CONTEXT ( 'NONE', 'WORKASPACE' ) );
#129 = SURFACE_STYLE_FILL_AREA ( #269 ) ;
#130 = ORIENTED_EDGE ( 'NONE', *, *, #97, .F. ) ;
#131 = DIRECTION ( 'NONE',  ( -1.000000000000000000, 1.632862398863137774E-16, 0.000000000000000000 ) ) ;
#132 = ORIENTED_EDGE ( 'NONE', *, *, #224, .F. ) ;
#133 =( CONVERSION_BASED_UNIT ( 'INCH', #308 ) LENGTH_UNIT ( ) NAMED_UNIT ( #126 ) );
#134 = CARTESIAN_POINT ( 'NONE',  ( 0.000000000000000000, 0.000000000000000000, -0.3125000000000000000 ) ) ;
#135 = EDGE_CURVE ( 'NONE', #65, #260, #22, .T. ) ;
#136 =( NAMED_UNIT ( * ) PLANE_ANGLE_UNIT ( ) SI_UNIT ( $, .RADIAN. ) );
#137 = CYLINDRICAL_SURFACE ( 'NONE', #244, 0.3124999999999998890 ) ;
#138 = AXIS2_PLACEMENT_3D ( 'NONE', #227, #35, #199 ) ;
#139 = PRESENTATION_STYLE_ASSIGNMENT (( #255 ) ) ;
#140 = DIRECTION ( 'NONE',  ( -1.000000000000000000, 0.000000000000000000, 0.000000000000000000 ) ) ;
#141 = SURFACE_SIDE_STYLE ('',( #205 ) ) ;
#142 = CARTESIAN_POINT ( 'NONE',  ( -0.3125000000000000000, 0.7499999999999998890, 0.000000000000000000 ) ) ;
#143 = PRESENTATION_LAYER_ASSIGNMENT (  '', '', ( #119 ) ) ;
#144 = PRODUCT_CONTEXT ( 'NONE', #209, 'mechanical' ) ;
#145 = CIRCLE ( 'NONE', #212, 0.3125000000000000000 ) ;
#146 = UNCERTAINTY_MEASURE_WITH_UNIT (LENGTH_MEASURE( 1.000000000000000082E-05 ), #267, 'distance_accuracy_value', 'NONE');
#147 = DIRECTION ( 'NONE',  ( 0.000000000000000000, 0.000000000000000000, -1.000000000000000000 ) ) ;
#148 = AXIS2_PLACEMENT_3D ( 'NONE', #91, #186, #73 ) ;
#149 = PLANE ( 'NONE',  #138 ) ;
#150 = ORIENTED_EDGE ( 'NONE', *, *, #70, .T. ) ;
#151 = ADVANCED_FACE ( 'NONE', ( #4 ), #243, .F. ) ;
#152 = PRESENTATION_STYLE_ASSIGNMENT (( #15 ) ) ;
#153 = AXIS2_PLACEMENT_3D ( 'NONE', #39, #204, #237 ) ;
#154 =( CONVERSION_BASED_UNIT ( 'INCH', #228 ) LENGTH_UNIT ( ) NAMED_UNIT ( #10 ) );
#155 = DIRECTION ( 'NONE',  ( 1.632862398863137774E-16, 1.000000000000000000, -0.000000000000000000 ) ) ;
#156 = SURFACE_SIDE_STYLE ('',( #86 ) ) ;
#157 = DIRECTION ( 'NONE',  ( -0.000000000000000000, -1.000000000000000000, -0.000000000000000000 ) ) ;
#158 = AXIS2_PLACEMENT_3D ( 'NONE', #57, #53, #78 ) ;
#159 = CARTESIAN_POINT ( 'NONE',  ( 0.000000000000000000, 0.7499999999999998890, 0.000000000000000000 ) ) ;
#160 =( LENGTH_UNIT ( ) NAMED_UNIT ( * ) SI_UNIT ( $, .METRE. ) );
#161 = EDGE_LOOP ( 'NONE', ( #173, #76, #229, #282 ) ) ;
#162 = LENGTH_MEASURE_WITH_UNIT ( LENGTH_MEASURE( 0.02539999999999999897 ), #281 );
#163 = PRESENTATION_LAYER_ASSIGNMENT (  '', '', ( #188 ) ) ;
#164 = FILL_AREA_STYLE ('',( #68 ) ) ;
#165 = CARTESIAN_POINT ( 'NONE',  ( 0.3125000000000002220, 3.000000000000000444, 3.827021247335477078E-17 ) ) ;
#166 = FACE_OUTER_BOUND ( 'NONE', #161, .T. ) ;
#167 = CIRCLE ( 'NONE', #153, 0.3125000000000000000 ) ;
#168 = SURFACE_STYLE_FILL_AREA ( #103 ) ;
#169 =( NAMED_UNIT ( * ) PLANE_ANGLE_UNIT ( ) SI_UNIT ( $, .RADIAN. ) );
#170 = ORIENTED_EDGE ( 'NONE', *, *, #49, .F. ) ;
#171 = VECTOR ( 'NONE', #13, 39.37007874015748143 ) ;
#172 = STYLED_ITEM ( 'NONE', ( #184 ), #305 ) ;
#173 = ORIENTED_EDGE ( 'NONE', *, *, #97, .T. ) ;
#174 = EDGE_LOOP ( 'NONE', ( #55, #206 ) ) ;
#175 = FILL_AREA_STYLE_COLOUR ( '', #181 ) ;
#176 = DIRECTION ( 'NONE',  ( 0.000000000000000000, -0.000000000000000000, 1.000000000000000000 ) ) ;
#177 = DIRECTION ( 'NONE',  ( -1.000000000000000000, 0.000000000000000000, 0.000000000000000000 ) ) ;
#178 = VERTEX_POINT ( 'NONE', #265 ) ;
#179 = DIRECTION ( 'NONE',  ( 1.632862398863137774E-16, 1.000000000000000000, -0.000000000000000000 ) ) ;
#180 =( NAMED_UNIT ( * ) SI_UNIT ( $, .STERADIAN. ) SOLID_ANGLE_UNIT ( ) );
#181 = COLOUR_RGB ( '',1.000000000000000000, 0.000000000000000000, 0.000000000000000000 ) ;
#182 = EDGE_LOOP ( 'NONE', ( #196, #193, #66, #231 ) ) ;
#183 = EDGE_CURVE ( 'NONE', #61, #14, #239, .T. ) ;
#184 = PRESENTATION_STYLE_ASSIGNMENT (( #3 ) ) ;
#185 = DIRECTION ( 'NONE',  ( 0.000000000000000000, 0.000000000000000000, 1.000000000000000000 ) ) ;
#186 = DIRECTION ( 'NONE',  ( 1.632862398863137774E-16, 1.000000000000000000, -0.000000000000000000 ) ) ;
#187 =( NAMED_UNIT ( * ) SI_UNIT ( $, .STERADIAN. ) SOLID_ANGLE_UNIT ( ) );
#188 = STYLED_ITEM ( 'NONE', ( #27 ), #200 ) ;
#189 = SURFACE_SIDE_STYLE ('',( #214 ) ) ;
#190 =( LENGTH_UNIT ( ) NAMED_UNIT ( * ) SI_UNIT ( $, .METRE. ) );
#191 = COLOUR_RGB ( '',1.000000000000000000, 0.000000000000000000, 0.000000000000000000 ) ;
#192 =( NAMED_UNIT ( * ) PLANE_ANGLE_UNIT ( ) SI_UNIT ( $, .RADIAN. ) );
#193 = ORIENTED_EDGE ( 'NONE', *, *, #183, .T. ) ;
#194 = ADVANCED_FACE ( 'NONE', ( #32 ), #93, .T. ) ;
#195 = APPLICATION_CONTEXT ( 'automotive_design' ) ;
#196 = ORIENTED_EDGE ( 'NONE', *, *, #299, .F. ) ;
#197 = PRESENTATION_LAYER_ASSIGNMENT (  '', '', ( #172 ) ) ;
#198 = CARTESIAN_POINT ( 'NONE',  ( -0.3124999999999995559, 3.000000000000000444, 0.000000000000000000 ) ) ;
#199 = DIRECTION ( 'NONE',  ( 0.000000000000000000, 0.000000000000000000, -1.000000000000000000 ) ) ;
#200 = ADVANCED_FACE ( 'NONE', ( #166 ), #286, .T. ) ;
#201 =( NAMED_UNIT ( * ) PLANE_ANGLE_UNIT ( ) SI_UNIT ( $, .RADIAN. ) );
#202 = EDGE_LOOP ( 'NONE', ( #130, #170 ) ) ;
#203 = CLOSED_SHELL ( 'NONE', ( #200, #288, #305, #207 ) ) ;
#204 = DIRECTION ( 'NONE',  ( -0.000000000000000000, -1.000000000000000000, -0.000000000000000000 ) ) ;
#205 = SURFACE_STYLE_FILL_AREA ( #278 ) ;
#206 = ORIENTED_EDGE ( 'NONE', *, *, #183, .F. ) ;
#207 = ADVANCED_FACE ( 'NONE', ( #122 ), #149, .T. ) ;
#208 = DIRECTION ( 'NONE',  ( -0.000000000000000000, -1.000000000000000000, -0.000000000000000000 ) ) ;
#209 = APPLICATION_CONTEXT ( 'automotive_design' ) ;
#210 = PRODUCT ( '01557', '01557', '', ( #144 ) ) ;
#211 = CARTESIAN_POINT ( 'NONE',  ( 0.000000000000000000, 0.7499999999999998890, 0.000000000000000000 ) ) ;
#212 = AXIS2_PLACEMENT_3D ( 'NONE', #233, #18, #306 ) ;
#213 = ORIENTED_EDGE ( 'NONE', *, *, #135, .F. ) ;
#214 = SURFACE_STYLE_FILL_AREA ( #95 ) ;
#215 =( GEOMETRIC_REPRESENTATION_CONTEXT ( 3 ) GLOBAL_UNCERTAINTY_ASSIGNED_CONTEXT ( ( #254 ) ) GLOBAL_UNIT_ASSIGNED_CONTEXT ( ( #222, #295, #23 ) ) REPRESENTATION_CONTEXT ( 'NONE', 'WORKASPACE' ) );
#216 = PRESENTATION_LAYER_ASSIGNMENT (  '', '', ( #99 ) ) ;
#217 = SURFACE_STYLE_USAGE ( .BOTH. , #52 ) ;
#218 = CARTESIAN_POINT ( 'NONE',  ( 0.3125000000000000000, 3.000000000000000444, 0.000000000000000000 ) ) ;
#219 = SURFACE_SIDE_STYLE ('',( #168 ) ) ;
#220 =( GEOMETRIC_REPRESENTATION_CONTEXT ( 3 ) GLOBAL_UNCERTAINTY_ASSIGNED_CONTEXT ( ( #31 ) ) GLOBAL_UNIT_ASSIGNED_CONTEXT ( ( #154, #136, #180 ) ) REPRESENTATION_CONTEXT ( 'NONE', 'WORKASPACE' ) );
#221 = PRODUCT_DEFINITION_CONTEXT ( 'detailed design', #195, 'design' ) ;
#222 =( CONVERSION_BASED_UNIT ( 'INCH', #296 ) LENGTH_UNIT ( ) NAMED_UNIT ( #102 ) );
#223 = EDGE_LOOP ( 'NONE', ( #279, #12 ) ) ;
#224 = EDGE_CURVE ( 'NONE', #260, #178, #59, .T. ) ;
#225 = CARTESIAN_POINT ( 'NONE',  ( 0.000000000000000000, 0.000000000000000000, 0.000000000000000000 ) ) ;
#226 = AXIS2_PLACEMENT_3D ( 'NONE', #309, #19, #277 ) ;
#227 = CARTESIAN_POINT ( 'NONE',  ( 0.000000000000000000, 0.000000000000000000, 0.000000000000000000 ) ) ;
#228 = LENGTH_MEASURE_WITH_UNIT ( LENGTH_MEASURE( 0.02539999999999999897 ), #160 );
#229 = ORIENTED_EDGE ( 'NONE', *, *, #268, .F. ) ;
#230 = CARTESIAN_POINT ( 'NONE',  ( 3.827021247335478926E-17, 0.000000000000000000, 0.3125000000000000000 ) ) ;
#231 = ORIENTED_EDGE ( 'NONE', *, *, #77, .F. ) ;
#232 = MECHANICAL_DESIGN_GEOMETRIC_PRESENTATION_REPRESENTATION (  '', ( #188 ), #128 ) ;
#233 = CARTESIAN_POINT ( 'NONE',  ( 0.000000000000000000, 0.000000000000000000, 0.000000000000000000 ) ) ;
#234 =( GEOMETRIC_REPRESENTATION_CONTEXT ( 3 ) GLOBAL_UNCERTAINTY_ASSIGNED_CONTEXT ( ( #75 ) ) GLOBAL_UNIT_ASSIGNED_CONTEXT ( ( #26, #240, #69 ) ) REPRESENTATION_CONTEXT ( 'NONE', 'WORKASPACE' ) );
#235 = CARTESIAN_POINT ( 'NONE',  ( 3.673940397442060361E-16, 3.000000000000000444, 0.000000000000000000 ) ) ;
#236 =( NAMED_UNIT ( * ) SI_UNIT ( $, .STERADIAN. ) SOLID_ANGLE_UNIT ( ) );
#237 = DIRECTION ( 'NONE',  ( 0.000000000000000000, 0.000000000000000000, -1.000000000000000000 ) ) ;
#238 = CARTESIAN_POINT ( 'NONE',  ( 0.3125000000000000000, 0.7499999999999998890, 3.827021247335477694E-17 ) ) ;
#239 = CIRCLE ( 'NONE', #148, 0.3125000000000000000 ) ;
#240 =( NAMED_UNIT ( * ) PLANE_ANGLE_UNIT ( ) SI_UNIT ( $, .RADIAN. ) );
#241 = FACE_OUTER_BOUND ( 'NONE', #109, .T. ) ;
#242 = SURFACE_STYLE_FILL_AREA ( #164 ) ;
#243 = PLANE ( 'NONE',  #117 ) ;
#244 = AXIS2_PLACEMENT_3D ( 'NONE', #235, #259, #140 ) ;
#245 =( GEOMETRIC_REPRESENTATION_CONTEXT ( 3 ) GLOBAL_UNCERTAINTY_ASSIGNED_CONTEXT ( ( #33 ) ) GLOBAL_UNIT_ASSIGNED_CONTEXT ( ( #289, #25, #187 ) ) REPRESENTATION_CONTEXT ( 'NONE', 'WORKASPACE' ) );
#246 = PRODUCT_DEFINITION ( 'UNKNOWN', '', #42, #221 ) ;
#247 =( NAMED_UNIT ( * ) SI_UNIT ( $, .STERADIAN. ) SOLID_ANGLE_UNIT ( ) );
#248 = EDGE_CURVE ( 'NONE', #14, #82, #80, .T. ) ;
#249 =( GEOMETRIC_REPRESENTATION_CONTEXT ( 3 ) GLOBAL_UNCERTAINTY_ASSIGNED_CONTEXT ( ( #291 ) ) GLOBAL_UNIT_ASSIGNED_CONTEXT ( ( #133, #201, #236 ) ) REPRESENTATION_CONTEXT ( 'NONE', 'WORKASPACE' ) );
#250 = MECHANICAL_DESIGN_GEOMETRIC_PRESENTATION_REPRESENTATION (  '', ( #106 ), #28 ) ;
#251 = MANIFOLD_SOLID_BREP ( 'Revolve - Cutting Edge', #203 ) ;
#252 = SURFACE_STYLE_USAGE ( .BOTH. , #156 ) ;
#253 = MANIFOLD_SOLID_BREP ( 'Revolve - Tool Body (Straight Shanked)', #127 ) ;
#254 = UNCERTAINTY_MEASURE_WITH_UNIT (LENGTH_MEASURE( 1.000000000000000082E-05 ), #222, 'distance_accuracy_value', 'NONE');
#255 = SURFACE_STYLE_USAGE ( .BOTH. , #141 ) ;
#256 = CARTESIAN_POINT ( 'NONE',  ( 0.3125000000000000000, 3.000000000000000444, 3.827021247335477694E-17 ) ) ;
#257 = PRESENTATION_STYLE_ASSIGNMENT (( #252 ) ) ;
#258 = COLOUR_RGB ( '',0.7921568627450980005, 0.8196078431372548767, 0.9333333333333333481 ) ;
#259 = DIRECTION ( 'NONE',  ( 1.632862398863137774E-16, 1.000000000000000000, -0.000000000000000000 ) ) ;
#260 = VERTEX_POINT ( 'NONE', #230 ) ;
#261 = CARTESIAN_POINT ( 'NONE',  ( 0.000000000000000000, 0.000000000000000000, 0.000000000000000000 ) ) ;
#262 = DIRECTION ( 'NONE',  ( -1.000000000000000000, 0.000000000000000000, 0.000000000000000000 ) ) ;
#263 = AXIS2_PLACEMENT_3D ( 'NONE', #211, #81, #176 ) ;
#264 = APPLICATION_PROTOCOL_DEFINITION ( 'draft international standard', 'automotive_design', 1998, #209 ) ;
#265 = CARTESIAN_POINT ( 'NONE',  ( 0.000000000000000000, 0.000000000000000000, -0.3125000000000000000 ) ) ;
#266 = COLOUR_RGB ( '',1.000000000000000000, 0.000000000000000000, 0.000000000000000000 ) ;
#267 =( CONVERSION_BASED_UNIT ( 'INCH', #287 ) LENGTH_UNIT ( ) NAMED_UNIT ( #104 ) );
#268 = EDGE_CURVE ( 'NONE', #178, #260, #145, .T. ) ;
#269 = FILL_AREA_STYLE ('',( #271 ) ) ;
#270 = VECTOR ( 'NONE', #5, 39.37007874015748143 ) ;
#271 = FILL_AREA_STYLE_COLOUR ( '', #191 ) ;
#272 =( NAMED_UNIT ( * ) SI_UNIT ( $, .STERADIAN. ) SOLID_ANGLE_UNIT ( ) );
#273 = EDGE_LOOP ( 'NONE', ( #302, #101, #62, #16 ) ) ;
#274 = ADVANCED_FACE ( 'NONE', ( #37 ), #44, .F. ) ;
#275 = PRESENTATION_LAYER_ASSIGNMENT (  '', '', ( #106 ) ) ;
#276 = DIRECTION ( 'NONE',  ( -1.000000000000000000, 0.000000000000000000, 0.000000000000000000 ) ) ;
#277 = DIRECTION ( 'NONE',  ( -1.000000000000000000, 0.000000000000000000, 0.000000000000000000 ) ) ;
#278 = FILL_AREA_STYLE ('',( #175 ) ) ;
#279 = ORIENTED_EDGE ( 'NONE', *, *, #268, .T. ) ;
#280 = FACE_OUTER_BOUND ( 'NONE', #182, .T. ) ;
#281 =( LENGTH_UNIT ( ) NAMED_UNIT ( * ) SI_UNIT ( $, .METRE. ) );
#282 = ORIENTED_EDGE ( 'NONE', *, *, #100, .F. ) ;
#283 = DIRECTION ( 'NONE',  ( 1.632862398863137774E-16, 1.000000000000000000, -0.000000000000000000 ) ) ;
#284 = DIRECTION ( 'NONE',  ( -0.000000000000000000, -1.000000000000000000, -0.000000000000000000 ) ) ;
#285 = AXIS2_PLACEMENT_3D ( 'NONE', #90, #155, #276 ) ;
#286 = CYLINDRICAL_SURFACE ( 'NONE', #158, 0.3125000000000000000 ) ;
#287 = LENGTH_MEASURE_WITH_UNIT ( LENGTH_MEASURE( 0.02539999999999999897 ), #190 );
#288 = ADVANCED_FACE ( 'NONE', ( #60 ), #64, .T. ) ;
#289 =( CONVERSION_BASED_UNIT ( 'INCH', #96 ) LENGTH_UNIT ( ) NAMED_UNIT ( #98 ) );
#290 = PRODUCT_DEFINITION_SHAPE ( 'NONE', 'NONE',  #246 ) ;
#291 = UNCERTAINTY_MEASURE_WITH_UNIT (LENGTH_MEASURE( 1.000000000000000082E-05 ), #133, 'distance_accuracy_value', 'NONE');
#292 = AXIS2_PLACEMENT_3D ( 'NONE', #2, #303, #177 ) ;
#293 = PRODUCT_RELATED_PRODUCT_CATEGORY ( 'part', '', ( #210 ) ) ;
#294 = PRESENTATION_STYLE_ASSIGNMENT (( #125 ) ) ;
#295 =( NAMED_UNIT ( * ) PLANE_ANGLE_UNIT ( ) SI_UNIT ( $, .RADIAN. ) );
#296 = LENGTH_MEASURE_WITH_UNIT ( LENGTH_MEASURE( 0.02539999999999999897 ), #34 );
#297 = CIRCLE ( 'NONE', #292, 0.3124999999999996669 ) ;
#298 = LENGTH_MEASURE_WITH_UNIT ( LENGTH_MEASURE( 0.02539999999999999897 ), #56 );
#299 = EDGE_CURVE ( 'NONE', #61, #88, #112, .T. ) ;
#300 = DIMENSIONAL_EXPONENTS ( 1.000000000000000000, 0.000000000000000000, 0.000000000000000000, 0.000000000000000000, 0.000000000000000000, 0.000000000000000000, 0.000000000000000000 ) ;
#301 = FILL_AREA_STYLE_COLOUR ( '', #41 ) ;
#302 = ORIENTED_EDGE ( 'NONE', *, *, #43, .T. ) ;
#303 = DIRECTION ( 'NONE',  ( 1.632862398863137774E-16, 1.000000000000000000, -0.000000000000000000 ) ) ;
#304 = MECHANICAL_DESIGN_GEOMETRIC_PRESENTATION_REPRESENTATION (  '', ( #72 ), #249 ) ;
#305 = ADVANCED_FACE ( 'NONE', ( #241 ), #29, .T. ) ;
#306 = DIRECTION ( 'NONE',  ( 0.000000000000000000, 0.000000000000000000, -1.000000000000000000 ) ) ;
#307 = VERTEX_POINT ( 'NONE', #8 ) ;
#308 = LENGTH_MEASURE_WITH_UNIT ( LENGTH_MEASURE( 0.02539999999999999897 ), #108 );
#309 = CARTESIAN_POINT ( 'NONE',  ( 0.000000000000000000, 0.7499999999999998890, 0.000000000000000000 ) ) ;
ENDSEC;
END-ISO-10303-21;
