ISO-10303-21;
HEADER;
FILE_DESCRIPTION (( 'STEP AP214' ),
    '1' );
FILE_NAME ('Micro_GEMM-080-4.STEP',
    '2021-09-01T21:48:43',
    ( '' ),
    ( '' ),
    'SwSTEP 2.0',
    'SolidWorks 2020',
    '' );
FILE_SCHEMA (( 'AUTOMOTIVE_DESIGN' ));
ENDSEC;

DATA;
#1 =( LENGTH_UNIT ( ) NAMED_UNIT ( * ) SI_UNIT ( $, .METRE. ) );
#2 = CIRCLE ( 'NONE', #124, 0.1573230194999999942 ) ;
#3 = CARTESIAN_POINT ( 'NONE',  ( -0.1424804999999990940, 0.0000000000000000000, 2.480315000000000047 ) ) ;
#4 = LINE ( 'NONE', #277, #177 ) ;
#5 = ADVANCED_FACE ( 'NONE', ( #135 ), #90, .T. ) ;
#6 = FACE_OUTER_BOUND ( 'NONE', #107, .T. ) ;
#7 = DIRECTION ( 'NONE',  ( 1.000000000000000000, 0.0000000000000000000, 0.0000000000000000000 ) ) ;
#8 = DIRECTION ( 'NONE',  ( -1.000000000000000000, 0.0000000000000000000, 0.0000000000000000000 ) ) ;
#9 = AXIS2_PLACEMENT_3D ( 'NONE', #106, #47, #179 ) ;
#10 = ORIENTED_EDGE ( 'NONE', *, *, #217, .T. ) ;
#11 = CARTESIAN_POINT ( 'NONE',  ( 2.359467375330272285E-33, 0.0000000000000000000, 1.926651322628716627E-17 ) ) ;
#12 = CARTESIAN_POINT ( 'NONE',  ( 9.160737698129936696E-17, 0.0000000000000000000, 0.7480309999999998904 ) ) ;
#13 = CIRCLE ( 'NONE', #275, 0.1424804999999990940 ) ;
#14 = CYLINDRICAL_SURFACE ( 'NONE', #73, 0.1574804999999999955 ) ;
#15 = CARTESIAN_POINT ( 'NONE',  ( 0.0000000000000000000, 0.0000000000000000000, 2.480315000000000047 ) ) ;
#16 = VECTOR ( 'NONE', #212, 39.37007874015748143 ) ;
#17 = COLOUR_RGB ( '',0.7921568627450980005, 0.8196078431372548767, 0.9333333333333333481 ) ;
#18 = CARTESIAN_POINT ( 'NONE',  ( 0.0000000000000000000, 0.0000000000000000000, 2.480315000000000047 ) ) ;
#19 = EDGE_CURVE ( 'NONE', #222, #188, #164, .T. ) ;
#20 = ORIENTED_EDGE ( 'NONE', *, *, #82, .F. ) ;
#21 = EDGE_CURVE ( 'NONE', #144, #150, #32, .T. ) ;
#22 = DIRECTION ( 'NONE',  ( 1.000000000000000000, 0.0000000000000000000, 0.0000000000000000000 ) ) ;
#23 = PLANE ( 'NONE',  #98 ) ;
#24 = ORIENTED_EDGE ( 'NONE', *, *, #282, .F. ) ;
#25 = VERTEX_POINT ( 'NONE', #210 ) ;
#26 = CARTESIAN_POINT ( 'NONE',  ( 0.1573230195000000220, 1.926651322628716935E-17, -1.926651322628716935E-17 ) ) ;
#27 = EDGE_LOOP ( 'NONE', ( #293, #129, #10, #49 ) ) ;
#28 = DIRECTION ( 'NONE',  ( -1.224646799147353207E-16, -0.0000000000000000000, -1.000000000000000000 ) ) ;
#29 = DIRECTION ( 'NONE',  ( 0.0000000000000000000, 0.0000000000000000000, 1.000000000000000000 ) ) ;
#30 = LINE ( 'NONE', #161, #290 ) ;
#31 = SURFACE_STYLE_USAGE ( .BOTH. , #132 ) ;
#32 = LINE ( 'NONE', #192, #186 ) ;
#33 = CARTESIAN_POINT ( 'NONE',  ( 0.0000000000000000000, 0.0000000000000000000, 2.465314999999999923 ) ) ;
#34 = CARTESIAN_POINT ( 'NONE',  ( 9.160737698129936696E-17, 0.0000000000000000000, 0.7480309999999998904 ) ) ;
#35 = MECHANICAL_DESIGN_GEOMETRIC_PRESENTATION_REPRESENTATION (  '', ( #209 ), #88 ) ;
#36 =( LENGTH_UNIT ( ) NAMED_UNIT ( * ) SI_UNIT ( $, .METRE. ) );
#37 = APPLICATION_CONTEXT ( 'automotive_design' ) ;
#38 = CARTESIAN_POINT ( 'NONE',  ( 0.1424804999999990940, 1.744882882659133128E-17, 2.480315000000000047 ) ) ;
#39 = STYLED_ITEM ( 'NONE', ( #259 ), #151 ) ;
#40 = ORIENTED_EDGE ( 'NONE', *, *, #269, .T. ) ;
#41 = CARTESIAN_POINT ( 'NONE',  ( 0.1574805000000000788, 1.928579902531248645E-17, 0.7489241162965939447 ) ) ;
#42 = ORIENTED_EDGE ( 'NONE', *, *, #91, .T. ) ;
#43 = ORIENTED_EDGE ( 'NONE', *, *, #282, .T. ) ;
#44 =( GEOMETRIC_REPRESENTATION_CONTEXT ( 3 ) GLOBAL_UNCERTAINTY_ASSIGNED_CONTEXT ( ( #171 ) ) GLOBAL_UNIT_ASSIGNED_CONTEXT ( ( #128, #229, #134 ) ) REPRESENTATION_CONTEXT ( 'NONE', 'WORKASPACE' ) );
#45 = EDGE_LOOP ( 'NONE', ( #230, #102, #42, #40 ) ) ;
#46 = UNCERTAINTY_MEASURE_WITH_UNIT (LENGTH_MEASURE( 1.000000000000000082E-05 ), #76, 'distance_accuracy_value', 'NONE');
#47 = DIRECTION ( 'NONE',  ( 0.0000000000000000000, 0.0000000000000000000, -1.000000000000000000 ) ) ;
#48 = FILL_AREA_STYLE_COLOUR ( '', #17 ) ;
#49 = ORIENTED_EDGE ( 'NONE', *, *, #19, .F. ) ;
#50 = VERTEX_POINT ( 'NONE', #71 ) ;
#51 = DIRECTION ( 'NONE',  ( 1.000000000000000000, 0.0000000000000000000, 0.0000000000000000000 ) ) ;
#52 = DIRECTION ( 'NONE',  ( 1.224646799147353207E-16, 0.0000000000000000000, 1.000000000000000000 ) ) ;
#53 = CARTESIAN_POINT ( 'NONE',  ( 0.0000000000000000000, 0.0000000000000000000, 0.0000000000000000000 ) ) ;
#54 = APPLICATION_CONTEXT ( 'automotive_design' ) ;
#55 = ORIENTED_EDGE ( 'NONE', *, *, #58, .T. ) ;
#56 = AXIS2_PLACEMENT_3D ( 'NONE', #33, #111, #97 ) ;
#57 = CONICAL_SURFACE ( 'NONE', #176, 0.1424804999999990940, 0.7853981633974699283 ) ;
#58 = EDGE_CURVE ( 'NONE', #67, #250, #13, .T. ) ;
#59 = AXIS2_PLACEMENT_3D ( 'NONE', #66, #109, #51 ) ;
#60 = ADVANCED_FACE ( 'NONE', ( #6 ), #57, .T. ) ;
#61 = ORIENTED_EDGE ( 'NONE', *, *, #181, .T. ) ;
#62 = CARTESIAN_POINT ( 'NONE',  ( 0.1574804999999999955, 1.928579902531247412E-17, 2.465314999999999923 ) ) ;
#63 = PRODUCT_DEFINITION ( 'UNKNOWN', '', #69, #274 ) ;
#64 = ORIENTED_EDGE ( 'NONE', *, *, #217, .F. ) ;
#65 = AXIS2_PLACEMENT_3D ( 'NONE', #169, #220, #120 ) ;
#66 = CARTESIAN_POINT ( 'NONE',  ( 9.171675218268839954E-17, 0.0000000000000000000, 0.7489241162965939447 ) ) ;
#67 = VERTEX_POINT ( 'NONE', #93 ) ;
#68 = SURFACE_SIDE_STYLE ('',( #260 ) ) ;
#69 = PRODUCT_DEFINITION_FORMATION_WITH_SPECIFIED_SOURCE ( 'ANY', '', #197, .NOT_KNOWN. ) ;
#70 = CARTESIAN_POINT ( 'NONE',  ( 0.0000000000000000000, 0.0000000000000000000, 2.465314999999999923 ) ) ;
#71 = CARTESIAN_POINT ( 'NONE',  ( 0.1573230194999999942, 1.926651322628716627E-17, 3.791200677927629740E-33 ) ) ;
#72 = ORIENTED_EDGE ( 'NONE', *, *, #19, .T. ) ;
#73 = AXIS2_PLACEMENT_3D ( 'NONE', #15, #101, #294 ) ;
#74 = PRESENTATION_LAYER_ASSIGNMENT (  '', '', ( #209 ) ) ;
#75 = FILL_AREA_STYLE ('',( #157 ) ) ;
#76 =( CONVERSION_BASED_UNIT ( 'INCH', #291 ) LENGTH_UNIT ( ) NAMED_UNIT ( #299 ) );
#77 = ADVANCED_FACE ( 'NONE', ( #183 ), #215, .T. ) ;
#78 = CARTESIAN_POINT ( 'NONE',  ( -0.1424804999999990940, 0.0000000000000000000, 2.480315000000000047 ) ) ;
#79 = ORIENTED_EDGE ( 'NONE', *, *, #248, .F. ) ;
#80 = CARTESIAN_POINT ( 'NONE',  ( 9.160737698129936696E-17, 0.0000000000000000000, 0.7480309999999998904 ) ) ;
#81 = AXIS2_PLACEMENT_3D ( 'NONE', #12, #52, #190 ) ;
#82 = EDGE_CURVE ( 'NONE', #222, #178, #133, .T. ) ;
#83 = ORIENTED_EDGE ( 'NONE', *, *, #116, .T. ) ;
#84 = LINE ( 'NONE', #38, #108 ) ;
#85 = ORIENTED_EDGE ( 'NONE', *, *, #146, .F. ) ;
#86 = FACE_OUTER_BOUND ( 'NONE', #122, .T. ) ;
#87 = CIRCLE ( 'NONE', #65, 0.1424804999999990940 ) ;
#88 =( GEOMETRIC_REPRESENTATION_CONTEXT ( 3 ) GLOBAL_UNCERTAINTY_ASSIGNED_CONTEXT ( ( #228 ) ) GLOBAL_UNIT_ASSIGNED_CONTEXT ( ( #94, #235, #279 ) ) REPRESENTATION_CONTEXT ( 'NONE', 'WORKASPACE' ) );
#89 = DIRECTION ( 'NONE',  ( -1.224646799147353207E-16, -0.0000000000000000000, -1.000000000000000000 ) ) ;
#90 = CYLINDRICAL_SURFACE ( 'NONE', #232, 0.1573230195000000220 ) ;
#91 = EDGE_CURVE ( 'NONE', #100, #178, #30, .T. ) ;
#92 = COLOUR_RGB ( '',0.7921568627450980005, 0.8196078431372548767, 0.9333333333333333481 ) ;
#93 = CARTESIAN_POINT ( 'NONE',  ( 0.1424804999999990940, 1.836731392595189962E-17, 2.480315000000000047 ) ) ;
#94 =( CONVERSION_BASED_UNIT ( 'INCH', #257 ) LENGTH_UNIT ( ) NAMED_UNIT ( #119 ) );
#95 = CARTESIAN_POINT ( 'NONE',  ( 0.0000000000000000000, 0.0000000000000000000, 2.480315000000000047 ) ) ;
#96 = DIRECTION ( 'NONE',  ( -1.224646799147353207E-16, -0.0000000000000000000, -1.000000000000000000 ) ) ;
#97 = DIRECTION ( 'NONE',  ( 1.000000000000000000, 0.0000000000000000000, 0.0000000000000000000 ) ) ;
#98 = AXIS2_PLACEMENT_3D ( 'NONE', #18, #167, #272 ) ;
#99 = ADVANCED_BREP_SHAPE_REPRESENTATION ( 'Micro_GEMM-080-4', ( #151, #195 ), #44 ) ;
#100 = VERTEX_POINT ( 'NONE', #236 ) ;
#101 = DIRECTION ( 'NONE',  ( -0.0000000000000000000, -0.0000000000000000000, -1.000000000000000000 ) ) ;
#102 = ORIENTED_EDGE ( 'NONE', *, *, #181, .F. ) ;
#103 = AXIS2_PLACEMENT_3D ( 'NONE', #153, #130, #280 ) ;
#104 = ORIENTED_EDGE ( 'NONE', *, *, #58, .F. ) ;
#105 = ORIENTED_EDGE ( 'NONE', *, *, #21, .T. ) ;
#106 = CARTESIAN_POINT ( 'NONE',  ( 0.0000000000000000000, 0.0000000000000000000, 2.480315000000000047 ) ) ;
#107 = EDGE_LOOP ( 'NONE', ( #104, #247, #255, #64 ) ) ;
#108 = VECTOR ( 'NONE', #172, 39.37007874015748854 ) ;
#109 = DIRECTION ( 'NONE',  ( -1.224646799147353207E-16, -0.0000000000000000000, -1.000000000000000000 ) ) ;
#110 = DIRECTION ( 'NONE',  ( 0.1736481776669313859, 0.0000000000000000000, 0.9848077530122077983 ) ) ;
#111 = DIRECTION ( 'NONE',  ( 0.0000000000000000000, 0.0000000000000000000, -1.000000000000000000 ) ) ;
#112 = PRESENTATION_STYLE_ASSIGNMENT (( #31 ) ) ;
#113 = AXIS2_PLACEMENT_3D ( 'NONE', #261, #191, #208 ) ;
#114 = DIRECTION ( 'NONE',  ( -0.1736481776669311916, 2.126576849575783316E-17, 0.9848077530122080203 ) ) ;
#115 = DIRECTION ( 'NONE',  ( 1.000000000000000000, 0.0000000000000000000, 0.0000000000000000000 ) ) ;
#116 = EDGE_CURVE ( 'NONE', #25, #50, #268, .T. ) ;
#117 = DIRECTION ( 'NONE',  ( -1.224646799147353207E-16, -0.0000000000000000000, -1.000000000000000000 ) ) ;
#118 = AXIS2_PLACEMENT_3D ( 'NONE', #34, #117, #8 ) ;
#119 = DIMENSIONAL_EXPONENTS ( 1.000000000000000000, 0.0000000000000000000, 0.0000000000000000000, 0.0000000000000000000, 0.0000000000000000000, 0.0000000000000000000, 0.0000000000000000000 ) ;
#120 = DIRECTION ( 'NONE',  ( 1.000000000000000000, 0.0000000000000000000, 0.0000000000000000000 ) ) ;
#121 = ORIENTED_EDGE ( 'NONE', *, *, #241, .F. ) ;
#122 = EDGE_LOOP ( 'NONE', ( #20, #72, #174, #221 ) ) ;
#123 = ORIENTED_EDGE ( 'NONE', *, *, #241, .T. ) ;
#124 = AXIS2_PLACEMENT_3D ( 'NONE', #226, #254, #201 ) ;
#125 = ADVANCED_FACE ( 'NONE', ( #163 ), #281, .F. ) ;
#126 = DIRECTION ( 'NONE',  ( -1.000000000000000000, 0.0000000000000000000, 1.224646799147353454E-16 ) ) ;
#127 = ORIENTED_EDGE ( 'NONE', *, *, #152, .F. ) ;
#128 =( CONVERSION_BASED_UNIT ( 'INCH', #182 ) LENGTH_UNIT ( ) NAMED_UNIT ( #145 ) );
#129 = ORIENTED_EDGE ( 'NONE', *, *, #173, .F. ) ;
#130 = DIRECTION ( 'NONE',  ( -0.0000000000000000000, -0.0000000000000000000, -1.000000000000000000 ) ) ;
#131 = ORIENTED_EDGE ( 'NONE', *, *, #91, .F. ) ;
#132 = SURFACE_SIDE_STYLE ('',( #154 ) ) ;
#133 = LINE ( 'NONE', #238, #16 ) ;
#134 =( NAMED_UNIT ( * ) SI_UNIT ( $, .STERADIAN. ) SOLID_ANGLE_UNIT ( ) );
#135 = FACE_OUTER_BOUND ( 'NONE', #225, .T. ) ;
#136 = CARTESIAN_POINT ( 'NONE',  ( 0.0000000000000000000, 0.0000000000000000000, 2.480315000000000047 ) ) ;
#137 = VECTOR ( 'NONE', #28, 39.37007874015748143 ) ;
#138 = CARTESIAN_POINT ( 'NONE',  ( -0.1573230194999999387, 1.927615612579982019E-17, 0.7480309999999998904 ) ) ;
#139 = CARTESIAN_POINT ( 'NONE',  ( -0.1573230195000000220, 0.0000000000000000000, 1.926651322628716935E-17 ) ) ;
#140 = LINE ( 'NONE', #139, #266 ) ;
#141 = EDGE_CURVE ( 'NONE', #188, #222, #262, .T. ) ;
#142 = DIRECTION ( 'NONE',  ( -1.000000000000000000, 0.0000000000000000000, 0.0000000000000000000 ) ) ;
#143 = DIRECTION ( 'NONE',  ( -1.224646799147353207E-16, -0.0000000000000000000, -1.000000000000000000 ) ) ;
#144 = VERTEX_POINT ( 'NONE', #138 ) ;
#145 = DIMENSIONAL_EXPONENTS ( 1.000000000000000000, 0.0000000000000000000, 0.0000000000000000000, 0.0000000000000000000, 0.0000000000000000000, 0.0000000000000000000, 0.0000000000000000000 ) ;
#146 = EDGE_CURVE ( 'NONE', #144, #100, #160, .T. ) ;
#147 = FACE_OUTER_BOUND ( 'NONE', #196, .T. ) ;
#148 = ORIENTED_EDGE ( 'NONE', *, *, #116, .F. ) ;
#149 = CARTESIAN_POINT ( 'NONE',  ( 9.160737698129936696E-17, 0.0000000000000000000, 0.7480309999999998904 ) ) ;
#150 = VERTEX_POINT ( 'NONE', #207 ) ;
#151 = MANIFOLD_SOLID_BREP ( 'Cut-Revolve1', #283 ) ;
#152 = EDGE_CURVE ( 'NONE', #144, #25, #140, .T. ) ;
#153 = CARTESIAN_POINT ( 'NONE',  ( 0.0000000000000000000, 0.0000000000000000000, 2.480315000000000047 ) ) ;
#154 = SURFACE_STYLE_FILL_AREA ( #203 ) ;
#155 = PRESENTATION_LAYER_ASSIGNMENT (  '', '', ( #39 ) ) ;
#156 = SURFACE_STYLE_USAGE ( .BOTH. , #68 ) ;
#157 = FILL_AREA_STYLE_COLOUR ( '', #92 ) ;
#158 = DIRECTION ( 'NONE',  ( -1.000000000000000000, 0.0000000000000000000, 0.0000000000000000000 ) ) ;
#159 = ADVANCED_FACE ( 'NONE', ( #242 ), #14, .T. ) ;
#160 = CIRCLE ( 'NONE', #118, 0.1573230195000000220 ) ;
#161 = CARTESIAN_POINT ( 'NONE',  ( 0.1573230195000001330, 0.0000000000000000000, 0.7480309999999998904 ) ) ;
#162 =( NAMED_UNIT ( * ) SI_UNIT ( $, .STERADIAN. ) SOLID_ANGLE_UNIT ( ) );
#163 = FACE_OUTER_BOUND ( 'NONE', #165, .T. ) ;
#164 = CIRCLE ( 'NONE', #245, 0.1574804999999999955 ) ;
#165 = EDGE_LOOP ( 'NONE', ( #83, #123 ) ) ;
#166 = VECTOR ( 'NONE', #198, 39.37007874015748854 ) ;
#167 = DIRECTION ( 'NONE',  ( 0.0000000000000000000, 0.0000000000000000000, 1.000000000000000000 ) ) ;
#168 = PRODUCT_DEFINITION_SHAPE ( 'NONE', 'NONE',  #63 ) ;
#169 = CARTESIAN_POINT ( 'NONE',  ( 0.0000000000000000000, 0.0000000000000000000, 2.480315000000000047 ) ) ;
#170 = ORIENTED_EDGE ( 'NONE', *, *, #248, .T. ) ;
#171 = UNCERTAINTY_MEASURE_WITH_UNIT (LENGTH_MEASURE( 1.000000000000000082E-05 ), #128, 'distance_accuracy_value', 'NONE');
#172 = DIRECTION ( 'NONE',  ( 0.7071067811865627828, 8.659560562355118980E-17, -0.7071067811865321406 ) ) ;
#173 = EDGE_CURVE ( 'NONE', #250, #67, #87, .T. ) ;
#174 = ORIENTED_EDGE ( 'NONE', *, *, #295, .T. ) ;
#175 = CARTESIAN_POINT ( 'NONE',  ( 9.171675218268839954E-17, 0.0000000000000000000, 0.7489241162965939447 ) ) ;
#176 = AXIS2_PLACEMENT_3D ( 'NONE', #136, #213, #158 ) ;
#177 = VECTOR ( 'NONE', #258, 39.37007874015748143 ) ;
#178 = VERTEX_POINT ( 'NONE', #41 ) ;
#179 = DIRECTION ( 'NONE',  ( -1.000000000000000000, 0.0000000000000000000, 0.0000000000000000000 ) ) ;
#180 = DIRECTION ( 'NONE',  ( 0.0000000000000000000, 0.0000000000000000000, 1.000000000000000000 ) ) ;
#181 = EDGE_CURVE ( 'NONE', #100, #144, #202, .T. ) ;
#182 = LENGTH_MEASURE_WITH_UNIT ( LENGTH_MEASURE( 0.02539999999999999897 ), #1 );
#183 = FACE_OUTER_BOUND ( 'NONE', #45, .T. ) ;
#184 = PRODUCT_RELATED_PRODUCT_CATEGORY ( 'part', '', ( #197 ) ) ;
#185 = APPLICATION_PROTOCOL_DEFINITION ( 'draft international standard', 'automotive_design', 1998, #54 ) ;
#186 = VECTOR ( 'NONE', #114, 39.37007874015747433 ) ;
#187 = AXIS2_PLACEMENT_3D ( 'NONE', #249, #143, #126 ) ;
#188 = VERTEX_POINT ( 'NONE', #243 ) ;
#189 = APPLICATION_PROTOCOL_DEFINITION ( 'draft international standard', 'automotive_design', 1998, #37 ) ;
#190 = DIRECTION ( 'NONE',  ( 1.000000000000000000, 0.0000000000000000000, 0.0000000000000000000 ) ) ;
#191 = DIRECTION ( 'NONE',  ( 0.0000000000000000000, 0.0000000000000000000, 1.000000000000000000 ) ) ;
#192 = CARTESIAN_POINT ( 'NONE',  ( -0.1573230194999999387, 1.926651322628716935E-17, 0.7480309999999998904 ) ) ;
#193 = EDGE_CURVE ( 'NONE', #67, #222, #84, .T. ) ;
#194 =( GEOMETRIC_REPRESENTATION_CONTEXT ( 3 ) GLOBAL_UNCERTAINTY_ASSIGNED_CONTEXT ( ( #46 ) ) GLOBAL_UNIT_ASSIGNED_CONTEXT ( ( #76, #216, #162 ) ) REPRESENTATION_CONTEXT ( 'NONE', 'WORKASPACE' ) );
#195 = AXIS2_PLACEMENT_3D ( 'NONE', #53, #180, #7 ) ;
#196 = EDGE_LOOP ( 'NONE', ( #227, #55 ) ) ;
#197 = PRODUCT ( 'Micro_GEMM-080-4', 'Micro_GEMM-080-4', '', ( #287 ) ) ;
#198 = DIRECTION ( 'NONE',  ( -0.7071067811865627828, 0.0000000000000000000, -0.7071067811865321406 ) ) ;
#199 = EDGE_LOOP ( 'NONE', ( #85, #105, #170, #131 ) ) ;
#200 = FACE_OUTER_BOUND ( 'NONE', #27, .T. ) ;
#201 = DIRECTION ( 'NONE',  ( -1.000000000000000000, 0.0000000000000000000, 1.224646799147353454E-16 ) ) ;
#202 = CIRCLE ( 'NONE', #244, 0.1573230195000000220 ) ;
#203 = FILL_AREA_STYLE ('',( #48 ) ) ;
#204 = ORIENTED_EDGE ( 'NONE', *, *, #146, .T. ) ;
#205 = CYLINDRICAL_SURFACE ( 'NONE', #103, 0.1574804999999999955 ) ;
#206 = ADVANCED_FACE ( 'NONE', ( #147 ), #23, .T. ) ;
#207 = CARTESIAN_POINT ( 'NONE',  ( -0.1574804999999998845, 0.0000000000000000000, 0.7489241162965939447 ) ) ;
#208 = DIRECTION ( 'NONE',  ( 1.000000000000000000, 0.0000000000000000000, -0.0000000000000000000 ) ) ;
#209 = STYLED_ITEM ( 'NONE', ( #112 ), #99 ) ;
#210 = CARTESIAN_POINT ( 'NONE',  ( -0.1573230194999999942, 0.0000000000000000000, 3.853302645257433254E-17 ) ) ;
#211 =( LENGTH_UNIT ( ) NAMED_UNIT ( * ) SI_UNIT ( $, .METRE. ) );
#212 = DIRECTION ( 'NONE',  ( -0.0000000000000000000, -0.0000000000000000000, -1.000000000000000000 ) ) ;
#213 = DIRECTION ( 'NONE',  ( 0.0000000000000000000, 0.0000000000000000000, -1.000000000000000000 ) ) ;
#214 = DIRECTION ( 'NONE',  ( -1.224646799147353207E-16, -0.0000000000000000000, -1.000000000000000000 ) ) ;
#215 = CONICAL_SURFACE ( 'NONE', #81, 0.1573230195000000220, 0.1745329251994338915 ) ;
#216 =( NAMED_UNIT ( * ) PLANE_ANGLE_UNIT ( ) SI_UNIT ( $, .RADIAN. ) );
#217 = EDGE_CURVE ( 'NONE', #250, #188, #270, .T. ) ;
#218 = MECHANICAL_DESIGN_GEOMETRIC_PRESENTATION_REPRESENTATION (  '', ( #39 ), #194 ) ;
#219 = AXIS2_PLACEMENT_3D ( 'NONE', #175, #89, #231 ) ;
#220 = DIRECTION ( 'NONE',  ( 0.0000000000000000000, 0.0000000000000000000, 1.000000000000000000 ) ) ;
#221 = ORIENTED_EDGE ( 'NONE', *, *, #269, .F. ) ;
#222 = VERTEX_POINT ( 'NONE', #62 ) ;
#223 = CONICAL_SURFACE ( 'NONE', #292, 0.1573230195000000220, 0.1745329251994338915 ) ;
#224 = DIRECTION ( 'NONE',  ( 1.224646799147353207E-16, 0.0000000000000000000, 1.000000000000000000 ) ) ;
#225 = EDGE_LOOP ( 'NONE', ( #24, #61, #239, #121 ) ) ;
#226 = CARTESIAN_POINT ( 'NONE',  ( 2.359467375330272285E-33, 0.0000000000000000000, 1.926651322628716627E-17 ) ) ;
#227 = ORIENTED_EDGE ( 'NONE', *, *, #173, .T. ) ;
#228 = UNCERTAINTY_MEASURE_WITH_UNIT (LENGTH_MEASURE( 1.000000000000000082E-05 ), #94, 'distance_accuracy_value', 'NONE');
#229 =( NAMED_UNIT ( * ) PLANE_ANGLE_UNIT ( ) SI_UNIT ( $, .RADIAN. ) );
#230 = ORIENTED_EDGE ( 'NONE', *, *, #21, .F. ) ;
#231 = DIRECTION ( 'NONE',  ( 1.000000000000000000, 0.0000000000000000000, 0.0000000000000000000 ) ) ;
#232 = AXIS2_PLACEMENT_3D ( 'NONE', #289, #286, #284 ) ;
#233 = ADVANCED_FACE ( 'NONE', ( #267 ), #223, .T. ) ;
#234 = DIRECTION ( 'NONE',  ( 0.0000000000000000000, 0.0000000000000000000, -1.000000000000000000 ) ) ;
#235 =( NAMED_UNIT ( * ) PLANE_ANGLE_UNIT ( ) SI_UNIT ( $, .RADIAN. ) );
#236 = CARTESIAN_POINT ( 'NONE',  ( 0.1573230195000001330, 0.0000000000000000000, 0.7480309999999998904 ) ) ;
#237 = DIRECTION ( 'NONE',  ( 1.000000000000000000, 0.0000000000000000000, 0.0000000000000000000 ) ) ;
#238 = CARTESIAN_POINT ( 'NONE',  ( 0.1574804999999999955, 1.928579902531247412E-17, 2.480315000000000047 ) ) ;
#239 = ORIENTED_EDGE ( 'NONE', *, *, #152, .T. ) ;
#240 = ADVANCED_FACE ( 'NONE', ( #252 ), #297, .T. ) ;
#241 = EDGE_CURVE ( 'NONE', #50, #25, #2, .T. ) ;
#242 = FACE_OUTER_BOUND ( 'NONE', #253, .T. ) ;
#243 = CARTESIAN_POINT ( 'NONE',  ( -0.1574804999999999955, 0.0000000000000000000, 2.465314999999999923 ) ) ;
#244 = AXIS2_PLACEMENT_3D ( 'NONE', #80, #246, #142 ) ;
#245 = AXIS2_PLACEMENT_3D ( 'NONE', #70, #234, #237 ) ;
#246 = DIRECTION ( 'NONE',  ( -1.224646799147353207E-16, -0.0000000000000000000, -1.000000000000000000 ) ) ;
#247 = ORIENTED_EDGE ( 'NONE', *, *, #193, .T. ) ;
#248 = EDGE_CURVE ( 'NONE', #150, #178, #276, .T. ) ;
#249 = CARTESIAN_POINT ( 'NONE',  ( 0.0000000000000000000, 0.0000000000000000000, 0.0000000000000000000 ) ) ;
#250 = VERTEX_POINT ( 'NONE', #3 ) ;
#251 = AXIS2_PLACEMENT_3D ( 'NONE', #11, #96, #264 ) ;
#252 = FACE_OUTER_BOUND ( 'NONE', #273, .T. ) ;
#253 = EDGE_LOOP ( 'NONE', ( #298, #256, #79, #271 ) ) ;
#254 = DIRECTION ( 'NONE',  ( -1.224646799147353207E-16, -0.0000000000000000000, -1.000000000000000000 ) ) ;
#255 = ORIENTED_EDGE ( 'NONE', *, *, #141, .F. ) ;
#256 = ORIENTED_EDGE ( 'NONE', *, *, #82, .T. ) ;
#257 = LENGTH_MEASURE_WITH_UNIT ( LENGTH_MEASURE( 0.02539999999999999897 ), #211 );
#258 = DIRECTION ( 'NONE',  ( -0.0000000000000000000, -0.0000000000000000000, -1.000000000000000000 ) ) ;
#259 = PRESENTATION_STYLE_ASSIGNMENT (( #156 ) ) ;
#260 = SURFACE_STYLE_FILL_AREA ( #75 ) ;
#261 = CARTESIAN_POINT ( 'NONE',  ( 0.0000000000000000000, 0.0000000000000000000, 0.0000000000000000000 ) ) ;
#262 = CIRCLE ( 'NONE', #56, 0.1574804999999999955 ) ;
#263 = CIRCLE ( 'NONE', #219, 0.1574804999999999955 ) ;
#264 = DIRECTION ( 'NONE',  ( -1.000000000000000000, 0.0000000000000000000, 1.224646799147353454E-16 ) ) ;
#265 = ADVANCED_FACE ( 'NONE', ( #86 ), #205, .T. ) ;
#266 = VECTOR ( 'NONE', #214, 39.37007874015748143 ) ;
#267 = FACE_OUTER_BOUND ( 'NONE', #199, .T. ) ;
#268 = CIRCLE ( 'NONE', #251, 0.1573230194999999942 ) ;
#269 = EDGE_CURVE ( 'NONE', #178, #150, #263, .T. ) ;
#270 = LINE ( 'NONE', #78, #166 ) ;
#271 = ORIENTED_EDGE ( 'NONE', *, *, #295, .F. ) ;
#272 = DIRECTION ( 'NONE',  ( 1.000000000000000000, 0.0000000000000000000, -0.0000000000000000000 ) ) ;
#273 = EDGE_LOOP ( 'NONE', ( #204, #43, #148, #127 ) ) ;
#274 = PRODUCT_DEFINITION_CONTEXT ( 'detailed design', #54, 'design' ) ;
#275 = AXIS2_PLACEMENT_3D ( 'NONE', #95, #29, #115 ) ;
#276 = CIRCLE ( 'NONE', #59, 0.1574804999999999955 ) ;
#277 = CARTESIAN_POINT ( 'NONE',  ( -0.1574804999999999955, 0.0000000000000000000, 2.480315000000000047 ) ) ;
#278 = LINE ( 'NONE', #26, #137 ) ;
#279 =( NAMED_UNIT ( * ) SI_UNIT ( $, .STERADIAN. ) SOLID_ANGLE_UNIT ( ) );
#280 = DIRECTION ( 'NONE',  ( -1.000000000000000000, 0.0000000000000000000, 0.0000000000000000000 ) ) ;
#281 = PLANE ( 'NONE',  #113 ) ;
#282 = EDGE_CURVE ( 'NONE', #100, #50, #278, .T. ) ;
#283 = CLOSED_SHELL ( 'NONE', ( #240, #233, #60, #159, #265, #206, #288, #77, #5, #125 ) ) ;
#284 = DIRECTION ( 'NONE',  ( -1.000000000000000000, 0.0000000000000000000, 1.224646799147353454E-16 ) ) ;
#285 = SHAPE_DEFINITION_REPRESENTATION ( #168, #99 ) ;
#286 = DIRECTION ( 'NONE',  ( -1.224646799147353207E-16, -0.0000000000000000000, -1.000000000000000000 ) ) ;
#287 = PRODUCT_CONTEXT ( 'NONE', #37, 'mechanical' ) ;
#288 = ADVANCED_FACE ( 'NONE', ( #200 ), #296, .T. ) ;
#289 = CARTESIAN_POINT ( 'NONE',  ( 0.0000000000000000000, 0.0000000000000000000, 0.0000000000000000000 ) ) ;
#290 = VECTOR ( 'NONE', #110, 39.37007874015748143 ) ;
#291 = LENGTH_MEASURE_WITH_UNIT ( LENGTH_MEASURE( 0.02539999999999999897 ), #36 );
#292 = AXIS2_PLACEMENT_3D ( 'NONE', #149, #224, #22 ) ;
#293 = ORIENTED_EDGE ( 'NONE', *, *, #193, .F. ) ;
#294 = DIRECTION ( 'NONE',  ( -1.000000000000000000, 0.0000000000000000000, 0.0000000000000000000 ) ) ;
#295 = EDGE_CURVE ( 'NONE', #188, #150, #4, .T. ) ;
#296 = CONICAL_SURFACE ( 'NONE', #9, 0.1424804999999990940, 0.7853981633974699283 ) ;
#297 = CYLINDRICAL_SURFACE ( 'NONE', #187, 0.1573230195000000220 ) ;
#298 = ORIENTED_EDGE ( 'NONE', *, *, #141, .T. ) ;
#299 = DIMENSIONAL_EXPONENTS ( 1.000000000000000000, 0.0000000000000000000, 0.0000000000000000000, 0.0000000000000000000, 0.0000000000000000000, 0.0000000000000000000, 0.0000000000000000000 ) ;
ENDSEC;
END-ISO-10303-21;
