ISO-10303-21;
HEADER;
FILE_DESCRIPTION (( 'STEP AP214' ),
    '1' );
FILE_NAME ('Micro_RME-032-2X.STEP',
    '2021-09-01T23:14:58',
    ( '' ),
    ( '' ),
    'SwSTEP 2.0',
    'SolidWorks 2020',
    '' );
FILE_SCHEMA (( 'AUTOMOTIVE_DESIGN' ));
ENDSEC;

DATA;
#1 = CIRCLE ( 'NONE', #203, 0.06250000000000002776 ) ;
#2 = ORIENTED_EDGE ( 'NONE', *, *, #258, .T. ) ;
#3 = DIRECTION ( 'NONE',  ( 0.0000000000000000000, 0.0000000000000000000, -1.000000000000000000 ) ) ;
#4 = CARTESIAN_POINT ( 'NONE',  ( 1.175660927181459403E-17, 0.0000000000000000000, 0.09600000000000000200 ) ) ;
#5 = VERTEX_POINT ( 'NONE', #245 ) ;
#6 = AXIS2_PLACEMENT_3D ( 'NONE', #36, #61, #85 ) ;
#7 = CARTESIAN_POINT ( 'NONE',  ( 0.01598400000000000515, 1.957475443757129660E-18, -1.957475443757130431E-18 ) ) ;
#8 = EDGE_CURVE ( 'NONE', #266, #175, #111, .T. ) ;
#9 = DIRECTION ( 'NONE',  ( 1.000000000000000000, 0.0000000000000000000, 0.0000000000000000000 ) ) ;
#10 = ORIENTED_EDGE ( 'NONE', *, *, #8, .F. ) ;
#11 = EDGE_CURVE ( 'NONE', #224, #175, #56, .T. ) ;
#12 = CARTESIAN_POINT ( 'NONE',  ( 0.0000000000000000000, 0.0000000000000000000, 1.500000000000000222 ) ) ;
#13 = FACE_OUTER_BOUND ( 'NONE', #74, .T. ) ;
#14 = AXIS2_PLACEMENT_3D ( 'NONE', #158, #134, #89 ) ;
#15 = FACE_OUTER_BOUND ( 'NONE', #173, .T. ) ;
#16 = FILL_AREA_STYLE_COLOUR ( '', #299 ) ;
#17 = CARTESIAN_POINT ( 'NONE',  ( -0.01598400000000000515, 0.0000000000000000000, 1.957475443757130431E-18 ) ) ;
#18 = CARTESIAN_POINT ( 'NONE',  ( 0.0000000000000000000, 0.0000000000000000000, 0.0000000000000000000 ) ) ;
#19 = AXIS2_PLACEMENT_3D ( 'NONE', #117, #296, #44 ) ;
#20 =( LENGTH_UNIT ( ) NAMED_UNIT ( * ) SI_UNIT ( $, .METRE. ) );
#21 = AXIS2_PLACEMENT_3D ( 'NONE', #192, #232, #284 ) ;
#22 = ADVANCED_FACE ( 'NONE', ( #13 ), #197, .T. ) ;
#23 = EDGE_CURVE ( 'NONE', #266, #5, #268, .T. ) ;
#24 = APPLICATION_PROTOCOL_DEFINITION ( 'draft international standard', 'automotive_design', 1998, #165 ) ;
#25 = CIRCLE ( 'NONE', #148, 0.01598400000000000515 ) ;
#26 = CARTESIAN_POINT ( 'NONE',  ( 0.0000000000000000000, 0.0000000000000000000, 0.0000000000000000000 ) ) ;
#27 = EDGE_LOOP ( 'NONE', ( #191, #50 ) ) ;
#28 = AXIS2_PLACEMENT_3D ( 'NONE', #230, #279, #37 ) ;
#29 = CARTESIAN_POINT ( 'NONE',  ( 0.0000000000000000000, 0.0000000000000000000, 1.485000000000000764 ) ) ;
#30 = VERTEX_POINT ( 'NONE', #114 ) ;
#31 = CARTESIAN_POINT ( 'NONE',  ( 0.06250000000000006939, 7.654042494670963708E-18, 0.3598053451213359955 ) ) ;
#32 = ORIENTED_EDGE ( 'NONE', *, *, #252, .T. ) ;
#33 = CARTESIAN_POINT ( 'NONE',  ( -0.06250000000000002776, 0.0000000000000000000, 1.500000000000000222 ) ) ;
#34 = EDGE_LOOP ( 'NONE', ( #217, #151 ) ) ;
#35 = DIRECTION ( 'NONE',  ( -1.000000000000000000, 0.0000000000000000000, 0.0000000000000000000 ) ) ;
#36 = CARTESIAN_POINT ( 'NONE',  ( 2.397216036606714706E-34, 0.0000000000000000000, 1.957475443757130431E-18 ) ) ;
#37 = DIRECTION ( 'NONE',  ( -1.000000000000000000, 0.0000000000000000000, 0.0000000000000000000 ) ) ;
#38 = DIRECTION ( 'NONE',  ( -1.224646799147353454E-16, -0.0000000000000000000, -1.000000000000000000 ) ) ;
#39 = PRESENTATION_LAYER_ASSIGNMENT (  '', '', ( #168 ) ) ;
#40 =( GEOMETRIC_REPRESENTATION_CONTEXT ( 3 ) GLOBAL_UNCERTAINTY_ASSIGNED_CONTEXT ( ( #70 ) ) GLOBAL_UNIT_ASSIGNED_CONTEXT ( ( #228, #253, #68 ) ) REPRESENTATION_CONTEXT ( 'NONE', 'WORKASPACE' ) );
#41 = CARTESIAN_POINT ( 'NONE',  ( 0.06250000000000002776, 7.654042494670959086E-18, 1.485000000000000764 ) ) ;
#42 = ADVANCED_FACE ( 'NONE', ( #201 ), #153, .T. ) ;
#43 = DIRECTION ( 'NONE',  ( 1.224646799147353454E-16, 0.0000000000000000000, 1.000000000000000000 ) ) ;
#44 = DIRECTION ( 'NONE',  ( 1.000000000000000000, 0.0000000000000000000, -0.0000000000000000000 ) ) ;
#45 = AXIS2_PLACEMENT_3D ( 'NONE', #18, #38, #293 ) ;
#46 = UNCERTAINTY_MEASURE_WITH_UNIT (LENGTH_MEASURE( 1.000000000000000082E-05 ), #272, 'distance_accuracy_value', 'NONE');
#47 = ORIENTED_EDGE ( 'NONE', *, *, #96, .F. ) ;
#48 = AXIS2_PLACEMENT_3D ( 'NONE', #177, #145, #188 ) ;
#49 = CARTESIAN_POINT ( 'NONE',  ( 1.175660927181459403E-17, 0.0000000000000000000, 0.09600000000000000200 ) ) ;
#50 = ORIENTED_EDGE ( 'NONE', *, *, #96, .T. ) ;
#51 = ADVANCED_FACE ( 'NONE', ( #135 ), #202, .F. ) ;
#52 = CARTESIAN_POINT ( 'NONE',  ( 4.406344642189529670E-17, 0.0000000000000000000, 0.3598053451213359955 ) ) ;
#53 = VERTEX_POINT ( 'NONE', #41 ) ;
#54 = DIRECTION ( 'NONE',  ( -0.0000000000000000000, -0.0000000000000000000, -1.000000000000000000 ) ) ;
#55 = ORIENTED_EDGE ( 'NONE', *, *, #150, .T. ) ;
#56 = CIRCLE ( 'NONE', #195, 0.06250000000000002776 ) ;
#57 = PRESENTATION_STYLE_ASSIGNMENT (( #265 ) ) ;
#58 = ORIENTED_EDGE ( 'NONE', *, *, #169, .F. ) ;
#59 = CARTESIAN_POINT ( 'NONE',  ( 0.0000000000000000000, 0.0000000000000000000, 1.500000000000000222 ) ) ;
#60 = DIRECTION ( 'NONE',  ( -1.224646799147353454E-16, -0.0000000000000000000, -1.000000000000000000 ) ) ;
#61 = DIRECTION ( 'NONE',  ( -1.224646799147353454E-16, -0.0000000000000000000, -1.000000000000000000 ) ) ;
#62 = SURFACE_SIDE_STYLE ('',( #181 ) ) ;
#63 = CARTESIAN_POINT ( 'NONE',  ( 1.175660927181459403E-17, 0.0000000000000000000, 0.09600000000000000200 ) ) ;
#64 = CARTESIAN_POINT ( 'NONE',  ( -0.01598399999999999127, 1.957475443757129660E-18, 0.09600000000000000200 ) ) ;
#65 = ADVANCED_FACE ( 'NONE', ( #222 ), #243, .T. ) ;
#66 = CIRCLE ( 'NONE', #221, 0.01598400000000000515 ) ;
#67 = EDGE_CURVE ( 'NONE', #5, #278, #227, .T. ) ;
#68 =( NAMED_UNIT ( * ) SI_UNIT ( $, .STERADIAN. ) SOLID_ANGLE_UNIT ( ) );
#69 = VECTOR ( 'NONE', #54, 39.37007874015748143 ) ;
#70 = UNCERTAINTY_MEASURE_WITH_UNIT (LENGTH_MEASURE( 1.000000000000000082E-05 ), #228, 'distance_accuracy_value', 'NONE');
#71 = ORIENTED_EDGE ( 'NONE', *, *, #77, .F. ) ;
#72 = CARTESIAN_POINT ( 'NONE',  ( 0.01598400000000001556, 0.0000000000000000000, 0.09600000000000000200 ) ) ;
#73 = DIMENSIONAL_EXPONENTS ( 1.000000000000000000, 0.0000000000000000000, 0.0000000000000000000, 0.0000000000000000000, 0.0000000000000000000, 0.0000000000000000000, 0.0000000000000000000 ) ;
#74 = EDGE_LOOP ( 'NONE', ( #193, #55, #282, #47 ) ) ;
#75 = DIRECTION ( 'NONE',  ( -1.224646799147353454E-16, -0.0000000000000000000, -1.000000000000000000 ) ) ;
#76 = ORIENTED_EDGE ( 'NONE', *, *, #11, .F. ) ;
#77 = EDGE_CURVE ( 'NONE', #30, #236, #247, .T. ) ;
#78 = LINE ( 'NONE', #157, #83 ) ;
#79 = EDGE_LOOP ( 'NONE', ( #255, #108, #240, #71 ) ) ;
#80 = SURFACE_STYLE_FILL_AREA ( #288 ) ;
#81 = ORIENTED_EDGE ( 'NONE', *, *, #159, .F. ) ;
#82 = VECTOR ( 'NONE', #110, 39.37007874015748143 ) ;
#83 = VECTOR ( 'NONE', #294, 39.37007874015748854 ) ;
#84 = FACE_OUTER_BOUND ( 'NONE', #79, .T. ) ;
#85 = DIRECTION ( 'NONE',  ( -1.000000000000000000, 0.0000000000000000000, 1.224646799147353454E-16 ) ) ;
#86 = PRODUCT_RELATED_PRODUCT_CATEGORY ( 'part', '', ( #205 ) ) ;
#87 = DIRECTION ( 'NONE',  ( 1.224646799147353454E-16, 0.0000000000000000000, 1.000000000000000000 ) ) ;
#88 = FILL_AREA_STYLE ('',( #16 ) ) ;
#89 = DIRECTION ( 'NONE',  ( 1.000000000000000000, 0.0000000000000000000, -0.0000000000000000000 ) ) ;
#90 = DIRECTION ( 'NONE',  ( -0.7071067811865462405, 0.0000000000000000000, -0.7071067811865486830 ) ) ;
#91 =( CONVERSION_BASED_UNIT ( 'INCH', #139 ) LENGTH_UNIT ( ) NAMED_UNIT ( #133 ) );
#92 = CARTESIAN_POINT ( 'NONE',  ( 0.01598400000000000515, 1.957475443757129660E-18, 0.0000000000000000000 ) ) ;
#93 = ADVANCED_FACE ( 'NONE', ( #270 ), #112, .T. ) ;
#94 = APPLICATION_CONTEXT ( 'automotive_design' ) ;
#95 = CIRCLE ( 'NONE', #264, 0.06250000000000002776 ) ;
#96 = EDGE_CURVE ( 'NONE', #278, #5, #141, .T. ) ;
#97 = SHAPE_DEFINITION_REPRESENTATION ( #215, #220 ) ;
#98 = ORIENTED_EDGE ( 'NONE', *, *, #109, .T. ) ;
#99 = DIRECTION ( 'NONE',  ( 1.000000000000000000, 0.0000000000000000000, 0.0000000000000000000 ) ) ;
#100 = ORIENTED_EDGE ( 'NONE', *, *, #281, .F. ) ;
#101 = DIMENSIONAL_EXPONENTS ( 1.000000000000000000, 0.0000000000000000000, 0.0000000000000000000, 0.0000000000000000000, 0.0000000000000000000, 0.0000000000000000000, 0.0000000000000000000 ) ;
#102 = DIRECTION ( 'NONE',  ( -1.000000000000000000, 0.0000000000000000000, 0.0000000000000000000 ) ) ;
#103 = ORIENTED_EDGE ( 'NONE', *, *, #204, .T. ) ;
#104 = AXIS2_PLACEMENT_3D ( 'NONE', #59, #152, #35 ) ;
#105 = DIRECTION ( 'NONE',  ( -1.224646799147353454E-16, -0.0000000000000000000, -1.000000000000000000 ) ) ;
#106 = EDGE_LOOP ( 'NONE', ( #81, #98, #146, #76 ) ) ;
#107 = DIRECTION ( 'NONE',  ( 0.0000000000000000000, 0.0000000000000000000, 1.000000000000000000 ) ) ;
#108 = ORIENTED_EDGE ( 'NONE', *, *, #281, .T. ) ;
#109 = EDGE_CURVE ( 'NONE', #53, #236, #1, .T. ) ;
#110 = DIRECTION ( 'NONE',  ( -0.0000000000000000000, -0.0000000000000000000, -1.000000000000000000 ) ) ;
#111 = LINE ( 'NONE', #64, #246 ) ;
#112 = CONICAL_SURFACE ( 'NONE', #275, 0.01598400000000000515, 0.1745329251994338915 ) ;
#113 = CARTESIAN_POINT ( 'NONE',  ( 4.406344642189529670E-17, 0.0000000000000000000, 0.3598053451213359955 ) ) ;
#114 = CARTESIAN_POINT ( 'NONE',  ( -0.04750000000000064587, 0.0000000000000000000, 1.500000000000000222 ) ) ;
#115 =( NAMED_UNIT ( * ) PLANE_ANGLE_UNIT ( ) SI_UNIT ( $, .RADIAN. ) );
#116 = ADVANCED_FACE ( 'NONE', ( #15 ), #207, .T. ) ;
#117 = CARTESIAN_POINT ( 'NONE',  ( 0.0000000000000000000, 0.0000000000000000000, 1.500000000000000222 ) ) ;
#118 = VECTOR ( 'NONE', #90, 39.37007874015748854 ) ;
#119 = LENGTH_MEASURE_WITH_UNIT ( LENGTH_MEASURE( 0.02539999999999999897 ), #20 );
#120 = AXIS2_PLACEMENT_3D ( 'NONE', #194, #107, #131 ) ;
#121 = EDGE_CURVE ( 'NONE', #236, #175, #171, .T. ) ;
#122 = CONICAL_SURFACE ( 'NONE', #48, 0.04750000000000064587, 0.7853981633974466137 ) ;
#123 = EDGE_LOOP ( 'NONE', ( #100, #58, #289, #142 ) ) ;
#124 = PRODUCT_DEFINITION_CONTEXT ( 'detailed design', #94, 'design' ) ;
#125 = EDGE_LOOP ( 'NONE', ( #287, #132, #103, #212 ) ) ;
#126 = DIRECTION ( 'NONE',  ( 1.000000000000000000, 0.0000000000000000000, 0.0000000000000000000 ) ) ;
#127 = ORIENTED_EDGE ( 'NONE', *, *, #204, .F. ) ;
#128 = CARTESIAN_POINT ( 'NONE',  ( -0.06250000000000002776, 0.0000000000000000000, 1.485000000000000764 ) ) ;
#129 = VERTEX_POINT ( 'NONE', #72 ) ;
#130 =( GEOMETRIC_REPRESENTATION_CONTEXT ( 3 ) GLOBAL_UNCERTAINTY_ASSIGNED_CONTEXT ( ( #276 ) ) GLOBAL_UNIT_ASSIGNED_CONTEXT ( ( #91, #161, #178 ) ) REPRESENTATION_CONTEXT ( 'NONE', 'WORKASPACE' ) );
#131 = DIRECTION ( 'NONE',  ( 1.000000000000000000, 0.0000000000000000000, 0.0000000000000000000 ) ) ;
#132 = ORIENTED_EDGE ( 'NONE', *, *, #8, .T. ) ;
#133 = DIMENSIONAL_EXPONENTS ( 1.000000000000000000, 0.0000000000000000000, 0.0000000000000000000, 0.0000000000000000000, 0.0000000000000000000, 0.0000000000000000000, 0.0000000000000000000 ) ;
#134 = DIRECTION ( 'NONE',  ( 0.0000000000000000000, 0.0000000000000000000, 1.000000000000000000 ) ) ;
#135 = FACE_OUTER_BOUND ( 'NONE', #27, .T. ) ;
#136 = VECTOR ( 'NONE', #105, 39.37007874015748143 ) ;
#137 = DIRECTION ( 'NONE',  ( -1.000000000000000000, 0.0000000000000000000, 1.224646799147353454E-16 ) ) ;
#138 = CARTESIAN_POINT ( 'NONE',  ( -0.04750000000000064587, 0.0000000000000000000, 1.500000000000000222 ) ) ;
#139 = LENGTH_MEASURE_WITH_UNIT ( LENGTH_MEASURE( 0.02539999999999999897 ), #218 );
#140 =( LENGTH_UNIT ( ) NAMED_UNIT ( * ) SI_UNIT ( $, .METRE. ) );
#141 = CIRCLE ( 'NONE', #6, 0.01598400000000000515 ) ;
#142 = ORIENTED_EDGE ( 'NONE', *, *, #109, .F. ) ;
#143 = CYLINDRICAL_SURFACE ( 'NONE', #28, 0.06250000000000002776 ) ;
#144 = ORIENTED_EDGE ( 'NONE', *, *, #67, .F. ) ;
#145 = DIRECTION ( 'NONE',  ( 0.0000000000000000000, 0.0000000000000000000, -1.000000000000000000 ) ) ;
#146 = ORIENTED_EDGE ( 'NONE', *, *, #121, .T. ) ;
#147 = DIRECTION ( 'NONE',  ( -1.000000000000000000, 0.0000000000000000000, 0.0000000000000000000 ) ) ;
#148 = AXIS2_PLACEMENT_3D ( 'NONE', #49, #75, #147 ) ;
#149 = PRODUCT_DEFINITION_FORMATION_WITH_SPECIFIED_SOURCE ( 'ANY', '', #205, .NOT_KNOWN. ) ;
#150 = EDGE_CURVE ( 'NONE', #129, #266, #25, .T. ) ;
#151 = ORIENTED_EDGE ( 'NONE', *, *, #163, .T. ) ;
#152 = DIRECTION ( 'NONE',  ( -0.0000000000000000000, -0.0000000000000000000, -1.000000000000000000 ) ) ;
#153 = CYLINDRICAL_SURFACE ( 'NONE', #45, 0.01598400000000000515 ) ;
#154 = DIRECTION ( 'NONE',  ( -1.224646799147353454E-16, -0.0000000000000000000, -1.000000000000000000 ) ) ;
#155 = AXIS2_PLACEMENT_3D ( 'NONE', #291, #182, #292 ) ;
#156 = DIRECTION ( 'NONE',  ( -1.224646799147353454E-16, -0.0000000000000000000, -1.000000000000000000 ) ) ;
#157 = CARTESIAN_POINT ( 'NONE',  ( 0.04750000000000064587, 5.817072295950006528E-18, 1.500000000000000222 ) ) ;
#158 = CARTESIAN_POINT ( 'NONE',  ( 0.0000000000000000000, 0.0000000000000000000, 0.0000000000000000000 ) ) ;
#159 = EDGE_CURVE ( 'NONE', #53, #224, #256, .T. ) ;
#160 = CONICAL_SURFACE ( 'NONE', #21, 0.04750000000000064587, 0.7853981633974466137 ) ;
#161 =( NAMED_UNIT ( * ) PLANE_ANGLE_UNIT ( ) SI_UNIT ( $, .RADIAN. ) );
#162 = APPLICATION_PROTOCOL_DEFINITION ( 'draft international standard', 'automotive_design', 1998, #94 ) ;
#163 = EDGE_CURVE ( 'NONE', #233, #30, #295, .T. ) ;
#164 = AXIS2_PLACEMENT_3D ( 'NONE', #199, #87, #269 ) ;
#165 = APPLICATION_CONTEXT ( 'automotive_design' ) ;
#166 = EDGE_LOOP ( 'NONE', ( #32, #2, #144, #261 ) ) ;
#167 = CARTESIAN_POINT ( 'NONE',  ( 0.01598400000000001556, 0.0000000000000000000, 0.09600000000000000200 ) ) ;
#168 = STYLED_ITEM ( 'NONE', ( #57 ), #273 ) ;
#169 = EDGE_CURVE ( 'NONE', #30, #233, #248, .T. ) ;
#170 = ORIENTED_EDGE ( 'NONE', *, *, #11, .T. ) ;
#171 = LINE ( 'NONE', #33, #69 ) ;
#172 = FILL_AREA_STYLE_COLOUR ( '', #298 ) ;
#173 = EDGE_LOOP ( 'NONE', ( #10, #263, #186, #170 ) ) ;
#174 = SURFACE_SIDE_STYLE ('',( #80 ) ) ;
#175 = VERTEX_POINT ( 'NONE', #237 ) ;
#176 =( GEOMETRIC_REPRESENTATION_CONTEXT ( 3 ) GLOBAL_UNCERTAINTY_ASSIGNED_CONTEXT ( ( #46 ) ) GLOBAL_UNIT_ASSIGNED_CONTEXT ( ( #272, #115, #249 ) ) REPRESENTATION_CONTEXT ( 'NONE', 'WORKASPACE' ) );
#177 = CARTESIAN_POINT ( 'NONE',  ( 0.0000000000000000000, 0.0000000000000000000, 1.500000000000000222 ) ) ;
#178 =( NAMED_UNIT ( * ) SI_UNIT ( $, .STERADIAN. ) SOLID_ANGLE_UNIT ( ) );
#179 = CARTESIAN_POINT ( 'NONE',  ( 0.0000000000000000000, 0.0000000000000000000, 1.485000000000000764 ) ) ;
#180 = CARTESIAN_POINT ( 'NONE',  ( 0.0000000000000000000, 0.0000000000000000000, 0.0000000000000000000 ) ) ;
#181 = SURFACE_STYLE_FILL_AREA ( #88 ) ;
#182 = DIRECTION ( 'NONE',  ( -1.224646799147353454E-16, -0.0000000000000000000, -1.000000000000000000 ) ) ;
#183 = DIRECTION ( 'NONE',  ( 1.000000000000000000, 0.0000000000000000000, 0.0000000000000000000 ) ) ;
#184 = AXIS2_PLACEMENT_3D ( 'NONE', #12, #259, #99 ) ;
#185 = VECTOR ( 'NONE', #189, 39.37007874015748143 ) ;
#186 = ORIENTED_EDGE ( 'NONE', *, *, #200, .T. ) ;
#187 = PRODUCT_DEFINITION ( 'UNKNOWN', '', #149, #124 ) ;
#188 = DIRECTION ( 'NONE',  ( -1.000000000000000000, 0.0000000000000000000, 0.0000000000000000000 ) ) ;
#189 = DIRECTION ( 'NONE',  ( 0.1736481776669313859, 0.0000000000000000000, 0.9848077530122077983 ) ) ;
#190 = FACE_OUTER_BOUND ( 'NONE', #123, .T. ) ;
#191 = ORIENTED_EDGE ( 'NONE', *, *, #67, .T. ) ;
#192 = CARTESIAN_POINT ( 'NONE',  ( 0.0000000000000000000, 0.0000000000000000000, 1.500000000000000222 ) ) ;
#193 = ORIENTED_EDGE ( 'NONE', *, *, #258, .F. ) ;
#194 = CARTESIAN_POINT ( 'NONE',  ( 0.0000000000000000000, 0.0000000000000000000, 1.500000000000000222 ) ) ;
#195 = AXIS2_PLACEMENT_3D ( 'NONE', #113, #154, #223 ) ;
#196 = CIRCLE ( 'NONE', #274, 0.06250000000000002776 ) ;
#197 = CYLINDRICAL_SURFACE ( 'NONE', #242, 0.01598400000000000515 ) ;
#198 = STYLED_ITEM ( 'NONE', ( #250 ), #220 ) ;
#199 = CARTESIAN_POINT ( 'NONE',  ( 1.175660927181459403E-17, 0.0000000000000000000, 0.09600000000000000200 ) ) ;
#200 = EDGE_CURVE ( 'NONE', #129, #224, #216, .T. ) ;
#201 = FACE_OUTER_BOUND ( 'NONE', #166, .T. ) ;
#202 = PLANE ( 'NONE',  #14 ) ;
#203 = AXIS2_PLACEMENT_3D ( 'NONE', #179, #271, #238 ) ;
#204 = EDGE_CURVE ( 'NONE', #175, #224, #95, .T. ) ;
#205 = PRODUCT ( 'Micro_RME-032-2X', 'Micro_RME-032-2X', '', ( #254 ) ) ;
#206 = ADVANCED_FACE ( 'NONE', ( #84 ), #122, .T. ) ;
#207 = CONICAL_SURFACE ( 'NONE', #164, 0.01598400000000000515, 0.1745329251994338915 ) ;
#208 = ADVANCED_FACE ( 'NONE', ( #190 ), #160, .T. ) ;
#209 = CYLINDRICAL_SURFACE ( 'NONE', #104, 0.06250000000000002776 ) ;
#210 = EDGE_LOOP ( 'NONE', ( #285, #229, #127, #231 ) ) ;
#211 = CARTESIAN_POINT ( 'NONE',  ( 0.04750000000000064587, 6.735557395310483192E-18, 1.500000000000000222 ) ) ;
#212 = ORIENTED_EDGE ( 'NONE', *, *, #200, .F. ) ;
#213 = LINE ( 'NONE', #7, #136 ) ;
#214 = ADVANCED_FACE ( 'NONE', ( #267 ), #209, .T. ) ;
#215 = PRODUCT_DEFINITION_SHAPE ( 'NONE', 'NONE',  #187 ) ;
#216 = LINE ( 'NONE', #167, #185 ) ;
#217 = ORIENTED_EDGE ( 'NONE', *, *, #169, .T. ) ;
#218 =( LENGTH_UNIT ( ) NAMED_UNIT ( * ) SI_UNIT ( $, .METRE. ) );
#219 = DIRECTION ( 'NONE',  ( -0.1736481776669311916, 2.126576849575783316E-17, 0.9848077530122080203 ) ) ;
#220 = ADVANCED_BREP_SHAPE_REPRESENTATION ( 'Micro_RME-032-2X', ( #273, #283 ), #176 ) ;
#221 = AXIS2_PLACEMENT_3D ( 'NONE', #4, #262, #102 ) ;
#222 = FACE_OUTER_BOUND ( 'NONE', #34, .T. ) ;
#223 = DIRECTION ( 'NONE',  ( 1.000000000000000000, 0.0000000000000000000, 0.0000000000000000000 ) ) ;
#224 = VERTEX_POINT ( 'NONE', #31 ) ;
#225 = PRESENTATION_LAYER_ASSIGNMENT (  '', '', ( #198 ) ) ;
#226 = MECHANICAL_DESIGN_GEOMETRIC_PRESENTATION_REPRESENTATION (  '', ( #168 ), #130 ) ;
#227 = CIRCLE ( 'NONE', #155, 0.01598400000000000515 ) ;
#228 =( CONVERSION_BASED_UNIT ( 'INCH', #280 ) LENGTH_UNIT ( ) NAMED_UNIT ( #101 ) );
#229 = ORIENTED_EDGE ( 'NONE', *, *, #159, .T. ) ;
#230 = CARTESIAN_POINT ( 'NONE',  ( 0.0000000000000000000, 0.0000000000000000000, 1.500000000000000222 ) ) ;
#231 = ORIENTED_EDGE ( 'NONE', *, *, #121, .F. ) ;
#232 = DIRECTION ( 'NONE',  ( 0.0000000000000000000, 0.0000000000000000000, -1.000000000000000000 ) ) ;
#233 = VERTEX_POINT ( 'NONE', #211 ) ;
#234 = DIRECTION ( 'NONE',  ( -1.224646799147353454E-16, -0.0000000000000000000, -1.000000000000000000 ) ) ;
#235 = VECTOR ( 'NONE', #60, 39.37007874015748143 ) ;
#236 = VERTEX_POINT ( 'NONE', #128 ) ;
#237 = CARTESIAN_POINT ( 'NONE',  ( -0.06249999999999997918, 0.0000000000000000000, 0.3598053451213359955 ) ) ;
#238 = DIRECTION ( 'NONE',  ( 1.000000000000000000, 0.0000000000000000000, 0.0000000000000000000 ) ) ;
#239 = FACE_OUTER_BOUND ( 'NONE', #210, .T. ) ;
#240 = ORIENTED_EDGE ( 'NONE', *, *, #251, .F. ) ;
#241 = ADVANCED_FACE ( 'NONE', ( #239 ), #143, .T. ) ;
#242 = AXIS2_PLACEMENT_3D ( 'NONE', #180, #156, #137 ) ;
#243 = PLANE ( 'NONE',  #19 ) ;
#244 = SURFACE_STYLE_USAGE ( .BOTH. , #62 ) ;
#245 = CARTESIAN_POINT ( 'NONE',  ( -0.01598400000000000515, 0.0000000000000000000, 3.914950887514260861E-18 ) ) ;
#246 = VECTOR ( 'NONE', #219, 39.37007874015747433 ) ;
#247 = LINE ( 'NONE', #138, #118 ) ;
#248 = CIRCLE ( 'NONE', #184, 0.04750000000000064587 ) ;
#249 =( NAMED_UNIT ( * ) SI_UNIT ( $, .STERADIAN. ) SOLID_ANGLE_UNIT ( ) );
#250 = PRESENTATION_STYLE_ASSIGNMENT (( #244 ) ) ;
#251 = EDGE_CURVE ( 'NONE', #236, #53, #196, .T. ) ;
#252 = EDGE_CURVE ( 'NONE', #266, #129, #66, .T. ) ;
#253 =( NAMED_UNIT ( * ) PLANE_ANGLE_UNIT ( ) SI_UNIT ( $, .RADIAN. ) );
#254 = PRODUCT_CONTEXT ( 'NONE', #165, 'mechanical' ) ;
#255 = ORIENTED_EDGE ( 'NONE', *, *, #163, .F. ) ;
#256 = LINE ( 'NONE', #290, #82 ) ;
#257 = DIRECTION ( 'NONE',  ( 1.000000000000000000, 0.0000000000000000000, 0.0000000000000000000 ) ) ;
#258 = EDGE_CURVE ( 'NONE', #129, #278, #213, .T. ) ;
#259 = DIRECTION ( 'NONE',  ( 0.0000000000000000000, 0.0000000000000000000, 1.000000000000000000 ) ) ;
#260 = CLOSED_SHELL ( 'NONE', ( #42, #93, #206, #241, #214, #65, #208, #116, #22, #51 ) ) ;
#261 = ORIENTED_EDGE ( 'NONE', *, *, #23, .F. ) ;
#262 = DIRECTION ( 'NONE',  ( -1.224646799147353454E-16, -0.0000000000000000000, -1.000000000000000000 ) ) ;
#263 = ORIENTED_EDGE ( 'NONE', *, *, #150, .F. ) ;
#264 = AXIS2_PLACEMENT_3D ( 'NONE', #52, #234, #9 ) ;
#265 = SURFACE_STYLE_USAGE ( .BOTH. , #174 ) ;
#266 = VERTEX_POINT ( 'NONE', #286 ) ;
#267 = FACE_OUTER_BOUND ( 'NONE', #106, .T. ) ;
#268 = LINE ( 'NONE', #17, #235 ) ;
#269 = DIRECTION ( 'NONE',  ( 1.000000000000000000, 0.0000000000000000000, 0.0000000000000000000 ) ) ;
#270 = FACE_OUTER_BOUND ( 'NONE', #125, .T. ) ;
#271 = DIRECTION ( 'NONE',  ( 0.0000000000000000000, 0.0000000000000000000, -1.000000000000000000 ) ) ;
#272 =( CONVERSION_BASED_UNIT ( 'INCH', #119 ) LENGTH_UNIT ( ) NAMED_UNIT ( #73 ) );
#273 = MANIFOLD_SOLID_BREP ( 'Cut-Revolve1', #260 ) ;
#274 = AXIS2_PLACEMENT_3D ( 'NONE', #29, #3, #126 ) ;
#275 = AXIS2_PLACEMENT_3D ( 'NONE', #63, #43, #183 ) ;
#276 = UNCERTAINTY_MEASURE_WITH_UNIT (LENGTH_MEASURE( 1.000000000000000082E-05 ), #91, 'distance_accuracy_value', 'NONE');
#277 = DIRECTION ( 'NONE',  ( 0.0000000000000000000, 0.0000000000000000000, 1.000000000000000000 ) ) ;
#278 = VERTEX_POINT ( 'NONE', #92 ) ;
#279 = DIRECTION ( 'NONE',  ( -0.0000000000000000000, -0.0000000000000000000, -1.000000000000000000 ) ) ;
#280 = LENGTH_MEASURE_WITH_UNIT ( LENGTH_MEASURE( 0.02539999999999999897 ), #140 );
#281 = EDGE_CURVE ( 'NONE', #233, #53, #78, .T. ) ;
#282 = ORIENTED_EDGE ( 'NONE', *, *, #23, .T. ) ;
#283 = AXIS2_PLACEMENT_3D ( 'NONE', #26, #277, #257 ) ;
#284 = DIRECTION ( 'NONE',  ( -1.000000000000000000, 0.0000000000000000000, 0.0000000000000000000 ) ) ;
#285 = ORIENTED_EDGE ( 'NONE', *, *, #251, .T. ) ;
#286 = CARTESIAN_POINT ( 'NONE',  ( -0.01598399999999999127, 4.805758969214044758E-18, 0.09600000000000000200 ) ) ;
#287 = ORIENTED_EDGE ( 'NONE', *, *, #252, .F. ) ;
#288 = FILL_AREA_STYLE ('',( #172 ) ) ;
#289 = ORIENTED_EDGE ( 'NONE', *, *, #77, .T. ) ;
#290 = CARTESIAN_POINT ( 'NONE',  ( 0.06250000000000002776, 7.654042494670959086E-18, 1.500000000000000222 ) ) ;
#291 = CARTESIAN_POINT ( 'NONE',  ( 2.397216036606714706E-34, 0.0000000000000000000, 1.957475443757130431E-18 ) ) ;
#292 = DIRECTION ( 'NONE',  ( -1.000000000000000000, 0.0000000000000000000, 1.224646799147353454E-16 ) ) ;
#293 = DIRECTION ( 'NONE',  ( -1.000000000000000000, 0.0000000000000000000, 1.224646799147353454E-16 ) ) ;
#294 = DIRECTION ( 'NONE',  ( 0.7071067811865462405, 8.659560562354916834E-17, -0.7071067811865486830 ) ) ;
#295 = CIRCLE ( 'NONE', #120, 0.04750000000000064587 ) ;
#296 = DIRECTION ( 'NONE',  ( 0.0000000000000000000, 0.0000000000000000000, 1.000000000000000000 ) ) ;
#297 = MECHANICAL_DESIGN_GEOMETRIC_PRESENTATION_REPRESENTATION (  '', ( #198 ), #40 ) ;
#298 = COLOUR_RGB ( '',0.7921568627450980005, 0.8196078431372548767, 0.9333333333333333481 ) ;
#299 = COLOUR_RGB ( '',0.7921568627450980005, 0.8196078431372548767, 0.9333333333333333481 ) ;
ENDSEC;
END-ISO-10303-21;
