ISO-10303-21;
HEADER;
FILE_DESCRIPTION (( 'STEP AP214' ),
    '1' );
FILE_NAME ('82514.STEP',
    '2023-06-30T22:46:59',
    ( '' ),
    ( '' ),
    'SwSTEP 2.0',
    'SolidWorks 2023',
    '' );
FILE_SCHEMA (( 'AUTOMOTIVE_DESIGN' ));
ENDSEC;

DATA;
#1 = DIRECTION ( 'NONE',  ( -1.242275896456375570E-16, 1.000000000000000000, -0.000000000000000000 ) ) ;
#2 = EDGE_LOOP ( 'NONE', ( #228, #23 ) ) ;
#3 = AXIS2_PLACEMENT_3D ( 'NONE', #141, #267, #210 ) ;
#4 = PRESENTATION_STYLE_ASSIGNMENT (( #315 ) ) ;
#5 = ORIENTED_EDGE ( 'NONE', *, *, #61, .F. ) ;
#6 = FILL_AREA_STYLE ('',( #134 ) ) ;
#7 = ORIENTED_EDGE ( 'NONE', *, *, #303, .F. ) ;
#8 = DIRECTION ( 'NONE',  ( 1.224646799147353207E-16, -0.000000000000000000, 1.000000000000000000 ) ) ;
#9 = CARTESIAN_POINT ( 'NONE',  ( 2.296212748401287726E-17, 0.1875000000000000555, 0.1875000000000000555 ) ) ;
#10 = FILL_AREA_STYLE ('',( #320 ) ) ;
#11 = ORIENTED_EDGE ( 'NONE', *, *, #324, .F. ) ;
#12 =( LENGTH_UNIT ( ) NAMED_UNIT ( * ) SI_UNIT ( $, .METRE. ) );
#13 = DIRECTION ( 'NONE',  ( 1.000000000000000000, 0.000000000000000000, 0.000000000000000000 ) ) ;
#14 = MECHANICAL_DESIGN_GEOMETRIC_PRESENTATION_REPRESENTATION (  '', ( #30 ), #178 ) ;
#15 =( CONVERSION_BASED_UNIT ( 'INCH', #144 ) LENGTH_UNIT ( ) NAMED_UNIT ( #256 ) );
#16 = FILL_AREA_STYLE ('',( #208 ) ) ;
#17 = LENGTH_MEASURE_WITH_UNIT ( LENGTH_MEASURE( 0.02539999999999999897 ), #371 );
#18 = CIRCLE ( 'NONE', #301, 0.1875000000000000555 ) ;
#19 = DIRECTION ( 'NONE',  ( -1.000000000000000000, 0.000000000000000000, 0.000000000000000000 ) ) ;
#20 =( NAMED_UNIT ( * ) SI_UNIT ( $, .STERADIAN. ) SOLID_ANGLE_UNIT ( ) );
#21 = ADVANCED_FACE ( 'NONE', ( #316 ), #234, .F. ) ;
#22 = FACE_OUTER_BOUND ( 'NONE', #341, .T. ) ;
#23 = ORIENTED_EDGE ( 'NONE', *, *, #165, .T. ) ;
#24 = COLOUR_RGB ( '',1.000000000000000000, 0.000000000000000000, 0.000000000000000000 ) ;
#25 = CYLINDRICAL_SURFACE ( 'NONE', #251, 0.1874999999999995837 ) ;
#26 =( GEOMETRIC_REPRESENTATION_CONTEXT ( 3 ) GLOBAL_UNCERTAINTY_ASSIGNED_CONTEXT ( ( #280 ) ) GLOBAL_UNIT_ASSIGNED_CONTEXT ( ( #183, #181, #298 ) ) REPRESENTATION_CONTEXT ( 'NONE', 'WORKASPACE' ) );
#27 = SURFACE_STYLE_USAGE ( .BOTH. , #48 ) ;
#28 = VERTEX_POINT ( 'NONE', #9 ) ;
#29 = DIRECTION ( 'NONE',  ( -1.000000000000000000, 0.000000000000000000, 0.000000000000000000 ) ) ;
#30 = STYLED_ITEM ( 'NONE', ( #182 ), #129 ) ;
#31 = AXIS2_PLACEMENT_3D ( 'NONE', #296, #185, #74 ) ;
#32 = EDGE_LOOP ( 'NONE', ( #289, #84, #313, #120 ) ) ;
#33 = LINE ( 'NONE', #198, #369 ) ;
#34 = DIRECTION ( 'NONE',  ( -1.242275896456375570E-16, 1.000000000000000000, 0.000000000000000000 ) ) ;
#35 = COLOUR_RGB ( '',1.000000000000000000, 0.000000000000000000, 0.000000000000000000 ) ;
#36 =( GEOMETRIC_REPRESENTATION_CONTEXT ( 3 ) GLOBAL_UNCERTAINTY_ASSIGNED_CONTEXT ( ( #263 ) ) GLOBAL_UNIT_ASSIGNED_CONTEXT ( ( #151, #68, #20 ) ) REPRESENTATION_CONTEXT ( 'NONE', 'WORKASPACE' ) );
#37 = DIRECTION ( 'NONE',  ( -1.000000000000000000, 0.000000000000000000, 0.000000000000000000 ) ) ;
#38 = CARTESIAN_POINT ( 'NONE',  ( 0.000000000000000000, 1.500000000000000222, -0.1874999999999998057 ) ) ;
#39 = EDGE_CURVE ( 'NONE', #83, #107, #132, .T. ) ;
#40 =( LENGTH_UNIT ( ) NAMED_UNIT ( * ) SI_UNIT ( $, .METRE. ) );
#41 = EDGE_CURVE ( 'NONE', #204, #200, #269, .T. ) ;
#42 = LINE ( 'NONE', #76, #162 ) ;
#43 = CYLINDRICAL_SURFACE ( 'NONE', #245, 0.1874999999999999167 ) ;
#44 = LENGTH_MEASURE_WITH_UNIT ( LENGTH_MEASURE( 0.02539999999999999897 ), #46 );
#45 = AXIS2_PLACEMENT_3D ( 'NONE', #90, #321, #13 ) ;
#46 =( LENGTH_UNIT ( ) NAMED_UNIT ( * ) SI_UNIT ( $, .METRE. ) );
#47 = FACE_OUTER_BOUND ( 'NONE', #254, .T. ) ;
#48 = SURFACE_SIDE_STYLE ('',( #202 ) ) ;
#49 = EDGE_CURVE ( 'NONE', #28, #306, #72, .T. ) ;
#50 = DIRECTION ( 'NONE',  ( -0.000000000000000000, -1.000000000000000000, -0.000000000000000000 ) ) ;
#51 = CARTESIAN_POINT ( 'NONE',  ( 0.000000000000000000, 0.1875000000000000555, 0.000000000000000000 ) ) ;
#52 =( GEOMETRIC_REPRESENTATION_CONTEXT ( 3 ) GLOBAL_UNCERTAINTY_ASSIGNED_CONTEXT ( ( #105 ) ) GLOBAL_UNIT_ASSIGNED_CONTEXT ( ( #353, #314, #55 ) ) REPRESENTATION_CONTEXT ( 'NONE', 'WORKASPACE' ) );
#53 = VERTEX_POINT ( 'NONE', #81 ) ;
#54 = UNCERTAINTY_MEASURE_WITH_UNIT (LENGTH_MEASURE( 1.000000000000000082E-05 ), #78, 'distance_accuracy_value', 'NONE');
#55 =( NAMED_UNIT ( * ) SI_UNIT ( $, .STERADIAN. ) SOLID_ANGLE_UNIT ( ) );
#56 = DIRECTION ( 'NONE',  ( -1.000000000000000000, -1.242275896456375570E-16, 0.000000000000000000 ) ) ;
#57 =( LENGTH_UNIT ( ) NAMED_UNIT ( * ) SI_UNIT ( $, .METRE. ) );
#58 = VERTEX_POINT ( 'NONE', #225 ) ;
#59 = AXIS2_PLACEMENT_3D ( 'NONE', #337, #305, #248 ) ;
#60 = PRESENTATION_LAYER_ASSIGNMENT (  '', '', ( #286 ) ) ;
#61 = EDGE_CURVE ( 'NONE', #221, #83, #33, .T. ) ;
#62 = AXIS2_PLACEMENT_3D ( 'NONE', #122, #160, #365 ) ;
#63 = AXIS2_PLACEMENT_3D ( 'NONE', #338, #91, #323 ) ;
#64 =( GEOMETRIC_REPRESENTATION_CONTEXT ( 3 ) GLOBAL_UNCERTAINTY_ASSIGNED_CONTEXT ( ( #54 ) ) GLOBAL_UNIT_ASSIGNED_CONTEXT ( ( #78, #264, #88 ) ) REPRESENTATION_CONTEXT ( 'NONE', 'WORKASPACE' ) );
#65 = LENGTH_MEASURE_WITH_UNIT ( LENGTH_MEASURE( 0.02539999999999999897 ), #70 );
#66 = SURFACE_SIDE_STYLE ('',( #271 ) ) ;
#67 = EDGE_CURVE ( 'NONE', #138, #58, #262, .T. ) ;
#68 =( NAMED_UNIT ( * ) PLANE_ANGLE_UNIT ( ) SI_UNIT ( $, .RADIAN. ) );
#69 = ORIENTED_EDGE ( 'NONE', *, *, #272, .T. ) ;
#70 =( LENGTH_UNIT ( ) NAMED_UNIT ( * ) SI_UNIT ( $, .METRE. ) );
#71 = LINE ( 'NONE', #260, #322 ) ;
#72 = CIRCLE ( 'NONE', #273, 0.1875000000000000555 ) ;
#73 = COLOUR_RGB ( '',0.7921568627450980005, 0.8196078431372548767, 0.9333333333333333481 ) ;
#74 = DIRECTION ( 'NONE',  ( 0.000000000000000000, -0.000000000000000000, 1.000000000000000000 ) ) ;
#75 = UNCERTAINTY_MEASURE_WITH_UNIT (LENGTH_MEASURE( 1.000000000000000082E-05 ), #15, 'distance_accuracy_value', 'NONE');
#76 = CARTESIAN_POINT ( 'NONE',  ( 2.296212748401286185E-17, 0.000000000000000000, 0.1874999999999999167 ) ) ;
#77 = DIRECTION ( 'NONE',  ( -1.000000000000000000, 0.000000000000000000, 0.000000000000000000 ) ) ;
#78 =( CONVERSION_BASED_UNIT ( 'INCH', #103 ) LENGTH_UNIT ( ) NAMED_UNIT ( #342 ) );
#79 =( NAMED_UNIT ( * ) SI_UNIT ( $, .STERADIAN. ) SOLID_ANGLE_UNIT ( ) );
#80 = AXIS2_PLACEMENT_3D ( 'NONE', #96, #119, #118 ) ;
#81 = CARTESIAN_POINT ( 'NONE',  ( -1.148106374200643555E-17, -3.414809992080329023E-17, 0.000000000000000000 ) ) ;
#82 = DIMENSIONAL_EXPONENTS ( 1.000000000000000000, 0.000000000000000000, 0.000000000000000000, 0.000000000000000000, 0.000000000000000000, 0.000000000000000000, 0.000000000000000000 ) ;
#83 = VERTEX_POINT ( 'NONE', #230 ) ;
#84 = ORIENTED_EDGE ( 'NONE', *, *, #41, .T. ) ;
#85 = AXIS2_PLACEMENT_3D ( 'NONE', #328, #247, #250 ) ;
#86 = EDGE_LOOP ( 'NONE', ( #261, #153, #246, #170 ) ) ;
#87 = DIRECTION ( 'NONE',  ( -0.000000000000000000, -1.000000000000000000, -0.000000000000000000 ) ) ;
#88 =( NAMED_UNIT ( * ) SI_UNIT ( $, .STERADIAN. ) SOLID_ANGLE_UNIT ( ) );
#89 = EDGE_CURVE ( 'NONE', #107, #28, #312, .T. ) ;
#90 = CARTESIAN_POINT ( 'NONE',  ( -2.296212748401287726E-17, 0.1875000000000000278, 0.000000000000000000 ) ) ;
#91 = DIRECTION ( 'NONE',  ( 0.000000000000000000, 0.000000000000000000, 1.000000000000000000 ) ) ;
#92 = AXIS2_PLACEMENT_3D ( 'NONE', #240, #173, #94 ) ;
#93 = SPHERICAL_SURFACE ( 'NONE', #161, 0.1875000000000000555 ) ;
#94 = DIRECTION ( 'NONE',  ( 1.000000000000000000, 1.242275896456375570E-16, 0.000000000000000000 ) ) ;
#95 = CYLINDRICAL_SURFACE ( 'NONE', #59, 0.1874999999999999167 ) ;
#96 = CARTESIAN_POINT ( 'NONE',  ( 1.224646799147352714E-16, 3.000000000000000444, 0.000000000000000000 ) ) ;
#97 = AXIS2_PLACEMENT_3D ( 'NONE', #310, #137, #29 ) ;
#98 = SURFACE_STYLE_FILL_AREA ( #364 ) ;
#99 = PRESENTATION_STYLE_ASSIGNMENT (( #277 ) ) ;
#100 = CARTESIAN_POINT ( 'NONE',  ( 0.000000000000000000, 0.000000000000000000, 0.000000000000000000 ) ) ;
#101 = PRESENTATION_STYLE_ASSIGNMENT (( #159 ) ) ;
#102 = MECHANICAL_DESIGN_GEOMETRIC_PRESENTATION_REPRESENTATION (  '', ( #203 ), #308 ) ;
#103 = LENGTH_MEASURE_WITH_UNIT ( LENGTH_MEASURE( 0.02539999999999999897 ), #233 );
#104 = CARTESIAN_POINT ( 'NONE',  ( 0.000000000000000000, 0.1875000000000000555, 0.000000000000000000 ) ) ;
#105 = UNCERTAINTY_MEASURE_WITH_UNIT (LENGTH_MEASURE( 1.000000000000000082E-05 ), #353, 'distance_accuracy_value', 'NONE');
#106 = CARTESIAN_POINT ( 'NONE',  ( 0.1875000000000000555, 0.1875000000000000555, 0.000000000000000000 ) ) ;
#107 = VERTEX_POINT ( 'NONE', #106 ) ;
#108 = ORIENTED_EDGE ( 'NONE', *, *, #61, .T. ) ;
#109 = AXIS2_PLACEMENT_3D ( 'NONE', #220, #339, #77 ) ;
#110 = PRESENTATION_LAYER_ASSIGNMENT (  '', '', ( #203 ) ) ;
#111 = ORIENTED_EDGE ( 'NONE', *, *, #67, .F. ) ;
#112 = ADVANCED_FACE ( 'NONE', ( #329 ), #93, .T. ) ;
#113 = PLANE ( 'NONE',  #92 ) ;
#114 = MECHANICAL_DESIGN_GEOMETRIC_PRESENTATION_REPRESENTATION (  '', ( #286 ), #64 ) ;
#115 =( NAMED_UNIT ( * ) SI_UNIT ( $, .STERADIAN. ) SOLID_ANGLE_UNIT ( ) );
#116 = PRESENTATION_LAYER_ASSIGNMENT (  '', '', ( #291 ) ) ;
#117 = MECHANICAL_DESIGN_GEOMETRIC_PRESENTATION_REPRESENTATION (  '', ( #124 ), #351 ) ;
#118 = DIRECTION ( 'NONE',  ( -1.000000000000000000, 0.000000000000000000, 0.000000000000000000 ) ) ;
#119 = DIRECTION ( 'NONE',  ( -1.242275896456375570E-16, 1.000000000000000000, -0.000000000000000000 ) ) ;
#120 = ORIENTED_EDGE ( 'NONE', *, *, #165, .F. ) ;
#121 = DIRECTION ( 'NONE',  ( 0.000000000000000000, 0.000000000000000000, -1.000000000000000000 ) ) ;
#122 = CARTESIAN_POINT ( 'NONE',  ( 0.000000000000000000, 1.500000000000000222, 0.000000000000000000 ) ) ;
#123 = EDGE_LOOP ( 'NONE', ( #249, #278, #108, #7, #334 ) ) ;
#124 = STYLED_ITEM ( 'NONE', ( #101 ), #340 ) ;
#125 = DIRECTION ( 'NONE',  ( -1.242275896456375570E-16, 1.000000000000000000, -0.000000000000000000 ) ) ;
#126 = DIMENSIONAL_EXPONENTS ( 1.000000000000000000, 0.000000000000000000, 0.000000000000000000, 0.000000000000000000, 0.000000000000000000, 0.000000000000000000, 0.000000000000000000 ) ;
#127 = UNCERTAINTY_MEASURE_WITH_UNIT (LENGTH_MEASURE( 1.000000000000000082E-05 ), #149, 'distance_accuracy_value', 'NONE');
#128 = DIRECTION ( 'NONE',  ( -1.000000000000000000, 0.000000000000000000, 0.000000000000000000 ) ) ;
#129 = ADVANCED_FACE ( 'NONE', ( #360 ), #95, .T. ) ;
#130 = CARTESIAN_POINT ( 'NONE',  ( 0.1874999999999998057, 1.500000000000000222, 2.296212748401282179E-17 ) ) ;
#131 = DIRECTION ( 'NONE',  ( -0.000000000000000000, -1.000000000000000000, -0.000000000000000000 ) ) ;
#132 = CIRCLE ( 'NONE', #218, 0.1875000000000000555 ) ;
#133 = STYLED_ITEM ( 'NONE', ( #370 ), #237 ) ;
#134 = FILL_AREA_STYLE_COLOUR ( '', #226 ) ;
#135 = ORIENTED_EDGE ( 'NONE', *, *, #41, .F. ) ;
#136 = SURFACE_STYLE_FILL_AREA ( #6 ) ;
#137 = DIRECTION ( 'NONE',  ( -1.242275896456375570E-16, 1.000000000000000000, -0.000000000000000000 ) ) ;
#138 = VERTEX_POINT ( 'NONE', #190 ) ;
#139 = STYLED_ITEM ( 'NONE', ( #179 ), #112 ) ;
#140 = PRESENTATION_LAYER_ASSIGNMENT (  '', '', ( #124 ) ) ;
#141 = CARTESIAN_POINT ( 'NONE',  ( 3.088060643831915823E-16, 1.500000000000000222, 0.000000000000000000 ) ) ;
#142 = SURFACE_STYLE_USAGE ( .BOTH. , #66 ) ;
#143 = EDGE_CURVE ( 'NONE', #347, #221, #231, .T. ) ;
#144 = LENGTH_MEASURE_WITH_UNIT ( LENGTH_MEASURE( 0.02539999999999999897 ), #57 );
#145 = COLOUR_RGB ( '',1.000000000000000000, 0.000000000000000000, 0.000000000000000000 ) ;
#146 = SURFACE_STYLE_USAGE ( .BOTH. , #265 ) ;
#147 = SURFACE_SIDE_STYLE ('',( #300 ) ) ;
#148 = FILL_AREA_STYLE_COLOUR ( '', #35 ) ;
#149 =( CONVERSION_BASED_UNIT ( 'INCH', #44 ) LENGTH_UNIT ( ) NAMED_UNIT ( #126 ) );
#150 = MECHANICAL_DESIGN_GEOMETRIC_PRESENTATION_REPRESENTATION (  '', ( #139 ), #168 ) ;
#151 =( CONVERSION_BASED_UNIT ( 'INCH', #17 ) LENGTH_UNIT ( ) NAMED_UNIT ( #352 ) );
#152 = MECHANICAL_DESIGN_GEOMETRIC_PRESENTATION_REPRESENTATION (  '', ( #133 ), #26 ) ;
#153 = ORIENTED_EDGE ( 'NONE', *, *, #196, .T. ) ;
#154 = CARTESIAN_POINT ( 'NONE',  ( 0.1874999999999996947, 3.000000000000000444, 2.296212748401281871E-17 ) ) ;
#155 = DIRECTION ( 'NONE',  ( -0.000000000000000000, -1.000000000000000000, -0.000000000000000000 ) ) ;
#156 = SURFACE_SIDE_STYLE ('',( #192 ) ) ;
#157 = ORIENTED_EDGE ( 'NONE', *, *, #303, .T. ) ;
#158 = PRODUCT_RELATED_PRODUCT_CATEGORY ( 'part', '', ( #317 ) ) ;
#159 = SURFACE_STYLE_USAGE ( .BOTH. , #147 ) ;
#160 = DIRECTION ( 'NONE',  ( -0.000000000000000000, -1.000000000000000000, -0.000000000000000000 ) ) ;
#161 = AXIS2_PLACEMENT_3D ( 'NONE', #209, #361, #242 ) ;
#162 = VECTOR ( 'NONE', #155, 39.37007874015748143 ) ;
#163 = APPLICATION_CONTEXT ( 'automotive_design' ) ;
#164 = ORIENTED_EDGE ( 'NONE', *, *, #222, .T. ) ;
#165 = EDGE_CURVE ( 'NONE', #58, #138, #279, .T. ) ;
#166 = EDGE_LOOP ( 'NONE', ( #164, #258, #111, #259 ) ) ;
#167 = ORIENTED_EDGE ( 'NONE', *, *, #222, .F. ) ;
#168 =( GEOMETRIC_REPRESENTATION_CONTEXT ( 3 ) GLOBAL_UNCERTAINTY_ASSIGNED_CONTEXT ( ( #368 ) ) GLOBAL_UNIT_ASSIGNED_CONTEXT ( ( #243, #236, #115 ) ) REPRESENTATION_CONTEXT ( 'NONE', 'WORKASPACE' ) );
#169 = FACE_OUTER_BOUND ( 'NONE', #86, .T. ) ;
#170 = ORIENTED_EDGE ( 'NONE', *, *, #89, .T. ) ;
#171 = EDGE_LOOP ( 'NONE', ( #331, #157, #348, #227 ) ) ;
#172 = ORIENTED_EDGE ( 'NONE', *, *, #39, .F. ) ;
#173 = DIRECTION ( 'NONE',  ( 1.242275896456375570E-16, -1.000000000000000000, 0.000000000000000000 ) ) ;
#174 = SHAPE_DEFINITION_REPRESENTATION ( #325, #211 ) ;
#175 =( NAMED_UNIT ( * ) PLANE_ANGLE_UNIT ( ) SI_UNIT ( $, .RADIAN. ) );
#176 = FILL_AREA_STYLE_COLOUR ( '', #24 ) ;
#177 = LENGTH_MEASURE_WITH_UNIT ( LENGTH_MEASURE( 0.02539999999999999897 ), #40 );
#178 =( GEOMETRIC_REPRESENTATION_CONTEXT ( 3 ) GLOBAL_UNCERTAINTY_ASSIGNED_CONTEXT ( ( #283 ) ) GLOBAL_UNIT_ASSIGNED_CONTEXT ( ( #295, #358, #79 ) ) REPRESENTATION_CONTEXT ( 'NONE', 'WORKASPACE' ) );
#179 = PRESENTATION_STYLE_ASSIGNMENT (( #142 ) ) ;
#180 = EDGE_CURVE ( 'NONE', #204, #58, #302, .T. ) ;
#181 =( NAMED_UNIT ( * ) PLANE_ANGLE_UNIT ( ) SI_UNIT ( $, .RADIAN. ) );
#182 = PRESENTATION_STYLE_ASSIGNMENT (( #146 ) ) ;
#183 =( CONVERSION_BASED_UNIT ( 'INCH', #65 ) LENGTH_UNIT ( ) NAMED_UNIT ( #82 ) );
#184 = ADVANCED_FACE ( 'NONE', ( #47 ), #43, .T. ) ;
#185 = DIRECTION ( 'NONE',  ( 0.000000000000000000, 1.000000000000000000, 0.000000000000000000 ) ) ;
#186 = CLOSED_SHELL ( 'NONE', ( #207, #184, #237, #129, #112 ) ) ;
#187 = AXIS2_PLACEMENT_3D ( 'NONE', #206, #285, #128 ) ;
#188 = EDGE_CURVE ( 'NONE', #200, #138, #71, .T. ) ;
#189 = FACE_OUTER_BOUND ( 'NONE', #32, .T. ) ;
#190 = CARTESIAN_POINT ( 'NONE',  ( -0.1874999999999995004, 3.000000000000000444, 0.000000000000000000 ) ) ;
#191 = FACE_OUTER_BOUND ( 'NONE', #166, .T. ) ;
#192 = SURFACE_STYLE_FILL_AREA ( #275 ) ;
#193 = APPLICATION_PROTOCOL_DEFINITION ( 'draft international standard', 'automotive_design', 1998, #241 ) ;
#194 = FACE_OUTER_BOUND ( 'NONE', #2, .T. ) ;
#195 = ORIENTED_EDGE ( 'NONE', *, *, #89, .F. ) ;
#196 = EDGE_CURVE ( 'NONE', #306, #53, #18, .T. ) ;
#197 = DIMENSIONAL_EXPONENTS ( 1.000000000000000000, 0.000000000000000000, 0.000000000000000000, 0.000000000000000000, 0.000000000000000000, 0.000000000000000000, 0.000000000000000000 ) ;
#198 = CARTESIAN_POINT ( 'NONE',  ( 0.000000000000000000, 0.000000000000000000, -0.1874999999999999167 ) ) ;
#199 = EDGE_LOOP ( 'NONE', ( #167, #135 ) ) ;
#200 = VERTEX_POINT ( 'NONE', #253 ) ;
#201 = PRESENTATION_LAYER_ASSIGNMENT (  '', '', ( #139 ) ) ;
#202 = SURFACE_STYLE_FILL_AREA ( #10 ) ;
#203 = STYLED_ITEM ( 'NONE', ( #4 ), #207 ) ;
#204 = VERTEX_POINT ( 'NONE', #130 ) ;
#205 = PRODUCT_CONTEXT ( 'NONE', #241, 'mechanical' ) ;
#206 = CARTESIAN_POINT ( 'NONE',  ( 3.088060643831915823E-16, 1.500000000000000222, 0.000000000000000000 ) ) ;
#207 = ADVANCED_FACE ( 'NONE', ( #169 ), #357, .T. ) ;
#208 = FILL_AREA_STYLE_COLOUR ( '', #145 ) ;
#209 = CARTESIAN_POINT ( 'NONE',  ( -2.296212748401287726E-17, 0.1875000000000000278, 0.000000000000000000 ) ) ;
#210 = DIRECTION ( 'NONE',  ( -1.000000000000000000, 0.000000000000000000, 0.000000000000000000 ) ) ;
#211 = ADVANCED_BREP_SHAPE_REPRESENTATION ( '82514', ( #340, #345, #63 ), #52 ) ;
#212 = DIRECTION ( 'NONE',  ( -0.000000000000000000, -1.000000000000000000, -0.000000000000000000 ) ) ;
#213 = CIRCLE ( 'NONE', #3, 0.1874999999999995004 ) ;
#214 = ADVANCED_FACE ( 'NONE', ( #194 ), #113, .F. ) ;
#215 = CARTESIAN_POINT ( 'NONE',  ( -0.1875000000000000555, 0.1875000000000000555, 2.296212748401287726E-17 ) ) ;
#216 = DIRECTION ( 'NONE',  ( -0.000000000000000000, -1.000000000000000000, -0.000000000000000000 ) ) ;
#217 = SURFACE_SIDE_STYLE ('',( #98 ) ) ;
#218 = AXIS2_PLACEMENT_3D ( 'NONE', #51, #87, #282 ) ;
#219 = LENGTH_MEASURE_WITH_UNIT ( LENGTH_MEASURE( 0.02539999999999999897 ), #356 );
#220 = CARTESIAN_POINT ( 'NONE',  ( 1.224646799147352714E-16, 3.000000000000000444, 0.000000000000000000 ) ) ;
#221 = VERTEX_POINT ( 'NONE', #38 ) ;
#222 = EDGE_CURVE ( 'NONE', #200, #204, #213, .T. ) ;
#223 = CARTESIAN_POINT ( 'NONE',  ( 2.296212748401285877E-17, 1.500000000000000222, 0.1874999999999998057 ) ) ;
#224 = CLOSED_SHELL ( 'NONE', ( #299, #21, #266, #214 ) ) ;
#225 = CARTESIAN_POINT ( 'NONE',  ( 0.1874999999999997780, 3.000000000000000444, 2.296212748401282179E-17 ) ) ;
#226 = COLOUR_RGB ( '',1.000000000000000000, 0.000000000000000000, 0.000000000000000000 ) ;
#227 = ORIENTED_EDGE ( 'NONE', *, *, #355, .T. ) ;
#228 = ORIENTED_EDGE ( 'NONE', *, *, #67, .T. ) ;
#229 = DIMENSIONAL_EXPONENTS ( 1.000000000000000000, 0.000000000000000000, 0.000000000000000000, 0.000000000000000000, 0.000000000000000000, 0.000000000000000000, 0.000000000000000000 ) ;
#230 = CARTESIAN_POINT ( 'NONE',  ( 0.000000000000000000, 0.1875000000000000555, -0.1875000000000000555 ) ) ;
#231 = CIRCLE ( 'NONE', #62, 0.1874999999999998057 ) ;
#232 = AXIS2_PLACEMENT_3D ( 'NONE', #235, #372, #37 ) ;
#233 =( LENGTH_UNIT ( ) NAMED_UNIT ( * ) SI_UNIT ( $, .METRE. ) );
#234 = PLANE ( 'NONE',  #238 ) ;
#235 = CARTESIAN_POINT ( 'NONE',  ( -2.296212748401287726E-17, 0.1875000000000000278, 0.000000000000000000 ) ) ;
#236 =( NAMED_UNIT ( * ) PLANE_ANGLE_UNIT ( ) SI_UNIT ( $, .RADIAN. ) );
#237 = ADVANCED_FACE ( 'NONE', ( #22 ), #276, .T. ) ;
#238 = AXIS2_PLACEMENT_3D ( 'NONE', #319, #34, #56 ) ;
#239 = COLOUR_RGB ( '',1.000000000000000000, 0.000000000000000000, 0.000000000000000000 ) ;
#240 = CARTESIAN_POINT ( 'NONE',  ( 0.1874999999999997780, 3.000000000000000444, 0.000000000000000000 ) ) ;
#241 = APPLICATION_CONTEXT ( 'automotive_design' ) ;
#242 = DIRECTION ( 'NONE',  ( 1.000000000000000000, 0.000000000000000000, 0.000000000000000000 ) ) ;
#243 =( CONVERSION_BASED_UNIT ( 'INCH', #268 ) LENGTH_UNIT ( ) NAMED_UNIT ( #197 ) );
#244 = SURFACE_STYLE_USAGE ( .BOTH. , #217 ) ;
#245 = AXIS2_PLACEMENT_3D ( 'NONE', #100, #216, #333 ) ;
#246 = ORIENTED_EDGE ( 'NONE', *, *, #355, .F. ) ;
#247 = DIRECTION ( 'NONE',  ( -0.000000000000000000, -1.000000000000000000, -0.000000000000000000 ) ) ;
#248 = DIRECTION ( 'NONE',  ( 0.000000000000000000, 0.000000000000000000, -1.000000000000000000 ) ) ;
#249 = ORIENTED_EDGE ( 'NONE', *, *, #272, .F. ) ;
#250 = DIRECTION ( 'NONE',  ( 0.000000000000000000, 0.000000000000000000, -1.000000000000000000 ) ) ;
#251 = AXIS2_PLACEMENT_3D ( 'NONE', #330, #125, #19 ) ;
#252 = PRESENTATION_STYLE_ASSIGNMENT (( #27 ) ) ;
#253 = CARTESIAN_POINT ( 'NONE',  ( -0.1874999999999991951, 1.500000000000000222, 0.000000000000000000 ) ) ;
#254 = EDGE_LOOP ( 'NONE', ( #309, #69, #195, #172, #5 ) ) ;
#255 = PRODUCT_DEFINITION ( 'UNKNOWN', '', #327, #373 ) ;
#256 = DIMENSIONAL_EXPONENTS ( 1.000000000000000000, 0.000000000000000000, 0.000000000000000000, 0.000000000000000000, 0.000000000000000000, 0.000000000000000000, 0.000000000000000000 ) ;
#257 = DIRECTION ( 'NONE',  ( 0.000000000000000000, 0.000000000000000000, -1.000000000000000000 ) ) ;
#258 = ORIENTED_EDGE ( 'NONE', *, *, #180, .T. ) ;
#259 = ORIENTED_EDGE ( 'NONE', *, *, #188, .F. ) ;
#260 = CARTESIAN_POINT ( 'NONE',  ( -0.1874999999999994449, 3.000000000000000444, 0.000000000000000000 ) ) ;
#261 = ORIENTED_EDGE ( 'NONE', *, *, #49, .T. ) ;
#262 = CIRCLE ( 'NONE', #97, 0.1874999999999996392 ) ;
#263 = UNCERTAINTY_MEASURE_WITH_UNIT (LENGTH_MEASURE( 1.000000000000000082E-05 ), #151, 'distance_accuracy_value', 'NONE');
#264 =( NAMED_UNIT ( * ) PLANE_ANGLE_UNIT ( ) SI_UNIT ( $, .RADIAN. ) );
#265 = SURFACE_SIDE_STYLE ('',( #363 ) ) ;
#266 = ADVANCED_FACE ( 'NONE', ( #189 ), #25, .T. ) ;
#267 = DIRECTION ( 'NONE',  ( -1.242275896456375570E-16, 1.000000000000000000, -0.000000000000000000 ) ) ;
#268 = LENGTH_MEASURE_WITH_UNIT ( LENGTH_MEASURE( 0.02539999999999999897 ), #12 );
#269 = CIRCLE ( 'NONE', #187, 0.1874999999999995004 ) ;
#270 = AXIS2_PLACEMENT_3D ( 'NONE', #367, #212, #121 ) ;
#271 = SURFACE_STYLE_FILL_AREA ( #16 ) ;
#272 = EDGE_CURVE ( 'NONE', #347, #28, #42, .T. ) ;
#273 = AXIS2_PLACEMENT_3D ( 'NONE', #104, #346, #288 ) ;
#274 = CIRCLE ( 'NONE', #270, 0.1875000000000000555 ) ;
#275 = FILL_AREA_STYLE ('',( #148 ) ) ;
#276 = PLANE ( 'NONE',  #31 ) ;
#277 = SURFACE_STYLE_USAGE ( .BOTH. , #156 ) ;
#278 = ORIENTED_EDGE ( 'NONE', *, *, #143, .T. ) ;
#279 = CIRCLE ( 'NONE', #109, 0.1874999999999996392 ) ;
#280 = UNCERTAINTY_MEASURE_WITH_UNIT (LENGTH_MEASURE( 1.000000000000000082E-05 ), #183, 'distance_accuracy_value', 'NONE');
#281 = SURFACE_SIDE_STYLE ('',( #136 ) ) ;
#282 = DIRECTION ( 'NONE',  ( 0.000000000000000000, 0.000000000000000000, -1.000000000000000000 ) ) ;
#283 = UNCERTAINTY_MEASURE_WITH_UNIT (LENGTH_MEASURE( 1.000000000000000082E-05 ), #295, 'distance_accuracy_value', 'NONE');
#284 = PRESENTATION_LAYER_ASSIGNMENT (  '', '', ( #30 ) ) ;
#285 = DIRECTION ( 'NONE',  ( -1.242275896456375570E-16, 1.000000000000000000, -0.000000000000000000 ) ) ;
#286 = STYLED_ITEM ( 'NONE', ( #252 ), #345 ) ;
#287 = DIMENSIONAL_EXPONENTS ( 1.000000000000000000, 0.000000000000000000, 0.000000000000000000, 0.000000000000000000, 0.000000000000000000, 0.000000000000000000, 0.000000000000000000 ) ;
#288 = DIRECTION ( 'NONE',  ( 0.000000000000000000, 0.000000000000000000, -1.000000000000000000 ) ) ;
#289 = ORIENTED_EDGE ( 'NONE', *, *, #180, .F. ) ;
#290 = ORIENTED_EDGE ( 'NONE', *, *, #143, .F. ) ;
#291 = STYLED_ITEM ( 'NONE', ( #99 ), #184 ) ;
#292 =( NAMED_UNIT ( * ) SI_UNIT ( $, .STERADIAN. ) SOLID_ANGLE_UNIT ( ) );
#293 = FILL_AREA_STYLE ('',( #176 ) ) ;
#294 = COLOUR_RGB ( '',0.7921568627450980005, 0.8196078431372548767, 0.9333333333333333481 ) ;
#295 =( CONVERSION_BASED_UNIT ( 'INCH', #177 ) LENGTH_UNIT ( ) NAMED_UNIT ( #229 ) );
#296 = CARTESIAN_POINT ( 'NONE',  ( 0.000000000000000000, 1.500000000000000222, 0.000000000000000000 ) ) ;
#297 = DIRECTION ( 'NONE',  ( -1.242275896456375570E-16, 1.000000000000000000, -0.000000000000000000 ) ) ;
#298 =( NAMED_UNIT ( * ) SI_UNIT ( $, .STERADIAN. ) SOLID_ANGLE_UNIT ( ) );
#299 = ADVANCED_FACE ( 'NONE', ( #191 ), #362, .T. ) ;
#300 = SURFACE_STYLE_FILL_AREA ( #304 ) ;
#301 = AXIS2_PLACEMENT_3D ( 'NONE', #354, #8, #311 ) ;
#302 = LINE ( 'NONE', #154, #326 ) ;
#303 = EDGE_CURVE ( 'NONE', #306, #83, #274, .T. ) ;
#304 = FILL_AREA_STYLE ('',( #332 ) ) ;
#305 = DIRECTION ( 'NONE',  ( -0.000000000000000000, -1.000000000000000000, -0.000000000000000000 ) ) ;
#306 = VERTEX_POINT ( 'NONE', #215 ) ;
#307 =( NAMED_UNIT ( * ) SI_UNIT ( $, .STERADIAN. ) SOLID_ANGLE_UNIT ( ) );
#308 =( GEOMETRIC_REPRESENTATION_CONTEXT ( 3 ) GLOBAL_UNCERTAINTY_ASSIGNED_CONTEXT ( ( #75 ) ) GLOBAL_UNIT_ASSIGNED_CONTEXT ( ( #15, #175, #292 ) ) REPRESENTATION_CONTEXT ( 'NONE', 'WORKASPACE' ) );
#309 = ORIENTED_EDGE ( 'NONE', *, *, #324, .T. ) ;
#310 = CARTESIAN_POINT ( 'NONE',  ( 1.224646799147352714E-16, 3.000000000000000444, 0.000000000000000000 ) ) ;
#311 = DIRECTION ( 'NONE',  ( 1.000000000000000000, 0.000000000000000000, -1.224646799147353207E-16 ) ) ;
#312 = CIRCLE ( 'NONE', #349, 0.1875000000000000555 ) ;
#313 = ORIENTED_EDGE ( 'NONE', *, *, #188, .T. ) ;
#314 =( NAMED_UNIT ( * ) PLANE_ANGLE_UNIT ( ) SI_UNIT ( $, .RADIAN. ) );
#315 = SURFACE_STYLE_USAGE ( .BOTH. , #281 ) ;
#316 = FACE_OUTER_BOUND ( 'NONE', #199, .T. ) ;
#317 = PRODUCT ( '82514', '82514', '', ( #205 ) ) ;
#318 = APPLICATION_PROTOCOL_DEFINITION ( 'draft international standard', 'automotive_design', 1998, #163 ) ;
#319 = CARTESIAN_POINT ( 'NONE',  ( 3.088060643831915823E-16, 1.500000000000000222, 0.000000000000000000 ) ) ;
#320 = FILL_AREA_STYLE_COLOUR ( '', #73 ) ;
#321 = DIRECTION ( 'NONE',  ( 0.000000000000000000, 0.000000000000000000, 1.000000000000000000 ) ) ;
#322 = VECTOR ( 'NONE', #1, 39.37007874015748143 ) ;
#323 = DIRECTION ( 'NONE',  ( 1.000000000000000000, 0.000000000000000000, 0.000000000000000000 ) ) ;
#324 = EDGE_CURVE ( 'NONE', #221, #347, #344, .T. ) ;
#325 = PRODUCT_DEFINITION_SHAPE ( 'NONE', 'NONE',  #255 ) ;
#326 = VECTOR ( 'NONE', #297, 39.37007874015748143 ) ;
#327 = PRODUCT_DEFINITION_FORMATION_WITH_SPECIFIED_SOURCE ( 'ANY', '', #317, .NOT_KNOWN. ) ;
#328 = CARTESIAN_POINT ( 'NONE',  ( 0.000000000000000000, 1.500000000000000222, 0.000000000000000000 ) ) ;
#329 = FACE_OUTER_BOUND ( 'NONE', #171, .T. ) ;
#330 = CARTESIAN_POINT ( 'NONE',  ( 1.224646799147352714E-16, 3.000000000000000444, 0.000000000000000000 ) ) ;
#331 = ORIENTED_EDGE ( 'NONE', *, *, #196, .F. ) ;
#332 = FILL_AREA_STYLE_COLOUR ( '', #294 ) ;
#333 = DIRECTION ( 'NONE',  ( 0.000000000000000000, 0.000000000000000000, -1.000000000000000000 ) ) ;
#334 = ORIENTED_EDGE ( 'NONE', *, *, #49, .F. ) ;
#335 = FILL_AREA_STYLE_COLOUR ( '', #239 ) ;
#336 = CIRCLE ( 'NONE', #232, 0.1875000000000000555 ) ;
#337 = CARTESIAN_POINT ( 'NONE',  ( 0.000000000000000000, 0.000000000000000000, 0.000000000000000000 ) ) ;
#338 = CARTESIAN_POINT ( 'NONE',  ( 0.000000000000000000, 0.000000000000000000, 0.000000000000000000 ) ) ;
#339 = DIRECTION ( 'NONE',  ( -1.242275896456375570E-16, 1.000000000000000000, -0.000000000000000000 ) ) ;
#340 = MANIFOLD_SOLID_BREP ( 'Revolve - Cutting Edge', #186 ) ;
#341 = EDGE_LOOP ( 'NONE', ( #11, #290 ) ) ;
#342 = DIMENSIONAL_EXPONENTS ( 1.000000000000000000, 0.000000000000000000, 0.000000000000000000, 0.000000000000000000, 0.000000000000000000, 0.000000000000000000, 0.000000000000000000 ) ;
#343 = MECHANICAL_DESIGN_GEOMETRIC_PRESENTATION_REPRESENTATION (  '', ( #291 ), #36 ) ;
#344 = CIRCLE ( 'NONE', #85, 0.1874999999999998057 ) ;
#345 = MANIFOLD_SOLID_BREP ( 'Revolve - Tool Body (Straight Shanked)', #224 ) ;
#346 = DIRECTION ( 'NONE',  ( -0.000000000000000000, -1.000000000000000000, -0.000000000000000000 ) ) ;
#347 = VERTEX_POINT ( 'NONE', #223 ) ;
#348 = ORIENTED_EDGE ( 'NONE', *, *, #39, .T. ) ;
#349 = AXIS2_PLACEMENT_3D ( 'NONE', #350, #131, #257 ) ;
#350 = CARTESIAN_POINT ( 'NONE',  ( 0.000000000000000000, 0.1875000000000000555, 0.000000000000000000 ) ) ;
#351 =( GEOMETRIC_REPRESENTATION_CONTEXT ( 3 ) GLOBAL_UNCERTAINTY_ASSIGNED_CONTEXT ( ( #127 ) ) GLOBAL_UNIT_ASSIGNED_CONTEXT ( ( #149, #366, #307 ) ) REPRESENTATION_CONTEXT ( 'NONE', 'WORKASPACE' ) );
#352 = DIMENSIONAL_EXPONENTS ( 1.000000000000000000, 0.000000000000000000, 0.000000000000000000, 0.000000000000000000, 0.000000000000000000, 0.000000000000000000, 0.000000000000000000 ) ;
#353 =( CONVERSION_BASED_UNIT ( 'INCH', #219 ) LENGTH_UNIT ( ) NAMED_UNIT ( #287 ) );
#354 = CARTESIAN_POINT ( 'NONE',  ( -2.296212748401287726E-17, 0.1875000000000000278, 0.000000000000000000 ) ) ;
#355 = EDGE_CURVE ( 'NONE', #107, #53, #336, .T. ) ;
#356 =( LENGTH_UNIT ( ) NAMED_UNIT ( * ) SI_UNIT ( $, .METRE. ) );
#357 = SPHERICAL_SURFACE ( 'NONE', #45, 0.1875000000000000555 ) ;
#358 =( NAMED_UNIT ( * ) PLANE_ANGLE_UNIT ( ) SI_UNIT ( $, .RADIAN. ) );
#359 = PRESENTATION_LAYER_ASSIGNMENT (  '', '', ( #133 ) ) ;
#360 = FACE_OUTER_BOUND ( 'NONE', #123, .T. ) ;
#361 = DIRECTION ( 'NONE',  ( 0.000000000000000000, 0.000000000000000000, 1.000000000000000000 ) ) ;
#362 = CYLINDRICAL_SURFACE ( 'NONE', #80, 0.1874999999999995837 ) ;
#363 = SURFACE_STYLE_FILL_AREA ( #293 ) ;
#364 = FILL_AREA_STYLE ('',( #335 ) ) ;
#365 = DIRECTION ( 'NONE',  ( 0.000000000000000000, 0.000000000000000000, -1.000000000000000000 ) ) ;
#366 =( NAMED_UNIT ( * ) PLANE_ANGLE_UNIT ( ) SI_UNIT ( $, .RADIAN. ) );
#367 = CARTESIAN_POINT ( 'NONE',  ( 0.000000000000000000, 0.1875000000000000555, 0.000000000000000000 ) ) ;
#368 = UNCERTAINTY_MEASURE_WITH_UNIT (LENGTH_MEASURE( 1.000000000000000082E-05 ), #243, 'distance_accuracy_value', 'NONE');
#369 = VECTOR ( 'NONE', #50, 39.37007874015748143 ) ;
#370 = PRESENTATION_STYLE_ASSIGNMENT (( #244 ) ) ;
#371 =( LENGTH_UNIT ( ) NAMED_UNIT ( * ) SI_UNIT ( $, .METRE. ) );
#372 = DIRECTION ( 'NONE',  ( 0.000000000000000000, 0.000000000000000000, -1.000000000000000000 ) ) ;
#373 = PRODUCT_DEFINITION_CONTEXT ( 'detailed design', #163, 'design' ) ;
ENDSEC;
END-ISO-10303-21;
