ISO-10303-21;
HEADER;
FILE_DESCRIPTION (( 'STEP AP214' ),
    '1' );
FILE_NAME ('Micro_RTC-125-23.STEP',
    '2021-09-03T18:04:11',
    ( '' ),
    ( '' ),
    'SwSTEP 2.0',
    'SolidWorks 2020',
    '' );
FILE_SCHEMA (( 'AUTOMOTIVE_DESIGN' ));
ENDSEC;

DATA;
#1 = CARTESIAN_POINT ( 'NONE',  ( -0.06249999999999997918, 0.0000000000000000000, 3.000000000000000444 ) ) ;
#2 =( GEOMETRIC_REPRESENTATION_CONTEXT ( 3 ) GLOBAL_UNCERTAINTY_ASSIGNED_CONTEXT ( ( #212 ) ) GLOBAL_UNIT_ASSIGNED_CONTEXT ( ( #185, #196, #9 ) ) REPRESENTATION_CONTEXT ( 'NONE', 'WORKASPACE' ) );
#3 = PRODUCT_DEFINITION ( 'UNKNOWN', '', #197, #25 ) ;
#4 = DIRECTION ( 'NONE',  ( 1.000000000000000000, 0.0000000000000000000, -0.0000000000000000000 ) ) ;
#5 = AXIS2_PLACEMENT_3D ( 'NONE', #93, #40, #108 ) ;
#6 = EDGE_CURVE ( 'NONE', #158, #191, #231, .T. ) ;
#7 = DIRECTION ( 'NONE',  ( -1.000000000000000000, 0.0000000000000000000, 0.0000000000000000000 ) ) ;
#8 = DIRECTION ( 'NONE',  ( -1.000000000000000000, 0.0000000000000000000, 0.0000000000000000000 ) ) ;
#9 =( NAMED_UNIT ( * ) SI_UNIT ( $, .STERADIAN. ) SOLID_ANGLE_UNIT ( ) );
#10 = CLOSED_SHELL ( 'NONE', ( #111, #176, #224, #157, #230, #101, #56, #188 ) ) ;
#11 = VECTOR ( 'NONE', #155, 39.37007874015748143 ) ;
#12 = ORIENTED_EDGE ( 'NONE', *, *, #184, .F. ) ;
#13 = DIRECTION ( 'NONE',  ( 1.000000000000000000, 0.0000000000000000000, -0.0000000000000000000 ) ) ;
#14 = EDGE_CURVE ( 'NONE', #245, #78, #126, .T. ) ;
#15 = ORIENTED_EDGE ( 'NONE', *, *, #43, .T. ) ;
#16 = EDGE_CURVE ( 'NONE', #117, #209, #69, .T. ) ;
#17 = EDGE_LOOP ( 'NONE', ( #202, #96 ) ) ;
#18 = CONICAL_SURFACE ( 'NONE', #62, 0.003999999999999999216, 0.2617993877991504625 ) ;
#19 = PRESENTATION_LAYER_ASSIGNMENT (  '', '', ( #34 ) ) ;
#20 =( NAMED_UNIT ( * ) PLANE_ANGLE_UNIT ( ) SI_UNIT ( $, .RADIAN. ) );
#21 = CARTESIAN_POINT ( 'NONE',  ( 0.0000000000000000000, 0.0000000000000000000, 3.000000000000000444 ) ) ;
#22 = EDGE_CURVE ( 'NONE', #78, #209, #89, .T. ) ;
#23 = PRESENTATION_LAYER_ASSIGNMENT (  '', '', ( #242 ) ) ;
#24 = CARTESIAN_POINT ( 'NONE',  ( 0.0000000000000000000, 0.0000000000000000000, 0.0000000000000000000 ) ) ;
#25 = PRODUCT_DEFINITION_CONTEXT ( 'detailed design', #140, 'design' ) ;
#26 =( LENGTH_UNIT ( ) NAMED_UNIT ( * ) SI_UNIT ( $, .METRE. ) );
#27 = DIRECTION ( 'NONE',  ( -0.0000000000000000000, -0.0000000000000000000, -1.000000000000000000 ) ) ;
#28 = FACE_OUTER_BOUND ( 'NONE', #228, .T. ) ;
#29 = CONICAL_SURFACE ( 'NONE', #219, 0.003999999999999999216, 0.2617993877991504625 ) ;
#30 = CARTESIAN_POINT ( 'NONE',  ( -0.003999999999999999216, -4.071950607164948101E-18, 3.000000000000000444 ) ) ;
#31 = DIRECTION ( 'NONE',  ( 0.2588190451025217387, 0.0000000000000000000, -0.9659258262890679791 ) ) ;
#32 = LINE ( 'NONE', #171, #141 ) ;
#33 = DIRECTION ( 'NONE',  ( -1.000000000000000000, 0.0000000000000000000, 0.0000000000000000000 ) ) ;
#34 = STYLED_ITEM ( 'NONE', ( #178 ), #75 ) ;
#35 = DIMENSIONAL_EXPONENTS ( 1.000000000000000000, 0.0000000000000000000, 0.0000000000000000000, 0.0000000000000000000, 0.0000000000000000000, 0.0000000000000000000, 0.0000000000000000000 ) ;
#36 = ORIENTED_EDGE ( 'NONE', *, *, #184, .T. ) ;
#37 = COLOUR_RGB ( '',0.7921568627450980005, 0.8196078431372548767, 0.9333333333333333481 ) ;
#38 = DIRECTION ( 'NONE',  ( -0.2588190451025217387, 3.169619151431776651E-17, 0.9659258262890679791 ) ) ;
#39 = PRODUCT_RELATED_PRODUCT_CATEGORY ( 'part', '', ( #59 ) ) ;
#40 = DIRECTION ( 'NONE',  ( 0.0000000000000000000, 0.0000000000000000000, -1.000000000000000000 ) ) ;
#41 = DIRECTION ( 'NONE',  ( 1.000000000000000000, 0.0000000000000000000, 0.0000000000000000000 ) ) ;
#42 = MECHANICAL_DESIGN_GEOMETRIC_PRESENTATION_REPRESENTATION (  '', ( #34 ), #90 ) ;
#43 = EDGE_CURVE ( 'NONE', #117, #245, #128, .T. ) ;
#44 = CARTESIAN_POINT ( 'NONE',  ( 0.0000000000000000000, 0.0000000000000000000, 3.000000000000000444 ) ) ;
#45 = SURFACE_STYLE_FILL_AREA ( #217 ) ;
#46 =( NAMED_UNIT ( * ) SI_UNIT ( $, .STERADIAN. ) SOLID_ANGLE_UNIT ( ) );
#47 = FACE_OUTER_BOUND ( 'NONE', #123, .T. ) ;
#48 = DIRECTION ( 'NONE',  ( -1.000000000000000000, 0.0000000000000000000, 0.0000000000000000000 ) ) ;
#49 = AXIS2_PLACEMENT_3D ( 'NONE', #24, #82, #4 ) ;
#50 = AXIS2_PLACEMENT_3D ( 'NONE', #44, #27, #84 ) ;
#51 = ORIENTED_EDGE ( 'NONE', *, *, #105, .T. ) ;
#52 = CARTESIAN_POINT ( 'NONE',  ( 0.0000000000000000000, 0.0000000000000000000, 0.2183249722427783590 ) ) ;
#53 = ORIENTED_EDGE ( 'NONE', *, *, #43, .F. ) ;
#54 = EDGE_CURVE ( 'NONE', #191, #175, #211, .T. ) ;
#55 = ORIENTED_EDGE ( 'NONE', *, *, #16, .F. ) ;
#56 = ADVANCED_FACE ( 'NONE', ( #74 ), #18, .T. ) ;
#57 = CARTESIAN_POINT ( 'NONE',  ( -0.003999999999999999216, 4.898587196589411612E-19, 0.0000000000000000000 ) ) ;
#58 = FILL_AREA_STYLE ('',( #233 ) ) ;
#59 = PRODUCT ( 'Micro_RTC-125-23', 'Micro_RTC-125-23', '', ( #147 ) ) ;
#60 = DIRECTION ( 'NONE',  ( 0.0000000000000000000, 0.0000000000000000000, -1.000000000000000000 ) ) ;
#61 = CARTESIAN_POINT ( 'NONE',  ( 0.0000000000000000000, 0.0000000000000000000, 0.0000000000000000000 ) ) ;
#62 = AXIS2_PLACEMENT_3D ( 'NONE', #229, #95, #194 ) ;
#63 = DIRECTION ( 'NONE',  ( -0.0000000000000000000, -0.0000000000000000000, -1.000000000000000000 ) ) ;
#64 = UNCERTAINTY_MEASURE_WITH_UNIT (LENGTH_MEASURE( 1.000000000000000082E-05 ), #100, 'distance_accuracy_value', 'NONE');
#65 = CARTESIAN_POINT ( 'NONE',  ( 0.0000000000000000000, 0.0000000000000000000, 3.000000000000000444 ) ) ;
#66 = DIRECTION ( 'NONE',  ( -0.0000000000000000000, -0.0000000000000000000, -1.000000000000000000 ) ) ;
#67 = EDGE_CURVE ( 'NONE', #158, #179, #201, .T. ) ;
#68 = DIRECTION ( 'NONE',  ( -1.000000000000000000, 0.0000000000000000000, 0.0000000000000000000 ) ) ;
#69 = LINE ( 'NONE', #198, #225 ) ;
#70 = CARTESIAN_POINT ( 'NONE',  ( 0.003999999999999999216, 0.0000000000000000000, 0.0000000000000000000 ) ) ;
#71 = EDGE_CURVE ( 'NONE', #179, #175, #134, .T. ) ;
#72 = DIRECTION ( 'NONE',  ( -0.0000000000000000000, -0.0000000000000000000, -1.000000000000000000 ) ) ;
#73 = ORIENTED_EDGE ( 'NONE', *, *, #54, .T. ) ;
#74 = FACE_OUTER_BOUND ( 'NONE', #248, .T. ) ;
#75 = ADVANCED_BREP_SHAPE_REPRESENTATION ( 'Micro_RTC-125-23', ( #240, #165 ), #153 ) ;
#76 = SHAPE_DEFINITION_REPRESENTATION ( #232, #75 ) ;
#77 =( LENGTH_UNIT ( ) NAMED_UNIT ( * ) SI_UNIT ( $, .METRE. ) );
#78 = VERTEX_POINT ( 'NONE', #133 ) ;
#79 = AXIS2_PLACEMENT_3D ( 'NONE', #137, #118, #13 ) ;
#80 = FACE_OUTER_BOUND ( 'NONE', #17, .T. ) ;
#81 = APPLICATION_PROTOCOL_DEFINITION ( 'draft international standard', 'automotive_design', 1998, #127 ) ;
#82 = DIRECTION ( 'NONE',  ( 0.0000000000000000000, 0.0000000000000000000, 1.000000000000000000 ) ) ;
#83 = CIRCLE ( 'NONE', #99, 0.003999999999999999216 ) ;
#84 = DIRECTION ( 'NONE',  ( -1.000000000000000000, 0.0000000000000000000, 0.0000000000000000000 ) ) ;
#85 = DIRECTION ( 'NONE',  ( -0.0000000000000000000, -0.0000000000000000000, -1.000000000000000000 ) ) ;
#86 = DIMENSIONAL_EXPONENTS ( 1.000000000000000000, 0.0000000000000000000, 0.0000000000000000000, 0.0000000000000000000, 0.0000000000000000000, 0.0000000000000000000, 0.0000000000000000000 ) ;
#87 = EDGE_CURVE ( 'NONE', #209, #78, #164, .T. ) ;
#88 = LENGTH_MEASURE_WITH_UNIT ( LENGTH_MEASURE( 0.02539999999999999897 ), #183 );
#89 = CIRCLE ( 'NONE', #135, 0.06249999999999997918 ) ;
#90 =( GEOMETRIC_REPRESENTATION_CONTEXT ( 3 ) GLOBAL_UNCERTAINTY_ASSIGNED_CONTEXT ( ( #64 ) ) GLOBAL_UNIT_ASSIGNED_CONTEXT ( ( #100, #20, #145 ) ) REPRESENTATION_CONTEXT ( 'NONE', 'WORKASPACE' ) );
#91 = CARTESIAN_POINT ( 'NONE',  ( 0.0000000000000000000, 0.0000000000000000000, 0.2183249722427783590 ) ) ;
#92 = ORIENTED_EDGE ( 'NONE', *, *, #6, .T. ) ;
#93 = CARTESIAN_POINT ( 'NONE',  ( 0.0000000000000000000, 0.0000000000000000000, 2.781675027757221752 ) ) ;
#94 = CARTESIAN_POINT ( 'NONE',  ( -0.06249999999999997918, 0.0000000000000000000, 0.2183249722427783590 ) ) ;
#95 = DIRECTION ( 'NONE',  ( 0.0000000000000000000, 0.0000000000000000000, -1.000000000000000000 ) ) ;
#96 = ORIENTED_EDGE ( 'NONE', *, *, #67, .T. ) ;
#97 = DIRECTION ( 'NONE',  ( -1.000000000000000000, 0.0000000000000000000, 0.0000000000000000000 ) ) ;
#98 = VECTOR ( 'NONE', #192, 39.37007874015748854 ) ;
#99 = AXIS2_PLACEMENT_3D ( 'NONE', #234, #60, #8 ) ;
#100 =( CONVERSION_BASED_UNIT ( 'INCH', #210 ) LENGTH_UNIT ( ) NAMED_UNIT ( #86 ) );
#101 = ADVANCED_FACE ( 'NONE', ( #80 ), #162, .F. ) ;
#102 = ORIENTED_EDGE ( 'NONE', *, *, #22, .T. ) ;
#103 = ORIENTED_EDGE ( 'NONE', *, *, #14, .F. ) ;
#104 = CARTESIAN_POINT ( 'NONE',  ( 0.0000000000000000000, 0.0000000000000000000, 3.000000000000000444 ) ) ;
#105 = EDGE_CURVE ( 'NONE', #245, #117, #83, .T. ) ;
#106 = VECTOR ( 'NONE', #38, 39.37007874015748854 ) ;
#107 = CARTESIAN_POINT ( 'NONE',  ( -0.003999999999999999216, -4.898587196589411612E-19, 3.000000000000000444 ) ) ;
#108 = DIRECTION ( 'NONE',  ( -1.000000000000000000, 0.0000000000000000000, 0.0000000000000000000 ) ) ;
#109 = UNCERTAINTY_MEASURE_WITH_UNIT (LENGTH_MEASURE( 1.000000000000000082E-05 ), #235, 'distance_accuracy_value', 'NONE');
#110 = CYLINDRICAL_SURFACE ( 'NONE', #159, 0.06249999999999997918 ) ;
#111 = ADVANCED_FACE ( 'NONE', ( #241 ), #130, .T. ) ;
#112 = CARTESIAN_POINT ( 'NONE',  ( 0.06249999999999997918, 7.654042494670954463E-18, 0.2183249722427783590 ) ) ;
#113 = FILL_AREA_STYLE_COLOUR ( '', #206 ) ;
#114 = DIRECTION ( 'NONE',  ( 0.0000000000000000000, 0.0000000000000000000, 1.000000000000000000 ) ) ;
#115 = AXIS2_PLACEMENT_3D ( 'NONE', #52, #138, #247 ) ;
#116 = DIRECTION ( 'NONE',  ( -1.000000000000000000, 0.0000000000000000000, 0.0000000000000000000 ) ) ;
#117 = VERTEX_POINT ( 'NONE', #236 ) ;
#118 = DIRECTION ( 'NONE',  ( 0.0000000000000000000, 0.0000000000000000000, 1.000000000000000000 ) ) ;
#119 = ORIENTED_EDGE ( 'NONE', *, *, #105, .F. ) ;
#120 = AXIS2_PLACEMENT_3D ( 'NONE', #203, #114, #187 ) ;
#121 = ORIENTED_EDGE ( 'NONE', *, *, #161, .F. ) ;
#122 = CARTESIAN_POINT ( 'NONE',  ( 0.003999999999999999216, 0.0000000000000000000, 0.0000000000000000000 ) ) ;
#123 = EDGE_LOOP ( 'NONE', ( #139, #92, #73, #143 ) ) ;
#124 = SURFACE_STYLE_USAGE ( .BOTH. , #195 ) ;
#125 = EDGE_LOOP ( 'NONE', ( #53, #119 ) ) ;
#126 = LINE ( 'NONE', #107, #170 ) ;
#127 = APPLICATION_CONTEXT ( 'automotive_design' ) ;
#128 = CIRCLE ( 'NONE', #186, 0.003999999999999999216 ) ;
#129 = FACE_OUTER_BOUND ( 'NONE', #226, .T. ) ;
#130 = CONICAL_SURFACE ( 'NONE', #244, 0.003999999999999999216, 0.2617993877991504625 ) ;
#131 = DIRECTION ( 'NONE',  ( -0.2588190451025217387, -3.169619151431776651E-17, -0.9659258262890679791 ) ) ;
#132 = DIRECTION ( 'NONE',  ( 0.0000000000000000000, 0.0000000000000000000, 1.000000000000000000 ) ) ;
#133 = CARTESIAN_POINT ( 'NONE',  ( -0.06249999999999997918, 0.0000000000000000000, 2.781675027757221752 ) ) ;
#134 = LINE ( 'NONE', #122, #98 ) ;
#135 = AXIS2_PLACEMENT_3D ( 'NONE', #154, #169, #68 ) ;
#136 = CIRCLE ( 'NONE', #213, 0.003999999999999999216 ) ;
#137 = CARTESIAN_POINT ( 'NONE',  ( 0.0000000000000000000, 0.0000000000000000000, 3.000000000000000444 ) ) ;
#138 = DIRECTION ( 'NONE',  ( -0.0000000000000000000, -0.0000000000000000000, -1.000000000000000000 ) ) ;
#139 = ORIENTED_EDGE ( 'NONE', *, *, #67, .F. ) ;
#140 = APPLICATION_CONTEXT ( 'automotive_design' ) ;
#141 = VECTOR ( 'NONE', #72, 39.37007874015748143 ) ;
#142 = ORIENTED_EDGE ( 'NONE', *, *, #71, .T. ) ;
#143 = ORIENTED_EDGE ( 'NONE', *, *, #71, .F. ) ;
#144 = MECHANICAL_DESIGN_GEOMETRIC_PRESENTATION_REPRESENTATION (  '', ( #242 ), #2 ) ;
#145 =( NAMED_UNIT ( * ) SI_UNIT ( $, .STERADIAN. ) SOLID_ANGLE_UNIT ( ) );
#146 = CARTESIAN_POINT ( 'NONE',  ( 0.0000000000000000000, 0.0000000000000000000, 0.0000000000000000000 ) ) ;
#147 = PRODUCT_CONTEXT ( 'NONE', #127, 'mechanical' ) ;
#148 = AXIS2_PLACEMENT_3D ( 'NONE', #91, #172, #116 ) ;
#149 = FACE_OUTER_BOUND ( 'NONE', #246, .T. ) ;
#150 = SURFACE_SIDE_STYLE ('',( #45 ) ) ;
#151 = CARTESIAN_POINT ( 'NONE',  ( 0.0000000000000000000, 0.0000000000000000000, 0.0000000000000000000 ) ) ;
#152 = DIRECTION ( 'NONE',  ( 0.0000000000000000000, 0.0000000000000000000, -1.000000000000000000 ) ) ;
#153 =( GEOMETRIC_REPRESENTATION_CONTEXT ( 3 ) GLOBAL_UNCERTAINTY_ASSIGNED_CONTEXT ( ( #109 ) ) GLOBAL_UNIT_ASSIGNED_CONTEXT ( ( #235, #180, #46 ) ) REPRESENTATION_CONTEXT ( 'NONE', 'WORKASPACE' ) );
#154 = CARTESIAN_POINT ( 'NONE',  ( 0.0000000000000000000, 0.0000000000000000000, 2.781675027757221752 ) ) ;
#155 = DIRECTION ( 'NONE',  ( -0.0000000000000000000, -0.0000000000000000000, -1.000000000000000000 ) ) ;
#156 = FACE_OUTER_BOUND ( 'NONE', #125, .T. ) ;
#157 = ADVANCED_FACE ( 'NONE', ( #149 ), #216, .T. ) ;
#158 = VERTEX_POINT ( 'NONE', #218 ) ;
#159 = AXIS2_PLACEMENT_3D ( 'NONE', #65, #63, #7 ) ;
#160 = ORIENTED_EDGE ( 'NONE', *, *, #14, .T. ) ;
#161 = EDGE_CURVE ( 'NONE', #78, #191, #166, .T. ) ;
#162 = PLANE ( 'NONE',  #49 ) ;
#163 = DIRECTION ( 'NONE',  ( 1.000000000000000000, 0.0000000000000000000, 0.0000000000000000000 ) ) ;
#164 = CIRCLE ( 'NONE', #5, 0.06249999999999997918 ) ;
#165 = AXIS2_PLACEMENT_3D ( 'NONE', #146, #181, #41 ) ;
#166 = LINE ( 'NONE', #1, #11 ) ;
#167 = PRESENTATION_STYLE_ASSIGNMENT (( #182 ) ) ;
#168 = LENGTH_MEASURE_WITH_UNIT ( LENGTH_MEASURE( 0.02539999999999999897 ), #26 );
#169 = DIRECTION ( 'NONE',  ( 0.0000000000000000000, 0.0000000000000000000, -1.000000000000000000 ) ) ;
#170 = VECTOR ( 'NONE', #131, 39.37007874015748854 ) ;
#171 = CARTESIAN_POINT ( 'NONE',  ( 0.06249999999999997918, 7.654042494670954463E-18, 3.000000000000000444 ) ) ;
#172 = DIRECTION ( 'NONE',  ( -0.0000000000000000000, -0.0000000000000000000, -1.000000000000000000 ) ) ;
#173 = ORIENTED_EDGE ( 'NONE', *, *, #87, .T. ) ;
#174 = EDGE_CURVE ( 'NONE', #209, #175, #32, .T. ) ;
#175 = VERTEX_POINT ( 'NONE', #112 ) ;
#176 = ADVANCED_FACE ( 'NONE', ( #47 ), #238, .T. ) ;
#177 = ORIENTED_EDGE ( 'NONE', *, *, #87, .F. ) ;
#178 = PRESENTATION_STYLE_ASSIGNMENT (( #124 ) ) ;
#179 = VERTEX_POINT ( 'NONE', #70 ) ;
#180 =( NAMED_UNIT ( * ) PLANE_ANGLE_UNIT ( ) SI_UNIT ( $, .RADIAN. ) );
#181 = DIRECTION ( 'NONE',  ( 0.0000000000000000000, 0.0000000000000000000, 1.000000000000000000 ) ) ;
#182 = SURFACE_STYLE_USAGE ( .BOTH. , #150 ) ;
#183 =( LENGTH_UNIT ( ) NAMED_UNIT ( * ) SI_UNIT ( $, .METRE. ) );
#184 = EDGE_CURVE ( 'NONE', #175, #191, #237, .T. ) ;
#185 =( CONVERSION_BASED_UNIT ( 'INCH', #168 ) LENGTH_UNIT ( ) NAMED_UNIT ( #35 ) );
#186 = AXIS2_PLACEMENT_3D ( 'NONE', #21, #227, #97 ) ;
#187 = DIRECTION ( 'NONE',  ( 1.000000000000000000, 0.0000000000000000000, 0.0000000000000000000 ) ) ;
#188 = ADVANCED_FACE ( 'NONE', ( #156 ), #221, .T. ) ;
#189 = ORIENTED_EDGE ( 'NONE', *, *, #16, .T. ) ;
#190 = ORIENTED_EDGE ( 'NONE', *, *, #207, .F. ) ;
#191 = VERTEX_POINT ( 'NONE', #94 ) ;
#192 = DIRECTION ( 'NONE',  ( 0.2588190451025217387, 0.0000000000000000000, 0.9659258262890679791 ) ) ;
#193 = ORIENTED_EDGE ( 'NONE', *, *, #54, .F. ) ;
#194 = DIRECTION ( 'NONE',  ( 1.000000000000000000, 0.0000000000000000000, 0.0000000000000000000 ) ) ;
#195 = SURFACE_SIDE_STYLE ('',( #249 ) ) ;
#196 =( NAMED_UNIT ( * ) PLANE_ANGLE_UNIT ( ) SI_UNIT ( $, .RADIAN. ) );
#197 = PRODUCT_DEFINITION_FORMATION_WITH_SPECIFIED_SOURCE ( 'ANY', '', #59, .NOT_KNOWN. ) ;
#198 = CARTESIAN_POINT ( 'NONE',  ( 0.003999999999999999216, 0.0000000000000000000, 3.000000000000000444 ) ) ;
#199 = DIMENSIONAL_EXPONENTS ( 1.000000000000000000, 0.0000000000000000000, 0.0000000000000000000, 0.0000000000000000000, 0.0000000000000000000, 0.0000000000000000000, 0.0000000000000000000 ) ;
#200 = AXIS2_PLACEMENT_3D ( 'NONE', #220, #66, #48 ) ;
#201 = CIRCLE ( 'NONE', #200, 0.003999999999999999216 ) ;
#202 = ORIENTED_EDGE ( 'NONE', *, *, #207, .T. ) ;
#203 = CARTESIAN_POINT ( 'NONE',  ( 0.0000000000000000000, 0.0000000000000000000, 0.0000000000000000000 ) ) ;
#204 = ORIENTED_EDGE ( 'NONE', *, *, #174, .T. ) ;
#205 = ORIENTED_EDGE ( 'NONE', *, *, #6, .F. ) ;
#206 = COLOUR_RGB ( '',0.7921568627450980005, 0.8196078431372548767, 0.9333333333333333481 ) ;
#207 = EDGE_CURVE ( 'NONE', #179, #158, #136, .T. ) ;
#208 = ORIENTED_EDGE ( 'NONE', *, *, #161, .T. ) ;
#209 = VERTEX_POINT ( 'NONE', #239 ) ;
#210 = LENGTH_MEASURE_WITH_UNIT ( LENGTH_MEASURE( 0.02539999999999999897 ), #77 );
#211 = CIRCLE ( 'NONE', #115, 0.06249999999999997918 ) ;
#212 = UNCERTAINTY_MEASURE_WITH_UNIT (LENGTH_MEASURE( 1.000000000000000082E-05 ), #185, 'distance_accuracy_value', 'NONE');
#213 = AXIS2_PLACEMENT_3D ( 'NONE', #151, #85, #33 ) ;
#214 = DIRECTION ( 'NONE',  ( 1.000000000000000000, 0.0000000000000000000, 0.0000000000000000000 ) ) ;
#215 = APPLICATION_PROTOCOL_DEFINITION ( 'draft international standard', 'automotive_design', 1998, #140 ) ;
#216 = CYLINDRICAL_SURFACE ( 'NONE', #50, 0.06249999999999997918 ) ;
#217 = FILL_AREA_STYLE ('',( #113 ) ) ;
#218 = CARTESIAN_POINT ( 'NONE',  ( -0.003999999999999999216, 4.071950607164948101E-18, 0.0000000000000000000 ) ) ;
#219 = AXIS2_PLACEMENT_3D ( 'NONE', #61, #132, #214 ) ;
#220 = CARTESIAN_POINT ( 'NONE',  ( 0.0000000000000000000, 0.0000000000000000000, 0.0000000000000000000 ) ) ;
#221 = PLANE ( 'NONE',  #79 ) ;
#222 = EDGE_LOOP ( 'NONE', ( #15, #160, #177, #55 ) ) ;
#223 = ORIENTED_EDGE ( 'NONE', *, *, #174, .F. ) ;
#224 = ADVANCED_FACE ( 'NONE', ( #28 ), #110, .T. ) ;
#225 = VECTOR ( 'NONE', #31, 39.37007874015748854 ) ;
#226 = EDGE_LOOP ( 'NONE', ( #205, #190, #142, #36 ) ) ;
#227 = DIRECTION ( 'NONE',  ( 0.0000000000000000000, 0.0000000000000000000, -1.000000000000000000 ) ) ;
#228 = EDGE_LOOP ( 'NONE', ( #102, #204, #193, #121 ) ) ;
#229 = CARTESIAN_POINT ( 'NONE',  ( 0.0000000000000000000, 0.0000000000000000000, 3.000000000000000444 ) ) ;
#230 = ADVANCED_FACE ( 'NONE', ( #129 ), #29, .T. ) ;
#231 = LINE ( 'NONE', #57, #106 ) ;
#232 = PRODUCT_DEFINITION_SHAPE ( 'NONE', 'NONE',  #3 ) ;
#233 = FILL_AREA_STYLE_COLOUR ( '', #37 ) ;
#234 = CARTESIAN_POINT ( 'NONE',  ( 0.0000000000000000000, 0.0000000000000000000, 3.000000000000000444 ) ) ;
#235 =( CONVERSION_BASED_UNIT ( 'INCH', #88 ) LENGTH_UNIT ( ) NAMED_UNIT ( #199 ) );
#236 = CARTESIAN_POINT ( 'NONE',  ( 0.003999999999999999216, 0.0000000000000000000, 3.000000000000000444 ) ) ;
#237 = CIRCLE ( 'NONE', #148, 0.06249999999999997918 ) ;
#238 = CONICAL_SURFACE ( 'NONE', #120, 0.003999999999999999216, 0.2617993877991504625 ) ;
#239 = CARTESIAN_POINT ( 'NONE',  ( 0.06249999999999997918, 7.654042494670954463E-18, 2.781675027757221752 ) ) ;
#240 = MANIFOLD_SOLID_BREP ( 'Mirror1', #10 ) ;
#241 = FACE_OUTER_BOUND ( 'NONE', #222, .T. ) ;
#242 = STYLED_ITEM ( 'NONE', ( #167 ), #240 ) ;
#243 = ORIENTED_EDGE ( 'NONE', *, *, #22, .F. ) ;
#244 = AXIS2_PLACEMENT_3D ( 'NONE', #104, #152, #163 ) ;
#245 = VERTEX_POINT ( 'NONE', #30 ) ;
#246 = EDGE_LOOP ( 'NONE', ( #223, #173, #208, #12 ) ) ;
#247 = DIRECTION ( 'NONE',  ( -1.000000000000000000, 0.0000000000000000000, 0.0000000000000000000 ) ) ;
#248 = EDGE_LOOP ( 'NONE', ( #103, #51, #189, #243 ) ) ;
#249 = SURFACE_STYLE_FILL_AREA ( #58 ) ;
ENDSEC;
END-ISO-10303-21;
