ISO-10303-21;
HEADER;
FILE_DESCRIPTION (( 'STEP AP214' ),
    '1' );
FILE_NAME ('Micro_GEM-187-2X.STEP',
    '2021-09-01T20:00:54',
    ( '' ),
    ( '' ),
    'SwSTEP 2.0',
    'SolidWorks 2020',
    '' );
FILE_SCHEMA (( 'AUTOMOTIVE_DESIGN' ));
ENDSEC;

DATA;
#1 = EDGE_CURVE ( 'NONE', #165, #149, #185, .T. ) ;
#2 = ORIENTED_EDGE ( 'NONE', *, *, #67, .F. ) ;
#3 = DIRECTION ( 'NONE',  ( -1.000000000000000000, 0.0000000000000000000, 0.0000000000000000000 ) ) ;
#4 = AXIS2_PLACEMENT_3D ( 'NONE', #54, #245, #216 ) ;
#5 = DIRECTION ( 'NONE',  ( -1.000000000000000000, 0.0000000000000000000, 0.0000000000000000000 ) ) ;
#6 = PRODUCT_DEFINITION_SHAPE ( 'NONE', 'NONE',  #237 ) ;
#7 = VERTEX_POINT ( 'NONE', #290 ) ;
#8 = ORIENTED_EDGE ( 'NONE', *, *, #97, .T. ) ;
#9 =( CONVERSION_BASED_UNIT ( 'INCH', #224 ) LENGTH_UNIT ( ) NAMED_UNIT ( #94 ) );
#10 = EDGE_CURVE ( 'NONE', #7, #267, #157, .T. ) ;
#11 = AXIS2_PLACEMENT_3D ( 'NONE', #261, #123, #125 ) ;
#12 = DIRECTION ( 'NONE',  ( -0.0000000000000000000, -0.0000000000000000000, -1.000000000000000000 ) ) ;
#13 = ORIENTED_EDGE ( 'NONE', *, *, #298, .F. ) ;
#14 = DIRECTION ( 'NONE',  ( -1.000000000000000000, 0.0000000000000000000, 1.224646799147352961E-16 ) ) ;
#15 = PLANE ( 'NONE',  #99 ) ;
#16 = AXIS2_PLACEMENT_3D ( 'NONE', #148, #152, #248 ) ;
#17 = DIRECTION ( 'NONE',  ( -1.224646799147353207E-16, -0.0000000000000000000, -1.000000000000000000 ) ) ;
#18 = SURFACE_STYLE_FILL_AREA ( #137 ) ;
#19 = DIRECTION ( 'NONE',  ( -0.0000000000000000000, -0.0000000000000000000, -1.000000000000000000 ) ) ;
#20 = DIRECTION ( 'NONE',  ( -0.0000000000000000000, -0.0000000000000000000, -1.000000000000000000 ) ) ;
#21 = AXIS2_PLACEMENT_3D ( 'NONE', #242, #127, #197 ) ;
#22 =( LENGTH_UNIT ( ) NAMED_UNIT ( * ) SI_UNIT ( $, .METRE. ) );
#23 = EDGE_CURVE ( 'NONE', #267, #222, #269, .T. ) ;
#24 = CIRCLE ( 'NONE', #276, 0.09375000000000001388 ) ;
#25 = ORIENTED_EDGE ( 'NONE', *, *, #209, .T. ) ;
#26 = DIRECTION ( 'NONE',  ( -0.0000000000000000000, -0.0000000000000000000, -1.000000000000000000 ) ) ;
#27 = VECTOR ( 'NONE', #12, 39.37007874015748143 ) ;
#28 = EDGE_CURVE ( 'NONE', #188, #165, #84, .T. ) ;
#29 = ORIENTED_EDGE ( 'NONE', *, *, #91, .T. ) ;
#30 = STYLED_ITEM ( 'NONE', ( #270 ), #113 ) ;
#31 = EDGE_LOOP ( 'NONE', ( #25, #247 ) ) ;
#32 = CARTESIAN_POINT ( 'NONE',  ( 0.0000000000000000000, 0.0000000000000000000, 2.000000000000000000 ) ) ;
#33 = SURFACE_SIDE_STYLE ('',( #203 ) ) ;
#34 = DIRECTION ( 'NONE',  ( 0.0000000000000000000, 0.0000000000000000000, 1.000000000000000000 ) ) ;
#35 = ORIENTED_EDGE ( 'NONE', *, *, #28, .T. ) ;
#36 = ADVANCED_FACE ( 'NONE', ( #246 ), #194, .T. ) ;
#37 = AXIS2_PLACEMENT_3D ( 'NONE', #234, #114, #41 ) ;
#38 = ORIENTED_EDGE ( 'NONE', *, *, #145, .F. ) ;
#39 = APPLICATION_CONTEXT ( 'automotive_design' ) ;
#40 = DIRECTION ( 'NONE',  ( -1.224646799147353207E-16, -0.0000000000000000000, -1.000000000000000000 ) ) ;
#41 = DIRECTION ( 'NONE',  ( -1.000000000000000000, 0.0000000000000000000, 0.0000000000000000000 ) ) ;
#42 = AXIS2_PLACEMENT_3D ( 'NONE', #191, #40, #162 ) ;
#43 = COLOUR_RGB ( '',0.7921568627450980005, 0.8196078431372548767, 0.9333333333333333481 ) ;
#44 = LINE ( 'NONE', #88, #214 ) ;
#45 = CARTESIAN_POINT ( 'NONE',  ( 0.09375000000000006939, 1.148106374200644633E-17, 0.6255316826705892286 ) ) ;
#46 = ADVANCED_FACE ( 'NONE', ( #225 ), #155, .T. ) ;
#47 = CARTESIAN_POINT ( 'NONE',  ( -0.09374999999999994449, 0.0000000000000000000, 0.6255316826705892286 ) ) ;
#48 = UNCERTAINTY_MEASURE_WITH_UNIT (LENGTH_MEASURE( 1.000000000000000082E-05 ), #9, 'distance_accuracy_value', 'NONE');
#49 = LENGTH_MEASURE_WITH_UNIT ( LENGTH_MEASURE( 0.02539999999999999897 ), #76 );
#50 = CONICAL_SURFACE ( 'NONE', #170, 0.09365624999999999645, 0.1745329251994338637 ) ;
#51 = CYLINDRICAL_SURFACE ( 'NONE', #271, 0.09375000000000001388 ) ;
#52 = DIRECTION ( 'NONE',  ( 0.7071067811865463515, 8.659560562354916834E-17, -0.7071067811865486830 ) ) ;
#53 = APPLICATION_CONTEXT ( 'automotive_design' ) ;
#54 = CARTESIAN_POINT ( 'NONE',  ( 0.0000000000000000000, 0.0000000000000000000, 2.000000000000000000 ) ) ;
#55 = AXIS2_PLACEMENT_3D ( 'NONE', #112, #274, #139 ) ;
#56 = CARTESIAN_POINT ( 'NONE',  ( -0.07874999999999980627, 0.0000000000000000000, 2.000000000000000000 ) ) ;
#57 = ORIENTED_EDGE ( 'NONE', *, *, #253, .F. ) ;
#58 = CIRCLE ( 'NONE', #231, 0.09375000000000001388 ) ;
#59 = EDGE_LOOP ( 'NONE', ( #115, #126, #104, #146 ) ) ;
#60 = ADVANCED_FACE ( 'NONE', ( #211 ), #190, .T. ) ;
#61 = SURFACE_STYLE_USAGE ( .BOTH. , #33 ) ;
#62 = EDGE_LOOP ( 'NONE', ( #219, #196, #136, #13 ) ) ;
#63 = FACE_OUTER_BOUND ( 'NONE', #31, .T. ) ;
#64 = ADVANCED_FACE ( 'NONE', ( #63 ), #15, .F. ) ;
#65 = CARTESIAN_POINT ( 'NONE',  ( -0.09365624999999999645, 0.0000000000000000000, 1.146958267826442798E-17 ) ) ;
#66 = CARTESIAN_POINT ( 'NONE',  ( 7.654042494670957853E-17, 0.0000000000000000000, 0.6250000000000000000 ) ) ;
#67 = EDGE_CURVE ( 'NONE', #188, #153, #230, .T. ) ;
#68 = DIMENSIONAL_EXPONENTS ( 1.000000000000000000, 0.0000000000000000000, 0.0000000000000000000, 0.0000000000000000000, 0.0000000000000000000, 0.0000000000000000000, 0.0000000000000000000 ) ;
#69 = CARTESIAN_POINT ( 'NONE',  ( 0.0000000000000000000, 0.0000000000000000000, 2.000000000000000000 ) ) ;
#70 = ADVANCED_FACE ( 'NONE', ( #117 ), #294, .T. ) ;
#71 = DIRECTION ( 'NONE',  ( 1.224646799147353207E-16, 0.0000000000000000000, 1.000000000000000000 ) ) ;
#72 = PRODUCT_DEFINITION_CONTEXT ( 'detailed design', #53, 'design' ) ;
#73 =( CONVERSION_BASED_UNIT ( 'INCH', #280 ) LENGTH_UNIT ( ) NAMED_UNIT ( #68 ) );
#74 = AXIS2_PLACEMENT_3D ( 'NONE', #166, #17, #257 ) ;
#75 = FACE_OUTER_BOUND ( 'NONE', #286, .T. ) ;
#76 =( LENGTH_UNIT ( ) NAMED_UNIT ( * ) SI_UNIT ( $, .METRE. ) );
#77 = CARTESIAN_POINT ( 'NONE',  ( -0.09365624999999992706, 1.147532321013543253E-17, 0.6250000000000000000 ) ) ;
#78 = CIRCLE ( 'NONE', #4, 0.07874999999999980627 ) ;
#79 = EDGE_LOOP ( 'NONE', ( #143, #202, #38, #175 ) ) ;
#80 = FILL_AREA_STYLE_COLOUR ( '', #43 ) ;
#81 = AXIS2_PLACEMENT_3D ( 'NONE', #69, #20, #167 ) ;
#82 =( NAMED_UNIT ( * ) SI_UNIT ( $, .STERADIAN. ) SOLID_ANGLE_UNIT ( ) );
#83 = ORIENTED_EDGE ( 'NONE', *, *, #10, .F. ) ;
#84 = CIRCLE ( 'NONE', #16, 0.09375000000000001388 ) ;
#85 = PRODUCT_DEFINITION_FORMATION_WITH_SPECIFIED_SOURCE ( 'ANY', '', #244, .NOT_KNOWN. ) ;
#86 = FILL_AREA_STYLE_COLOUR ( '', #259 ) ;
#87 = UNCERTAINTY_MEASURE_WITH_UNIT (LENGTH_MEASURE( 1.000000000000000082E-05 ), #73, 'distance_accuracy_value', 'NONE');
#88 = CARTESIAN_POINT ( 'NONE',  ( -0.09365624999999992706, 1.146958267826442798E-17, 0.6250000000000000000 ) ) ;
#89 = ORIENTED_EDGE ( 'NONE', *, *, #258, .T. ) ;
#90 = CARTESIAN_POINT ( 'NONE',  ( -0.07874999999999980627, 0.0000000000000000000, 2.000000000000000000 ) ) ;
#91 = EDGE_CURVE ( 'NONE', #153, #149, #58, .T. ) ;
#92 = AXIS2_PLACEMENT_3D ( 'NONE', #186, #93, #292 ) ;
#93 = DIRECTION ( 'NONE',  ( -1.224646799147353207E-16, -0.0000000000000000000, -1.000000000000000000 ) ) ;
#94 = DIMENSIONAL_EXPONENTS ( 1.000000000000000000, 0.0000000000000000000, 0.0000000000000000000, 0.0000000000000000000, 0.0000000000000000000, 0.0000000000000000000, 0.0000000000000000000 ) ;
#95 = DIRECTION ( 'NONE',  ( -1.000000000000000000, 0.0000000000000000000, 0.0000000000000000000 ) ) ;
#96 = DIRECTION ( 'NONE',  ( 1.000000000000000000, 0.0000000000000000000, 0.0000000000000000000 ) ) ;
#97 = EDGE_CURVE ( 'NONE', #150, #178, #180, .T. ) ;
#98 = DIRECTION ( 'NONE',  ( 0.0000000000000000000, 0.0000000000000000000, -1.000000000000000000 ) ) ;
#99 = AXIS2_PLACEMENT_3D ( 'NONE', #255, #134, #236 ) ;
#100 = AXIS2_PLACEMENT_3D ( 'NONE', #268, #34, #251 ) ;
#101 = DIRECTION ( 'NONE',  ( 0.1736481776669313581, 0.0000000000000000000, 0.9848077530122077983 ) ) ;
#102 = ADVANCED_FACE ( 'NONE', ( #207 ), #159, .T. ) ;
#103 = EDGE_LOOP ( 'NONE', ( #83, #243, #110, #235 ) ) ;
#104 = ORIENTED_EDGE ( 'NONE', *, *, #201, .T. ) ;
#105 =( NAMED_UNIT ( * ) PLANE_ANGLE_UNIT ( ) SI_UNIT ( $, .RADIAN. ) );
#106 = APPLICATION_PROTOCOL_DEFINITION ( 'draft international standard', 'automotive_design', 1998, #39 ) ;
#107 = CARTESIAN_POINT ( 'NONE',  ( 0.0000000000000000000, 0.0000000000000000000, 2.000000000000000000 ) ) ;
#108 =( NAMED_UNIT ( * ) PLANE_ANGLE_UNIT ( ) SI_UNIT ( $, .RADIAN. ) );
#109 = DIRECTION ( 'NONE',  ( -0.1736481776669311639, 2.126576849575783008E-17, 0.9848077530122080203 ) ) ;
#110 = ORIENTED_EDGE ( 'NONE', *, *, #138, .T. ) ;
#111 = CIRCLE ( 'NONE', #210, 0.09365624999999999645 ) ;
#112 = CARTESIAN_POINT ( 'NONE',  ( 0.0000000000000000000, 0.0000000000000000000, 2.000000000000000000 ) ) ;
#113 = ADVANCED_BREP_SHAPE_REPRESENTATION ( 'Micro_GEM-187-2X', ( #176, #100 ), #232 ) ;
#114 = DIRECTION ( 'NONE',  ( 0.0000000000000000000, 0.0000000000000000000, -1.000000000000000000 ) ) ;
#115 = ORIENTED_EDGE ( 'NONE', *, *, #263, .F. ) ;
#116 = ORIENTED_EDGE ( 'NONE', *, *, #171, .F. ) ;
#117 = FACE_OUTER_BOUND ( 'NONE', #103, .T. ) ;
#118 = AXIS2_PLACEMENT_3D ( 'NONE', #147, #220, #218 ) ;
#119 = DIRECTION ( 'NONE',  ( -1.224646799147353207E-16, -0.0000000000000000000, -1.000000000000000000 ) ) ;
#120 =( CONVERSION_BASED_UNIT ( 'INCH', #49 ) LENGTH_UNIT ( ) NAMED_UNIT ( #233 ) );
#121 = CLOSED_SHELL ( 'NONE', ( #102, #284, #60, #279, #161, #46, #36, #226, #70, #64 ) ) ;
#122 = CARTESIAN_POINT ( 'NONE',  ( 0.07874999999999980627, 9.644093543285380530E-18, 2.000000000000000000 ) ) ;
#123 = DIRECTION ( 'NONE',  ( -1.224646799147353207E-16, -0.0000000000000000000, -1.000000000000000000 ) ) ;
#124 = ORIENTED_EDGE ( 'NONE', *, *, #10, .T. ) ;
#125 = DIRECTION ( 'NONE',  ( -1.000000000000000000, 0.0000000000000000000, 1.224646799147352961E-16 ) ) ;
#126 = ORIENTED_EDGE ( 'NONE', *, *, #97, .F. ) ;
#127 = DIRECTION ( 'NONE',  ( -1.224646799147353207E-16, -0.0000000000000000000, -1.000000000000000000 ) ) ;
#128 =( LENGTH_UNIT ( ) NAMED_UNIT ( * ) SI_UNIT ( $, .METRE. ) );
#129 = DIRECTION ( 'NONE',  ( 0.0000000000000000000, 0.0000000000000000000, -1.000000000000000000 ) ) ;
#130 = ORIENTED_EDGE ( 'NONE', *, *, #263, .T. ) ;
#131 = FILL_AREA_STYLE ('',( #80 ) ) ;
#132 = CARTESIAN_POINT ( 'NONE',  ( -0.09375000000000001388, 0.0000000000000000000, 2.000000000000000000 ) ) ;
#133 = CIRCLE ( 'NONE', #11, 0.09365624999999999645 ) ;
#134 = DIRECTION ( 'NONE',  ( 0.0000000000000000000, 0.0000000000000000000, 1.000000000000000000 ) ) ;
#135 = AXIS2_PLACEMENT_3D ( 'NONE', #107, #275, #238 ) ;
#136 = ORIENTED_EDGE ( 'NONE', *, *, #145, .T. ) ;
#137 = FILL_AREA_STYLE ('',( #86 ) ) ;
#138 = EDGE_CURVE ( 'NONE', #199, #222, #254, .T. ) ;
#139 = DIRECTION ( 'NONE',  ( 1.000000000000000000, 0.0000000000000000000, 0.0000000000000000000 ) ) ;
#140 = VECTOR ( 'NONE', #101, 39.37007874015748143 ) ;
#141 = DIRECTION ( 'NONE',  ( -0.7071067811865463515, 0.0000000000000000000, -0.7071067811865486830 ) ) ;
#142 = CARTESIAN_POINT ( 'NONE',  ( 0.0000000000000000000, 0.0000000000000000000, 2.000000000000000000 ) ) ;
#143 = ORIENTED_EDGE ( 'NONE', *, *, #195, .T. ) ;
#144 = VECTOR ( 'NONE', #141, 39.37007874015748143 ) ;
#145 = EDGE_CURVE ( 'NONE', #149, #153, #291, .T. ) ;
#146 = ORIENTED_EDGE ( 'NONE', *, *, #28, .F. ) ;
#147 = CARTESIAN_POINT ( 'NONE',  ( 7.654042494670957853E-17, 0.0000000000000000000, 0.6250000000000000000 ) ) ;
#148 = CARTESIAN_POINT ( 'NONE',  ( 0.0000000000000000000, 0.0000000000000000000, 1.984999999999999654 ) ) ;
#149 = VERTEX_POINT ( 'NONE', #47 ) ;
#150 = VERTEX_POINT ( 'NONE', #90 ) ;
#151 = AXIS2_PLACEMENT_3D ( 'NONE', #228, #250, #14 ) ;
#152 = DIRECTION ( 'NONE',  ( 0.0000000000000000000, 0.0000000000000000000, -1.000000000000000000 ) ) ;
#153 = VERTEX_POINT ( 'NONE', #45 ) ;
#154 = APPLICATION_PROTOCOL_DEFINITION ( 'draft international standard', 'automotive_design', 1998, #53 ) ;
#155 = PLANE ( 'NONE',  #135 ) ;
#156 = EDGE_CURVE ( 'NONE', #199, #149, #44, .T. ) ;
#157 = LINE ( 'NONE', #179, #163 ) ;
#158 = CIRCLE ( 'NONE', #21, 0.09365624999999999645 ) ;
#159 = CYLINDRICAL_SURFACE ( 'NONE', #92, 0.09365624999999999645 ) ;
#160 = CARTESIAN_POINT ( 'NONE',  ( 7.660553729477949085E-17, 0.0000000000000000000, 0.6255316826705892286 ) ) ;
#161 = ADVANCED_FACE ( 'NONE', ( #189 ), #277, .T. ) ;
#162 = DIRECTION ( 'NONE',  ( 1.000000000000000000, 0.0000000000000000000, 0.0000000000000000000 ) ) ;
#163 = VECTOR ( 'NONE', #285, 39.37007874015748143 ) ;
#164 = AXIS2_PLACEMENT_3D ( 'NONE', #32, #129, #5 ) ;
#165 = VERTEX_POINT ( 'NONE', #204 ) ;
#166 = CARTESIAN_POINT ( 'NONE',  ( 0.0000000000000000000, 0.0000000000000000000, 0.0000000000000000000 ) ) ;
#167 = DIRECTION ( 'NONE',  ( -1.000000000000000000, 0.0000000000000000000, 0.0000000000000000000 ) ) ;
#168 = UNCERTAINTY_MEASURE_WITH_UNIT (LENGTH_MEASURE( 1.000000000000000082E-05 ), #120, 'distance_accuracy_value', 'NONE');
#169 = CARTESIAN_POINT ( 'NONE',  ( 0.09365625000000006584, 0.0000000000000000000, 0.6250000000000000000 ) ) ;
#170 = AXIS2_PLACEMENT_3D ( 'NONE', #262, #71, #240 ) ;
#171 = EDGE_CURVE ( 'NONE', #7, #199, #111, .T. ) ;
#172 = SURFACE_STYLE_USAGE ( .BOTH. , #193 ) ;
#173 = EDGE_LOOP ( 'NONE', ( #57, #130, #289, #198 ) ) ;
#174 = FACE_OUTER_BOUND ( 'NONE', #79, .T. ) ;
#175 = ORIENTED_EDGE ( 'NONE', *, *, #1, .F. ) ;
#176 = MANIFOLD_SOLID_BREP ( 'Cut-Revolve1', #121 ) ;
#177 = EDGE_LOOP ( 'NONE', ( #89, #124, #281, #249 ) ) ;
#178 = VERTEX_POINT ( 'NONE', #282 ) ;
#179 = CARTESIAN_POINT ( 'NONE',  ( 0.09365624999999999645, 1.146958267826442798E-17, -1.146958267826442798E-17 ) ) ;
#180 = CIRCLE ( 'NONE', #55, 0.07874999999999980627 ) ;
#181 =( NAMED_UNIT ( * ) SI_UNIT ( $, .STERADIAN. ) SOLID_ANGLE_UNIT ( ) );
#182 = PRODUCT_RELATED_PRODUCT_CATEGORY ( 'part', '', ( #244 ) ) ;
#183 = EDGE_LOOP ( 'NONE', ( #2, #35, #273, #217 ) ) ;
#184 = ORIENTED_EDGE ( 'NONE', *, *, #156, .F. ) ;
#185 = LINE ( 'NONE', #132, #27 ) ;
#186 = CARTESIAN_POINT ( 'NONE',  ( 0.0000000000000000000, 0.0000000000000000000, 0.0000000000000000000 ) ) ;
#187 = EDGE_LOOP ( 'NONE', ( #8, #223 ) ) ;
#188 = VERTEX_POINT ( 'NONE', #283 ) ;
#189 = FACE_OUTER_BOUND ( 'NONE', #183, .T. ) ;
#190 = CONICAL_SURFACE ( 'NONE', #37, 0.07874999999999980627, 0.7853981633974466137 ) ;
#191 = CARTESIAN_POINT ( 'NONE',  ( 7.660553729477949085E-17, 0.0000000000000000000, 0.6255316826705892286 ) ) ;
#192 =( NAMED_UNIT ( * ) PLANE_ANGLE_UNIT ( ) SI_UNIT ( $, .RADIAN. ) );
#193 = SURFACE_SIDE_STYLE ('',( #18 ) ) ;
#194 = CONICAL_SURFACE ( 'NONE', #164, 0.07874999999999980627, 0.7853981633974466137 ) ;
#195 = EDGE_CURVE ( 'NONE', #165, #188, #24, .T. ) ;
#196 = ORIENTED_EDGE ( 'NONE', *, *, #156, .T. ) ;
#197 = DIRECTION ( 'NONE',  ( -1.000000000000000000, 0.0000000000000000000, 0.0000000000000000000 ) ) ;
#198 = ORIENTED_EDGE ( 'NONE', *, *, #201, .F. ) ;
#199 = VERTEX_POINT ( 'NONE', #77 ) ;
#200 = VECTOR ( 'NONE', #52, 39.37007874015748143 ) ;
#201 = EDGE_CURVE ( 'NONE', #150, #165, #266, .T. ) ;
#202 = ORIENTED_EDGE ( 'NONE', *, *, #67, .T. ) ;
#203 = SURFACE_STYLE_FILL_AREA ( #131 ) ;
#204 = CARTESIAN_POINT ( 'NONE',  ( -0.09375000000000001388, 0.0000000000000000000, 1.984999999999999654 ) ) ;
#205 = VECTOR ( 'NONE', #19, 39.37007874015748143 ) ;
#206 = MECHANICAL_DESIGN_GEOMETRIC_PRESENTATION_REPRESENTATION (  '', ( #30 ), #265 ) ;
#207 = FACE_OUTER_BOUND ( 'NONE', #177, .T. ) ;
#208 = CARTESIAN_POINT ( 'NONE',  ( 0.09375000000000001388, 1.148106374200643863E-17, 2.000000000000000000 ) ) ;
#209 = EDGE_CURVE ( 'NONE', #222, #267, #133, .T. ) ;
#210 = AXIS2_PLACEMENT_3D ( 'NONE', #66, #119, #95 ) ;
#211 = FACE_OUTER_BOUND ( 'NONE', #173, .T. ) ;
#212 = PRESENTATION_STYLE_ASSIGNMENT (( #172 ) ) ;
#213 = LINE ( 'NONE', #169, #140 ) ;
#214 = VECTOR ( 'NONE', #109, 39.37007874015747433 ) ;
#215 = PRESENTATION_LAYER_ASSIGNMENT (  '', '', ( #30 ) ) ;
#216 = DIRECTION ( 'NONE',  ( 1.000000000000000000, 0.0000000000000000000, 0.0000000000000000000 ) ) ;
#217 = ORIENTED_EDGE ( 'NONE', *, *, #91, .F. ) ;
#218 = DIRECTION ( 'NONE',  ( 1.000000000000000000, 0.0000000000000000000, 0.0000000000000000000 ) ) ;
#219 = ORIENTED_EDGE ( 'NONE', *, *, #258, .F. ) ;
#220 = DIRECTION ( 'NONE',  ( 1.224646799147353207E-16, 0.0000000000000000000, 1.000000000000000000 ) ) ;
#221 = ORIENTED_EDGE ( 'NONE', *, *, #298, .T. ) ;
#222 = VERTEX_POINT ( 'NONE', #278 ) ;
#223 = ORIENTED_EDGE ( 'NONE', *, *, #253, .T. ) ;
#224 = LENGTH_MEASURE_WITH_UNIT ( LENGTH_MEASURE( 0.02539999999999999897 ), #128 );
#225 = FACE_OUTER_BOUND ( 'NONE', #187, .T. ) ;
#226 = ADVANCED_FACE ( 'NONE', ( #75 ), #252, .T. ) ;
#227 = STYLED_ITEM ( 'NONE', ( #212 ), #176 ) ;
#228 = CARTESIAN_POINT ( 'NONE',  ( 1.404618771449245766E-33, 0.0000000000000000000, 1.146958267826442798E-17 ) ) ;
#229 = DIRECTION ( 'NONE',  ( -1.224646799147353207E-16, -0.0000000000000000000, -1.000000000000000000 ) ) ;
#230 = LINE ( 'NONE', #208, #205 ) ;
#231 = AXIS2_PLACEMENT_3D ( 'NONE', #160, #295, #293 ) ;
#232 =( GEOMETRIC_REPRESENTATION_CONTEXT ( 3 ) GLOBAL_UNCERTAINTY_ASSIGNED_CONTEXT ( ( #168 ) ) GLOBAL_UNIT_ASSIGNED_CONTEXT ( ( #120, #108, #82 ) ) REPRESENTATION_CONTEXT ( 'NONE', 'WORKASPACE' ) );
#233 = DIMENSIONAL_EXPONENTS ( 1.000000000000000000, 0.0000000000000000000, 0.0000000000000000000, 0.0000000000000000000, 0.0000000000000000000, 0.0000000000000000000, 0.0000000000000000000 ) ;
#234 = CARTESIAN_POINT ( 'NONE',  ( 0.0000000000000000000, 0.0000000000000000000, 2.000000000000000000 ) ) ;
#235 = ORIENTED_EDGE ( 'NONE', *, *, #23, .F. ) ;
#236 = DIRECTION ( 'NONE',  ( 1.000000000000000000, 0.0000000000000000000, -0.0000000000000000000 ) ) ;
#237 = PRODUCT_DEFINITION ( 'UNKNOWN', '', #85, #72 ) ;
#238 = DIRECTION ( 'NONE',  ( 1.000000000000000000, 0.0000000000000000000, -0.0000000000000000000 ) ) ;
#239 = MECHANICAL_DESIGN_GEOMETRIC_PRESENTATION_REPRESENTATION (  '', ( #227 ), #264 ) ;
#240 = DIRECTION ( 'NONE',  ( 1.000000000000000000, 0.0000000000000000000, 0.0000000000000000000 ) ) ;
#241 = FACE_OUTER_BOUND ( 'NONE', #62, .T. ) ;
#242 = CARTESIAN_POINT ( 'NONE',  ( 7.654042494670957853E-17, 0.0000000000000000000, 0.6250000000000000000 ) ) ;
#243 = ORIENTED_EDGE ( 'NONE', *, *, #171, .T. ) ;
#244 = PRODUCT ( 'Micro_GEM-187-2X', 'Micro_GEM-187-2X', '', ( #287 ) ) ;
#245 = DIRECTION ( 'NONE',  ( 0.0000000000000000000, 0.0000000000000000000, 1.000000000000000000 ) ) ;
#246 = FACE_OUTER_BOUND ( 'NONE', #59, .T. ) ;
#247 = ORIENTED_EDGE ( 'NONE', *, *, #23, .T. ) ;
#248 = DIRECTION ( 'NONE',  ( 1.000000000000000000, 0.0000000000000000000, 0.0000000000000000000 ) ) ;
#249 = ORIENTED_EDGE ( 'NONE', *, *, #138, .F. ) ;
#250 = DIRECTION ( 'NONE',  ( -1.224646799147353207E-16, -0.0000000000000000000, -1.000000000000000000 ) ) ;
#251 = DIRECTION ( 'NONE',  ( 1.000000000000000000, 0.0000000000000000000, 0.0000000000000000000 ) ) ;
#252 = CONICAL_SURFACE ( 'NONE', #118, 0.09365624999999999645, 0.1745329251994338637 ) ;
#253 = EDGE_CURVE ( 'NONE', #178, #150, #78, .T. ) ;
#254 = LINE ( 'NONE', #65, #297 ) ;
#255 = CARTESIAN_POINT ( 'NONE',  ( 0.0000000000000000000, 0.0000000000000000000, 0.0000000000000000000 ) ) ;
#256 = PRESENTATION_LAYER_ASSIGNMENT (  '', '', ( #227 ) ) ;
#257 = DIRECTION ( 'NONE',  ( -1.000000000000000000, 0.0000000000000000000, 1.224646799147352961E-16 ) ) ;
#258 = EDGE_CURVE ( 'NONE', #199, #7, #158, .T. ) ;
#259 = COLOUR_RGB ( '',0.7921568627450980005, 0.8196078431372548767, 0.9333333333333333481 ) ;
#260 = CARTESIAN_POINT ( 'NONE',  ( 0.09365624999999999645, 1.146958267826442798E-17, 0.0000000000000000000 ) ) ;
#261 = CARTESIAN_POINT ( 'NONE',  ( 1.404618771449245766E-33, 0.0000000000000000000, 1.146958267826442798E-17 ) ) ;
#262 = CARTESIAN_POINT ( 'NONE',  ( 7.654042494670957853E-17, 0.0000000000000000000, 0.6250000000000000000 ) ) ;
#263 = EDGE_CURVE ( 'NONE', #178, #188, #299, .T. ) ;
#264 =( GEOMETRIC_REPRESENTATION_CONTEXT ( 3 ) GLOBAL_UNCERTAINTY_ASSIGNED_CONTEXT ( ( #87 ) ) GLOBAL_UNIT_ASSIGNED_CONTEXT ( ( #73, #192, #296 ) ) REPRESENTATION_CONTEXT ( 'NONE', 'WORKASPACE' ) );
#265 =( GEOMETRIC_REPRESENTATION_CONTEXT ( 3 ) GLOBAL_UNCERTAINTY_ASSIGNED_CONTEXT ( ( #48 ) ) GLOBAL_UNIT_ASSIGNED_CONTEXT ( ( #9, #105, #181 ) ) REPRESENTATION_CONTEXT ( 'NONE', 'WORKASPACE' ) );
#266 = LINE ( 'NONE', #56, #144 ) ;
#267 = VERTEX_POINT ( 'NONE', #260 ) ;
#268 = CARTESIAN_POINT ( 'NONE',  ( 0.0000000000000000000, 0.0000000000000000000, 0.0000000000000000000 ) ) ;
#269 = CIRCLE ( 'NONE', #151, 0.09365624999999999645 ) ;
#270 = PRESENTATION_STYLE_ASSIGNMENT (( #61 ) ) ;
#271 = AXIS2_PLACEMENT_3D ( 'NONE', #142, #26, #3 ) ;
#272 = CARTESIAN_POINT ( 'NONE',  ( 0.0000000000000000000, 0.0000000000000000000, 1.984999999999999654 ) ) ;
#273 = ORIENTED_EDGE ( 'NONE', *, *, #1, .T. ) ;
#274 = DIRECTION ( 'NONE',  ( 0.0000000000000000000, 0.0000000000000000000, 1.000000000000000000 ) ) ;
#275 = DIRECTION ( 'NONE',  ( 0.0000000000000000000, 0.0000000000000000000, 1.000000000000000000 ) ) ;
#276 = AXIS2_PLACEMENT_3D ( 'NONE', #272, #98, #96 ) ;
#277 = CYLINDRICAL_SURFACE ( 'NONE', #81, 0.09375000000000001388 ) ;
#278 = CARTESIAN_POINT ( 'NONE',  ( -0.09365624999999999645, 0.0000000000000000000, 2.293916535652885596E-17 ) ) ;
#279 = ADVANCED_FACE ( 'NONE', ( #174 ), #51, .T. ) ;
#280 = LENGTH_MEASURE_WITH_UNIT ( LENGTH_MEASURE( 0.02539999999999999897 ), #22 );
#281 = ORIENTED_EDGE ( 'NONE', *, *, #209, .F. ) ;
#282 = CARTESIAN_POINT ( 'NONE',  ( 0.07874999999999980627, 1.056257864264590573E-17, 2.000000000000000000 ) ) ;
#283 = CARTESIAN_POINT ( 'NONE',  ( 0.09375000000000001388, 1.148106374200643863E-17, 1.984999999999999654 ) ) ;
#284 = ADVANCED_FACE ( 'NONE', ( #241 ), #50, .T. ) ;
#285 = DIRECTION ( 'NONE',  ( -1.224646799147353207E-16, -0.0000000000000000000, -1.000000000000000000 ) ) ;
#286 = EDGE_LOOP ( 'NONE', ( #184, #116, #221, #29 ) ) ;
#287 = PRODUCT_CONTEXT ( 'NONE', #39, 'mechanical' ) ;
#288 = SHAPE_DEFINITION_REPRESENTATION ( #6, #113 ) ;
#289 = ORIENTED_EDGE ( 'NONE', *, *, #195, .F. ) ;
#290 = CARTESIAN_POINT ( 'NONE',  ( 0.09365625000000006584, 0.0000000000000000000, 0.6250000000000000000 ) ) ;
#291 = CIRCLE ( 'NONE', #42, 0.09375000000000001388 ) ;
#292 = DIRECTION ( 'NONE',  ( -1.000000000000000000, 0.0000000000000000000, 1.224646799147352961E-16 ) ) ;
#293 = DIRECTION ( 'NONE',  ( 1.000000000000000000, 0.0000000000000000000, 0.0000000000000000000 ) ) ;
#294 = CYLINDRICAL_SURFACE ( 'NONE', #74, 0.09365624999999999645 ) ;
#295 = DIRECTION ( 'NONE',  ( -1.224646799147353207E-16, -0.0000000000000000000, -1.000000000000000000 ) ) ;
#296 =( NAMED_UNIT ( * ) SI_UNIT ( $, .STERADIAN. ) SOLID_ANGLE_UNIT ( ) );
#297 = VECTOR ( 'NONE', #229, 39.37007874015748143 ) ;
#298 = EDGE_CURVE ( 'NONE', #7, #153, #213, .T. ) ;
#299 = LINE ( 'NONE', #122, #200 ) ;
ENDSEC;
END-ISO-10303-21;
