ISO-10303-21;
HEADER;
FILE_DESCRIPTION (( 'STEP AP214' ),
    '1' );
FILE_NAME ('Micro_SBMM-020-416X.STEP',
    '2021-09-02T17:06:11',
    ( '' ),
    ( '' ),
    'SwSTEP 2.0',
    'SolidWorks 2020',
    '' );
FILE_SCHEMA (( 'AUTOMOTIVE_DESIGN' ));
ENDSEC;

DATA;
#1 = PRODUCT_CONTEXT ( 'NONE', #322, 'mechanical' ) ;
#2 = DIRECTION ( 'NONE',  ( -1.000000000000000000, 0.0000000000000000000, 0.0000000000000000000 ) ) ;
#3 = APPLICATION_PROTOCOL_DEFINITION ( 'draft international standard', 'automotive_design', 1998, #343 ) ;
#4 = CARTESIAN_POINT ( 'NONE',  ( 0.0000000000000000000, 0.0000000000000000000, 0.03937000000000000915 ) ) ;
#5 = VECTOR ( 'NONE', #115, 39.37007874015748143 ) ;
#6 = EDGE_CURVE ( 'NONE', #338, #83, #320, .T. ) ;
#7 = DIRECTION ( 'NONE',  ( -0.0000000000000000000, -0.0000000000000000000, -1.000000000000000000 ) ) ;
#8 = CARTESIAN_POINT ( 'NONE',  ( -0.1031099999999991745, 0.0000000000000000000, 2.952755999999999936 ) ) ;
#9 = CYLINDRICAL_SURFACE ( 'NONE', #21, 0.1181100000000000344 ) ;
#10 = VECTOR ( 'NONE', #202, 39.37007874015748143 ) ;
#11 = DIRECTION ( 'NONE',  ( -1.000000000000000000, 0.0000000000000000000, 0.0000000000000000000 ) ) ;
#12 = DIRECTION ( 'NONE',  ( -0.0000000000000000000, -0.0000000000000000000, -1.000000000000000000 ) ) ;
#13 = AXIS2_PLACEMENT_3D ( 'NONE', #4, #315, #261 ) ;
#14 =( NAMED_UNIT ( * ) SI_UNIT ( $, .STERADIAN. ) SOLID_ANGLE_UNIT ( ) );
#15 =( GEOMETRIC_REPRESENTATION_CONTEXT ( 3 ) GLOBAL_UNCERTAINTY_ASSIGNED_CONTEXT ( ( #149 ) ) GLOBAL_UNIT_ASSIGNED_CONTEXT ( ( #135, #51, #137 ) ) REPRESENTATION_CONTEXT ( 'NONE', 'WORKASPACE' ) );
#16 = EDGE_CURVE ( 'NONE', #229, #309, #191, .T. ) ;
#17 = ORIENTED_EDGE ( 'NONE', *, *, #16, .T. ) ;
#18 = ORIENTED_EDGE ( 'NONE', *, *, #331, .T. ) ;
#19 = FILL_AREA_STYLE ('',( #257 ) ) ;
#20 =( CONVERSION_BASED_UNIT ( 'INCH', #46 ) LENGTH_UNIT ( ) NAMED_UNIT ( #180 ) );
#21 = AXIS2_PLACEMENT_3D ( 'NONE', #300, #172, #94 ) ;
#22 = EDGE_LOOP ( 'NONE', ( #132, #70, #166, #303, #304 ) ) ;
#23 = FILL_AREA_STYLE ('',( #235 ) ) ;
#24 = SPHERICAL_SURFACE ( 'NONE', #76, 0.03936999999999999528 ) ;
#25 = CIRCLE ( 'NONE', #93, 0.1181100000000000344 ) ;
#26 = CARTESIAN_POINT ( 'NONE',  ( 0.0000000000000000000, 0.0000000000000000000, 2.937755999999999368 ) ) ;
#27 = ORIENTED_EDGE ( 'NONE', *, *, #209, .F. ) ;
#28 = DIRECTION ( 'NONE',  ( 1.000000000000000000, 0.0000000000000000000, 0.0000000000000000000 ) ) ;
#29 = DIRECTION ( 'NONE',  ( -1.000000000000000000, 0.0000000000000000000, 0.0000000000000000000 ) ) ;
#30 = DIRECTION ( 'NONE',  ( -0.0000000000000000000, -0.0000000000000000000, -1.000000000000000000 ) ) ;
#31 = CARTESIAN_POINT ( 'NONE',  ( 0.0000000000000000000, 2.410717224121564242E-18, 1.707404996040164512E-17 ) ) ;
#32 = DIRECTION ( 'NONE',  ( 1.000000000000000000, 0.0000000000000000000, -0.0000000000000000000 ) ) ;
#33 = AXIS2_PLACEMENT_3D ( 'NONE', #218, #240, #345 ) ;
#34 = EDGE_CURVE ( 'NONE', #268, #282, #160, .T. ) ;
#35 = CONICAL_SURFACE ( 'NONE', #328, 0.1031099999999991745, 0.7853981633974500554 ) ;
#36 = CARTESIAN_POINT ( 'NONE',  ( 0.02559049999999992234, 0.0000000000000000000, 0.6299209999999999532 ) ) ;
#37 = CIRCLE ( 'NONE', #288, 0.02559049999999992234 ) ;
#38 = CARTESIAN_POINT ( 'NONE',  ( 0.0000000000000000000, 0.0000000000000000000, 0.0000000000000000000 ) ) ;
#39 = ADVANCED_FACE ( 'NONE', ( #107 ), #242, .T. ) ;
#40 = ORIENTED_EDGE ( 'NONE', *, *, #144, .T. ) ;
#41 = ADVANCED_FACE ( 'NONE', ( #80 ), #24, .T. ) ;
#42 =( CONVERSION_BASED_UNIT ( 'INCH', #129 ) LENGTH_UNIT ( ) NAMED_UNIT ( #65 ) );
#43 = ORIENTED_EDGE ( 'NONE', *, *, #224, .T. ) ;
#44 = DIRECTION ( 'NONE',  ( 1.000000000000000000, 0.0000000000000000000, 0.0000000000000000000 ) ) ;
#45 = ORIENTED_EDGE ( 'NONE', *, *, #196, .F. ) ;
#46 = LENGTH_MEASURE_WITH_UNIT ( LENGTH_MEASURE( 0.02539999999999999897 ), #308 );
#47 = ORIENTED_EDGE ( 'NONE', *, *, #209, .T. ) ;
#48 = AXIS2_PLACEMENT_3D ( 'NONE', #55, #316, #194 ) ;
#49 = VECTOR ( 'NONE', #59, 39.37007874015748143 ) ;
#50 = ORIENTED_EDGE ( 'NONE', *, *, #318, .F. ) ;
#51 =( NAMED_UNIT ( * ) PLANE_ANGLE_UNIT ( ) SI_UNIT ( $, .RADIAN. ) );
#52 = DIRECTION ( 'NONE',  ( 0.0000000000000000000, 0.0000000000000000000, -1.000000000000000000 ) ) ;
#53 = ORIENTED_EDGE ( 'NONE', *, *, #16, .F. ) ;
#54 = PRESENTATION_LAYER_ASSIGNMENT (  '', '', ( #251 ) ) ;
#55 = CARTESIAN_POINT ( 'NONE',  ( 0.0000000000000000000, 0.0000000000000000000, 0.06928860975630385388 ) ) ;
#56 =( LENGTH_UNIT ( ) NAMED_UNIT ( * ) SI_UNIT ( $, .METRE. ) );
#57 = ORIENTED_EDGE ( 'NONE', *, *, #144, .F. ) ;
#58 = DIRECTION ( 'NONE',  ( -1.224646799147352961E-16, 1.000000000000000000, 0.0000000000000000000 ) ) ;
#59 = DIRECTION ( 'NONE',  ( -0.0000000000000000000, -0.0000000000000000000, -1.000000000000000000 ) ) ;
#60 = AXIS2_PLACEMENT_3D ( 'NONE', #241, #211, #28 ) ;
#61 = PLANE ( 'NONE',  #221 ) ;
#62 = DIRECTION ( 'NONE',  ( -0.0000000000000000000, -0.0000000000000000000, -1.000000000000000000 ) ) ;
#63 = UNCERTAINTY_MEASURE_WITH_UNIT (LENGTH_MEASURE( 1.000000000000000082E-05 ), #42, 'distance_accuracy_value', 'NONE');
#64 = DIRECTION ( 'NONE',  ( -1.000000000000000000, 0.0000000000000000000, 0.0000000000000000000 ) ) ;
#65 = DIMENSIONAL_EXPONENTS ( 1.000000000000000000, 0.0000000000000000000, 0.0000000000000000000, 0.0000000000000000000, 0.0000000000000000000, 0.0000000000000000000, 0.0000000000000000000 ) ;
#66 = AXIS2_PLACEMENT_3D ( 'NONE', #103, #207, #337 ) ;
#67 = DIRECTION ( 'NONE',  ( -1.000000000000000000, 0.0000000000000000000, 0.0000000000000000000 ) ) ;
#68 = EDGE_CURVE ( 'NONE', #313, #157, #167, .T. ) ;
#69 = DIRECTION ( 'NONE',  ( 0.7071067811865486830, 8.659560562354947649E-17, -0.7071067811865462405 ) ) ;
#70 = ORIENTED_EDGE ( 'NONE', *, *, #184, .T. ) ;
#71 = ORIENTED_EDGE ( 'NONE', *, *, #119, .T. ) ;
#72 = AXIS2_PLACEMENT_3D ( 'NONE', #197, #293, #58 ) ;
#73 = AXIS2_PLACEMENT_3D ( 'NONE', #201, #12, #67 ) ;
#74 = DIRECTION ( 'NONE',  ( -1.000000000000000000, 0.0000000000000000000, 0.0000000000000000000 ) ) ;
#75 = ORIENTED_EDGE ( 'NONE', *, *, #118, .T. ) ;
#76 = AXIS2_PLACEMENT_3D ( 'NONE', #289, #291, #139 ) ;
#77 = EDGE_LOOP ( 'NONE', ( #342, #17 ) ) ;
#78 = CONICAL_SURFACE ( 'NONE', #116, 0.1031099999999991745, 0.7853981633974500554 ) ;
#79 = CIRCLE ( 'NONE', #226, 0.1181100000000000344 ) ;
#80 = FACE_OUTER_BOUND ( 'NONE', #105, .T. ) ;
#81 = ADVANCED_FACE ( 'NONE', ( #133 ), #35, .T. ) ;
#82 = PRODUCT_DEFINITION_SHAPE ( 'NONE', 'NONE',  #96 ) ;
#83 = VERTEX_POINT ( 'NONE', #265 ) ;
#84 = CARTESIAN_POINT ( 'NONE',  ( -0.02559049999999992234, 8.799117868043706652E-18, 0.6299209999999999532 ) ) ;
#85 = SURFACE_STYLE_USAGE ( .BOTH. , #159 ) ;
#86 = VECTOR ( 'NONE', #305, 39.37007874015748143 ) ;
#87 = DIRECTION ( 'NONE',  ( 0.09001749462147055902, 0.0000000000000000000, 0.9959401842791932857 ) ) ;
#88 = CIRCLE ( 'NONE', #48, 0.02559049999999998132 ) ;
#89 = AXIS2_PLACEMENT_3D ( 'NONE', #236, #165, #340 ) ;
#90 = DIRECTION ( 'NONE',  ( 0.0000000000000000000, 1.000000000000000000, 0.0000000000000000000 ) ) ;
#91 = DIRECTION ( 'NONE',  ( 1.000000000000000000, 0.0000000000000000000, 0.0000000000000000000 ) ) ;
#92 = CARTESIAN_POINT ( 'NONE',  ( -0.02559049999999998132, 0.0000000000000000000, 0.06928860975630385388 ) ) ;
#93 = AXIS2_PLACEMENT_3D ( 'NONE', #143, #245, #113 ) ;
#94 = DIRECTION ( 'NONE',  ( -1.000000000000000000, 0.0000000000000000000, 0.0000000000000000000 ) ) ;
#95 = FACE_OUTER_BOUND ( 'NONE', #138, .T. ) ;
#96 = PRODUCT_DEFINITION ( 'UNKNOWN', '', #199, #325 ) ;
#97 = CARTESIAN_POINT ( 'NONE',  ( 0.0000000000000000000, 0.0000000000000000000, 0.06928860975630385388 ) ) ;
#98 = AXIS2_PLACEMENT_3D ( 'NONE', #222, #62, #276 ) ;
#99 = CARTESIAN_POINT ( 'NONE',  ( -0.1031099999999991745, 0.0000000000000000000, 2.952755999999999936 ) ) ;
#100 = CARTESIAN_POINT ( 'NONE',  ( 0.0000000000000000000, 0.0000000000000000000, 2.937755999999999368 ) ) ;
#101 = ORIENTED_EDGE ( 'NONE', *, *, #6, .F. ) ;
#102 = VERTEX_POINT ( 'NONE', #84 ) ;
#103 = CARTESIAN_POINT ( 'NONE',  ( 0.0000000000000000000, 0.0000000000000000000, 1.784218148936167481 ) ) ;
#104 = ADVANCED_FACE ( 'NONE', ( #192 ), #109, .T. ) ;
#105 = EDGE_LOOP ( 'NONE', ( #106, #40, #130, #179 ) ) ;
#106 = ORIENTED_EDGE ( 'NONE', *, *, #119, .F. ) ;
#107 = FACE_OUTER_BOUND ( 'NONE', #260, .T. ) ;
#108 = LENGTH_MEASURE_WITH_UNIT ( LENGTH_MEASURE( 0.02539999999999999897 ), #56 );
#109 = SPHERICAL_SURFACE ( 'NONE', #114, 0.03936999999999999528 ) ;
#110 = MECHANICAL_DESIGN_GEOMETRIC_PRESENTATION_REPRESENTATION (  '', ( #259 ), #15 ) ;
#111 = DIRECTION ( 'NONE',  ( 1.000000000000000000, 0.0000000000000000000, 0.0000000000000000000 ) ) ;
#112 = FACE_OUTER_BOUND ( 'NONE', #311, .T. ) ;
#113 = DIRECTION ( 'NONE',  ( 1.000000000000000000, 0.0000000000000000000, 0.0000000000000000000 ) ) ;
#114 = AXIS2_PLACEMENT_3D ( 'NONE', #216, #111, #90 ) ;
#115 = DIRECTION ( 'NONE',  ( -0.0000000000000000000, -0.0000000000000000000, -1.000000000000000000 ) ) ;
#116 = AXIS2_PLACEMENT_3D ( 'NONE', #297, #204, #273 ) ;
#117 = CARTESIAN_POINT ( 'NONE',  ( 0.0000000000000000000, 0.0000000000000000000, 1.784218148936167481 ) ) ;
#118 = EDGE_CURVE ( 'NONE', #313, #210, #88, .T. ) ;
#119 = EDGE_CURVE ( 'NONE', #155, #157, #212, .T. ) ;
#120 = CARTESIAN_POINT ( 'NONE',  ( 0.02559049999999995356, 3.133932391358028623E-18, 0.0000000000000000000 ) ) ;
#121 = DIRECTION ( 'NONE',  ( -0.09001749462147055902, 1.102396366554480072E-17, 0.9959401842791932857 ) ) ;
#122 = ORIENTED_EDGE ( 'NONE', *, *, #278, .T. ) ;
#123 = SURFACE_STYLE_USAGE ( .BOTH. , #154 ) ;
#124 = ORIENTED_EDGE ( 'NONE', *, *, #318, .T. ) ;
#125 = FACE_OUTER_BOUND ( 'NONE', #287, .T. ) ;
#126 = ORIENTED_EDGE ( 'NONE', *, *, #253, .T. ) ;
#127 = CARTESIAN_POINT ( 'NONE',  ( 0.0000000000000000000, 0.02559049999999999173, 0.06928860975630385388 ) ) ;
#128 = ORIENTED_EDGE ( 'NONE', *, *, #184, .F. ) ;
#129 = LENGTH_MEASURE_WITH_UNIT ( LENGTH_MEASURE( 0.02539999999999999897 ), #254 );
#130 = ORIENTED_EDGE ( 'NONE', *, *, #264, .T. ) ;
#131 = EDGE_CURVE ( 'NONE', #268, #102, #203, .T. ) ;
#132 = ORIENTED_EDGE ( 'NONE', *, *, #270, .T. ) ;
#133 = FACE_OUTER_BOUND ( 'NONE', #187, .T. ) ;
#134 = CIRCLE ( 'NONE', #323, 0.02559049999999998132 ) ;
#135 =( CONVERSION_BASED_UNIT ( 'INCH', #108 ) LENGTH_UNIT ( ) NAMED_UNIT ( #329 ) );
#136 = CARTESIAN_POINT ( 'NONE',  ( 0.1299209999999997867, 0.0000000000000000000, 1.784218148936167481 ) ) ;
#137 =( NAMED_UNIT ( * ) SI_UNIT ( $, .STERADIAN. ) SOLID_ANGLE_UNIT ( ) );
#138 = EDGE_LOOP ( 'NONE', ( #50, #45, #47, #234 ) ) ;
#139 = DIRECTION ( 'NONE',  ( 0.0000000000000000000, 1.000000000000000000, 0.0000000000000000000 ) ) ;
#140 = PRODUCT ( 'Micro_SBMM-020-416X', 'Micro_SBMM-020-416X', '', ( #1 ) ) ;
#141 = AXIS2_PLACEMENT_3D ( 'NONE', #26, #189, #290 ) ;
#142 = CARTESIAN_POINT ( 'NONE',  ( 3.133932391358032860E-18, -0.02559049999999999173, 0.06928860975630385388 ) ) ;
#143 = CARTESIAN_POINT ( 'NONE',  ( 0.0000000000000000000, 0.0000000000000000000, 1.653542999999999985 ) ) ;
#144 = EDGE_CURVE ( 'NONE', #155, #227, #272, .T. ) ;
#145 = LINE ( 'NONE', #246, #5 ) ;
#146 = ADVANCED_FACE ( 'NONE', ( #269 ), #225, .T. ) ;
#147 = CARTESIAN_POINT ( 'NONE',  ( 0.0000000000000000000, 0.0000000000000000000, 0.6299209999999999532 ) ) ;
#148 = CONICAL_SURFACE ( 'NONE', #66, 0.1299209999999997867, 0.09013951093658498226 ) ;
#149 = UNCERTAINTY_MEASURE_WITH_UNIT (LENGTH_MEASURE( 1.000000000000000082E-05 ), #135, 'distance_accuracy_value', 'NONE');
#150 = DIRECTION ( 'NONE',  ( 0.0000000000000000000, 0.0000000000000000000, 1.000000000000000000 ) ) ;
#151 = DIRECTION ( 'NONE',  ( 0.0000000000000000000, 0.0000000000000000000, -1.000000000000000000 ) ) ;
#152 = ORIENTED_EDGE ( 'NONE', *, *, #178, .T. ) ;
#153 = CIRCLE ( 'NONE', #232, 0.1181100000000000344 ) ;
#154 = SURFACE_SIDE_STYLE ('',( #256 ) ) ;
#155 = VERTEX_POINT ( 'NONE', #142 ) ;
#156 = CARTESIAN_POINT ( 'NONE',  ( -0.1181100000000000344, 0.0000000000000000000, 2.937755999999999368 ) ) ;
#157 = VERTEX_POINT ( 'NONE', #31 ) ;
#158 = LINE ( 'NONE', #284, #295 ) ;
#159 = SURFACE_SIDE_STYLE ('',( #344 ) ) ;
#160 = LINE ( 'NONE', #136, #275 ) ;
#161 = ORIENTED_EDGE ( 'NONE', *, *, #6, .T. ) ;
#162 = VECTOR ( 'NONE', #121, 39.37007874015748854 ) ;
#163 = PRESENTATION_STYLE_ASSIGNMENT (( #85 ) ) ;
#164 = ORIENTED_EDGE ( 'NONE', *, *, #299, .F. ) ;
#165 = DIRECTION ( 'NONE',  ( -0.0000000000000000000, -0.0000000000000000000, -1.000000000000000000 ) ) ;
#166 = ORIENTED_EDGE ( 'NONE', *, *, #118, .F. ) ;
#167 = CIRCLE ( 'NONE', #13, 0.03936999999999999528 ) ;
#168 = COLOUR_RGB ( '',0.7921568627450980005, 0.8196078431372548767, 0.9333333333333333481 ) ;
#169 = CARTESIAN_POINT ( 'NONE',  ( 0.02559049999999998132, 3.133932391358031704E-18, 0.06928860975630385388 ) ) ;
#170 = CARTESIAN_POINT ( 'NONE',  ( 0.0000000000000000000, 0.0000000000000000000, 2.952755999999999936 ) ) ;
#171 = ADVANCED_FACE ( 'NONE', ( #327 ), #193, .T. ) ;
#172 = DIRECTION ( 'NONE',  ( -0.0000000000000000000, -0.0000000000000000000, -1.000000000000000000 ) ) ;
#173 = LINE ( 'NONE', #120, #10 ) ;
#174 =( GEOMETRIC_REPRESENTATION_CONTEXT ( 3 ) GLOBAL_UNCERTAINTY_ASSIGNED_CONTEXT ( ( #63 ) ) GLOBAL_UNIT_ASSIGNED_CONTEXT ( ( #42, #330, #280 ) ) REPRESENTATION_CONTEXT ( 'NONE', 'WORKASPACE' ) );
#175 = DIRECTION ( 'NONE',  ( 1.000000000000000000, 0.0000000000000000000, 0.0000000000000000000 ) ) ;
#176 =( NAMED_UNIT ( * ) PLANE_ANGLE_UNIT ( ) SI_UNIT ( $, .RADIAN. ) );
#177 = ORIENTED_EDGE ( 'NONE', *, *, #270, .F. ) ;
#178 = EDGE_CURVE ( 'NONE', #210, #155, #134, .T. ) ;
#179 = ORIENTED_EDGE ( 'NONE', *, *, #68, .T. ) ;
#180 = DIMENSIONAL_EXPONENTS ( 1.000000000000000000, 0.0000000000000000000, 0.0000000000000000000, 0.0000000000000000000, 0.0000000000000000000, 0.0000000000000000000, 0.0000000000000000000 ) ;
#181 = VECTOR ( 'NONE', #294, 39.37007874015748854 ) ;
#182 = PRESENTATION_STYLE_ASSIGNMENT (( #123 ) ) ;
#183 = ORIENTED_EDGE ( 'NONE', *, *, #224, .F. ) ;
#184 = EDGE_CURVE ( 'NONE', #268, #210, #173, .T. ) ;
#185 = ORIENTED_EDGE ( 'NONE', *, *, #131, .F. ) ;
#186 = ADVANCED_FACE ( 'NONE', ( #112 ), #249, .T. ) ;
#187 = EDGE_LOOP ( 'NONE', ( #53, #124, #101, #27 ) ) ;
#188 = AXIS2_PLACEMENT_3D ( 'NONE', #319, #150, #91 ) ;
#189 = DIRECTION ( 'NONE',  ( 0.0000000000000000000, 0.0000000000000000000, -1.000000000000000000 ) ) ;
#190 = VERTEX_POINT ( 'NONE', #219 ) ;
#191 = CIRCLE ( 'NONE', #33, 0.1031099999999991745 ) ;
#192 = FACE_OUTER_BOUND ( 'NONE', #314, .T. ) ;
#193 = CONICAL_SURFACE ( 'NONE', #247, 0.1299209999999997867, 0.09013951093658498226 ) ;
#194 = DIRECTION ( 'NONE',  ( -1.000000000000000000, 0.0000000000000000000, 0.0000000000000000000 ) ) ;
#195 = EDGE_CURVE ( 'NONE', #338, #190, #223, .T. ) ;
#196 = EDGE_CURVE ( 'NONE', #309, #229, #243, .T. ) ;
#197 = CARTESIAN_POINT ( 'NONE',  ( 0.0000000000000000000, 0.0000000000000000000, 0.03937000000000000915 ) ) ;
#198 = DIRECTION ( 'NONE',  ( -1.000000000000000000, 0.0000000000000000000, 0.0000000000000000000 ) ) ;
#199 = PRODUCT_DEFINITION_FORMATION_WITH_SPECIFIED_SOURCE ( 'ANY', '', #140, .NOT_KNOWN. ) ;
#200 = CARTESIAN_POINT ( 'NONE',  ( 0.1031099999999991745, 1.354581824536882559E-17, 2.952755999999999936 ) ) ;
#201 = CARTESIAN_POINT ( 'NONE',  ( 0.0000000000000000000, 0.0000000000000000000, 0.06928860975630385388 ) ) ;
#202 = DIRECTION ( 'NONE',  ( -0.0000000000000000000, -0.0000000000000000000, -1.000000000000000000 ) ) ;
#203 = CIRCLE ( 'NONE', #89, 0.02559049999999992234 ) ;
#204 = DIRECTION ( 'NONE',  ( 0.0000000000000000000, 0.0000000000000000000, -1.000000000000000000 ) ) ;
#205 = LINE ( 'NONE', #334, #86 ) ;
#206 = ORIENTED_EDGE ( 'NONE', *, *, #195, .T. ) ;
#207 = DIRECTION ( 'NONE',  ( 0.0000000000000000000, 0.0000000000000000000, 1.000000000000000000 ) ) ;
#208 = ORIENTED_EDGE ( 'NONE', *, *, #339, .T. ) ;
#209 = EDGE_CURVE ( 'NONE', #309, #338, #321, .T. ) ;
#210 = VERTEX_POINT ( 'NONE', #169 ) ;
#211 = DIRECTION ( 'NONE',  ( 0.0000000000000000000, 0.0000000000000000000, 1.000000000000000000 ) ) ;
#212 = CIRCLE ( 'NONE', #72, 0.03936999999999999528 ) ;
#213 = CARTESIAN_POINT ( 'NONE',  ( 0.0000000000000000000, 0.0000000000000000000, 2.952755999999999936 ) ) ;
#214 = ORIENTED_EDGE ( 'NONE', *, *, #34, .T. ) ;
#215 = CARTESIAN_POINT ( 'NONE',  ( 0.0000000000000000000, 0.0000000000000000000, 0.0000000000000000000 ) ) ;
#216 = CARTESIAN_POINT ( 'NONE',  ( 0.0000000000000000000, 0.0000000000000000000, 0.03937000000000000915 ) ) ;
#217 = ADVANCED_FACE ( 'NONE', ( #95 ), #78, .T. ) ;
#218 = CARTESIAN_POINT ( 'NONE',  ( 0.0000000000000000000, 0.0000000000000000000, 2.952755999999999936 ) ) ;
#219 = CARTESIAN_POINT ( 'NONE',  ( -0.1181100000000000344, 0.0000000000000000000, 1.653542999999999985 ) ) ;
#220 = CARTESIAN_POINT ( 'NONE',  ( -0.1181100000000000344, 0.0000000000000000000, 2.952755999999999936 ) ) ;
#221 = AXIS2_PLACEMENT_3D ( 'NONE', #170, #274, #32 ) ;
#222 = CARTESIAN_POINT ( 'NONE',  ( 0.0000000000000000000, 0.0000000000000000000, 0.06928860975630385388 ) ) ;
#223 = LINE ( 'NONE', #220, #49 ) ;
#224 = EDGE_CURVE ( 'NONE', #190, #282, #25, .T. ) ;
#225 = CYLINDRICAL_SURFACE ( 'NONE', #335, 0.02559049999999995356 ) ;
#226 = AXIS2_PLACEMENT_3D ( 'NONE', #302, #332, #175 ) ;
#227 = VERTEX_POINT ( 'NONE', #92 ) ;
#228 = LINE ( 'NONE', #310, #162 ) ;
#229 = VERTEX_POINT ( 'NONE', #200 ) ;
#230 = CARTESIAN_POINT ( 'NONE',  ( 0.1181100000000000344, 1.446430334472939084E-17, 1.653542999999999985 ) ) ;
#231 = ORIENTED_EDGE ( 'NONE', *, *, #131, .T. ) ;
#232 = AXIS2_PLACEMENT_3D ( 'NONE', #100, #151, #44 ) ;
#233 = ADVANCED_FACE ( 'NONE', ( #296 ), #61, .T. ) ;
#234 = ORIENTED_EDGE ( 'NONE', *, *, #331, .F. ) ;
#235 = FILL_AREA_STYLE_COLOUR ( '', #168 ) ;
#236 = CARTESIAN_POINT ( 'NONE',  ( 0.0000000000000000000, 0.0000000000000000000, 0.6299209999999999532 ) ) ;
#237 = SHAPE_DEFINITION_REPRESENTATION ( #82, #266 ) ;
#238 = ORIENTED_EDGE ( 'NONE', *, *, #299, .T. ) ;
#239 = MECHANICAL_DESIGN_GEOMETRIC_PRESENTATION_REPRESENTATION (  '', ( #251 ), #174 ) ;
#240 = DIRECTION ( 'NONE',  ( 0.0000000000000000000, 0.0000000000000000000, 1.000000000000000000 ) ) ;
#241 = CARTESIAN_POINT ( 'NONE',  ( 0.0000000000000000000, 0.0000000000000000000, 0.0000000000000000000 ) ) ;
#242 = CYLINDRICAL_SURFACE ( 'NONE', #312, 0.02559049999999995356 ) ;
#243 = CIRCLE ( 'NONE', #188, 0.1031099999999991745 ) ;
#244 = DIRECTION ( 'NONE',  ( 1.000000000000000000, 0.0000000000000000000, 0.0000000000000000000 ) ) ;
#245 = DIRECTION ( 'NONE',  ( 0.0000000000000000000, 0.0000000000000000000, 1.000000000000000000 ) ) ;
#246 = CARTESIAN_POINT ( 'NONE',  ( -0.02559049999999995356, 0.0000000000000000000, 0.0000000000000000000 ) ) ;
#247 = AXIS2_PLACEMENT_3D ( 'NONE', #117, #326, #244 ) ;
#248 = DIRECTION ( 'NONE',  ( -0.0000000000000000000, -0.0000000000000000000, -1.000000000000000000 ) ) ;
#249 = CYLINDRICAL_SURFACE ( 'NONE', #263, 0.1181100000000000344 ) ;
#250 = ADVANCED_FACE ( 'NONE', ( #324 ), #9, .T. ) ;
#251 = STYLED_ITEM ( 'NONE', ( #182 ), #283 ) ;
#252 = ORIENTED_EDGE ( 'NONE', *, *, #68, .F. ) ;
#253 = EDGE_CURVE ( 'NONE', #102, #227, #145, .T. ) ;
#254 =( LENGTH_UNIT ( ) NAMED_UNIT ( * ) SI_UNIT ( $, .METRE. ) );
#255 = ORIENTED_EDGE ( 'NONE', *, *, #34, .F. ) ;
#256 = SURFACE_STYLE_FILL_AREA ( #19 ) ;
#257 = FILL_AREA_STYLE_COLOUR ( '', #271 ) ;
#258 = EDGE_LOOP ( 'NONE', ( #177, #122, #164, #255 ) ) ;
#259 = STYLED_ITEM ( 'NONE', ( #163 ), #266 ) ;
#260 = EDGE_LOOP ( 'NONE', ( #128, #231, #126, #57, #281 ) ) ;
#261 = DIRECTION ( 'NONE',  ( 0.0000000000000000000, 0.0000000000000000000, 1.000000000000000000 ) ) ;
#262 = ORIENTED_EDGE ( 'NONE', *, *, #278, .F. ) ;
#263 = AXIS2_PLACEMENT_3D ( 'NONE', #279, #301, #11 ) ;
#264 = EDGE_CURVE ( 'NONE', #227, #313, #306, .T. ) ;
#265 = CARTESIAN_POINT ( 'NONE',  ( 0.1181100000000000344, 1.446430334472939084E-17, 2.937755999999999368 ) ) ;
#266 = ADVANCED_BREP_SHAPE_REPRESENTATION ( 'Micro_SBMM-020-416X', ( #283, #60 ), #317 ) ;
#267 = APPLICATION_PROTOCOL_DEFINITION ( 'draft international standard', 'automotive_design', 1998, #322 ) ;
#268 = VERTEX_POINT ( 'NONE', #36 ) ;
#269 = FACE_OUTER_BOUND ( 'NONE', #22, .T. ) ;
#270 = EDGE_CURVE ( 'NONE', #102, #268, #37, .T. ) ;
#271 = COLOUR_RGB ( '',0.7921568627450980005, 0.8196078431372548767, 0.9333333333333333481 ) ;
#272 = CIRCLE ( 'NONE', #73, 0.02559049999999998132 ) ;
#273 = DIRECTION ( 'NONE',  ( -1.000000000000000000, 0.0000000000000000000, 0.0000000000000000000 ) ) ;
#274 = DIRECTION ( 'NONE',  ( 0.0000000000000000000, 0.0000000000000000000, 1.000000000000000000 ) ) ;
#275 = VECTOR ( 'NONE', #87, 39.37007874015748854 ) ;
#276 = DIRECTION ( 'NONE',  ( -1.000000000000000000, 0.0000000000000000000, 0.0000000000000000000 ) ) ;
#277 = UNCERTAINTY_MEASURE_WITH_UNIT (LENGTH_MEASURE( 1.000000000000000082E-05 ), #20, 'distance_accuracy_value', 'NONE');
#278 = EDGE_CURVE ( 'NONE', #102, #190, #228, .T. ) ;
#279 = CARTESIAN_POINT ( 'NONE',  ( 0.0000000000000000000, 0.0000000000000000000, 2.952755999999999936 ) ) ;
#280 =( NAMED_UNIT ( * ) SI_UNIT ( $, .STERADIAN. ) SOLID_ANGLE_UNIT ( ) );
#281 = ORIENTED_EDGE ( 'NONE', *, *, #178, .F. ) ;
#282 = VERTEX_POINT ( 'NONE', #230 ) ;
#283 = MANIFOLD_SOLID_BREP ( 'Cut-Revolve3', #286 ) ;
#284 = CARTESIAN_POINT ( 'NONE',  ( 0.1031099999999991745, 1.262733314600825725E-17, 2.952755999999999936 ) ) ;
#285 = ORIENTED_EDGE ( 'NONE', *, *, #339, .F. ) ;
#286 = CLOSED_SHELL ( 'NONE', ( #146, #104, #171, #81, #250, #186, #233, #217, #298, #41, #39 ) ) ;
#287 = EDGE_LOOP ( 'NONE', ( #262, #185, #214, #183 ) ) ;
#288 = AXIS2_PLACEMENT_3D ( 'NONE', #147, #248, #74 ) ;
#289 = CARTESIAN_POINT ( 'NONE',  ( 0.0000000000000000000, 0.0000000000000000000, 0.03937000000000000915 ) ) ;
#290 = DIRECTION ( 'NONE',  ( 1.000000000000000000, 0.0000000000000000000, 0.0000000000000000000 ) ) ;
#291 = DIRECTION ( 'NONE',  ( 1.000000000000000000, 0.0000000000000000000, 0.0000000000000000000 ) ) ;
#292 = DIRECTION ( 'NONE',  ( -0.0000000000000000000, -0.0000000000000000000, -1.000000000000000000 ) ) ;
#293 = DIRECTION ( 'NONE',  ( 1.000000000000000000, 1.224646799147353207E-16, -0.0000000000000000000 ) ) ;
#294 = DIRECTION ( 'NONE',  ( -0.7071067811865486830, 0.0000000000000000000, -0.7071067811865462405 ) ) ;
#295 = VECTOR ( 'NONE', #69, 39.37007874015748854 ) ;
#296 = FACE_OUTER_BOUND ( 'NONE', #77, .T. ) ;
#297 = CARTESIAN_POINT ( 'NONE',  ( 0.0000000000000000000, 0.0000000000000000000, 2.952755999999999936 ) ) ;
#298 = ADVANCED_FACE ( 'NONE', ( #125 ), #148, .T. ) ;
#299 = EDGE_CURVE ( 'NONE', #282, #190, #79, .T. ) ;
#300 = CARTESIAN_POINT ( 'NONE',  ( 0.0000000000000000000, 0.0000000000000000000, 2.952755999999999936 ) ) ;
#301 = DIRECTION ( 'NONE',  ( -0.0000000000000000000, -0.0000000000000000000, -1.000000000000000000 ) ) ;
#302 = CARTESIAN_POINT ( 'NONE',  ( 0.0000000000000000000, 0.0000000000000000000, 1.653542999999999985 ) ) ;
#303 = ORIENTED_EDGE ( 'NONE', *, *, #264, .F. ) ;
#304 = ORIENTED_EDGE ( 'NONE', *, *, #253, .F. ) ;
#305 = DIRECTION ( 'NONE',  ( -0.0000000000000000000, -0.0000000000000000000, -1.000000000000000000 ) ) ;
#306 = CIRCLE ( 'NONE', #98, 0.02559049999999998132 ) ;
#307 = EDGE_LOOP ( 'NONE', ( #161, #208, #238, #333 ) ) ;
#308 =( LENGTH_UNIT ( ) NAMED_UNIT ( * ) SI_UNIT ( $, .METRE. ) );
#309 = VERTEX_POINT ( 'NONE', #99 ) ;
#310 = CARTESIAN_POINT ( 'NONE',  ( -0.1299209999999997867, 1.591073367920230343E-17, 1.784218148936167481 ) ) ;
#311 = EDGE_LOOP ( 'NONE', ( #285, #18, #206, #43 ) ) ;
#312 = AXIS2_PLACEMENT_3D ( 'NONE', #215, #292, #2 ) ;
#313 = VERTEX_POINT ( 'NONE', #127 ) ;
#314 = EDGE_LOOP ( 'NONE', ( #75, #152, #71, #252 ) ) ;
#315 = DIRECTION ( 'NONE',  ( -1.000000000000000000, 0.0000000000000000000, 0.0000000000000000000 ) ) ;
#316 = DIRECTION ( 'NONE',  ( -0.0000000000000000000, -0.0000000000000000000, -1.000000000000000000 ) ) ;
#317 =( GEOMETRIC_REPRESENTATION_CONTEXT ( 3 ) GLOBAL_UNCERTAINTY_ASSIGNED_CONTEXT ( ( #277 ) ) GLOBAL_UNIT_ASSIGNED_CONTEXT ( ( #20, #176, #14 ) ) REPRESENTATION_CONTEXT ( 'NONE', 'WORKASPACE' ) );
#318 = EDGE_CURVE ( 'NONE', #229, #83, #158, .T. ) ;
#319 = CARTESIAN_POINT ( 'NONE',  ( 0.0000000000000000000, 0.0000000000000000000, 2.952755999999999936 ) ) ;
#320 = CIRCLE ( 'NONE', #141, 0.1181100000000000344 ) ;
#321 = LINE ( 'NONE', #8, #181 ) ;
#322 = APPLICATION_CONTEXT ( 'automotive_design' ) ;
#323 = AXIS2_PLACEMENT_3D ( 'NONE', #97, #7, #198 ) ;
#324 = FACE_OUTER_BOUND ( 'NONE', #307, .T. ) ;
#325 = PRODUCT_DEFINITION_CONTEXT ( 'detailed design', #343, 'design' ) ;
#326 = DIRECTION ( 'NONE',  ( 0.0000000000000000000, 0.0000000000000000000, 1.000000000000000000 ) ) ;
#327 = FACE_OUTER_BOUND ( 'NONE', #258, .T. ) ;
#328 = AXIS2_PLACEMENT_3D ( 'NONE', #213, #52, #29 ) ;
#329 = DIMENSIONAL_EXPONENTS ( 1.000000000000000000, 0.0000000000000000000, 0.0000000000000000000, 0.0000000000000000000, 0.0000000000000000000, 0.0000000000000000000, 0.0000000000000000000 ) ;
#330 =( NAMED_UNIT ( * ) PLANE_ANGLE_UNIT ( ) SI_UNIT ( $, .RADIAN. ) );
#331 = EDGE_CURVE ( 'NONE', #83, #338, #153, .T. ) ;
#332 = DIRECTION ( 'NONE',  ( 0.0000000000000000000, 0.0000000000000000000, 1.000000000000000000 ) ) ;
#333 = ORIENTED_EDGE ( 'NONE', *, *, #195, .F. ) ;
#334 = CARTESIAN_POINT ( 'NONE',  ( 0.1181100000000000344, 1.446430334472939084E-17, 2.952755999999999936 ) ) ;
#335 = AXIS2_PLACEMENT_3D ( 'NONE', #38, #30, #64 ) ;
#336 = PRODUCT_RELATED_PRODUCT_CATEGORY ( 'part', '', ( #140 ) ) ;
#337 = DIRECTION ( 'NONE',  ( 1.000000000000000000, 0.0000000000000000000, 0.0000000000000000000 ) ) ;
#338 = VERTEX_POINT ( 'NONE', #156 ) ;
#339 = EDGE_CURVE ( 'NONE', #83, #282, #205, .T. ) ;
#340 = DIRECTION ( 'NONE',  ( -1.000000000000000000, 0.0000000000000000000, 0.0000000000000000000 ) ) ;
#341 = PRESENTATION_LAYER_ASSIGNMENT (  '', '', ( #259 ) ) ;
#342 = ORIENTED_EDGE ( 'NONE', *, *, #196, .T. ) ;
#343 = APPLICATION_CONTEXT ( 'automotive_design' ) ;
#344 = SURFACE_STYLE_FILL_AREA ( #23 ) ;
#345 = DIRECTION ( 'NONE',  ( 1.000000000000000000, 0.0000000000000000000, 0.0000000000000000000 ) ) ;
ENDSEC;
END-ISO-10303-21;
