ISO-10303-21;
HEADER;
FILE_DESCRIPTION (( 'STEP AP214' ),
    '1' );
FILE_NAME ('Micro_GEM-062-4.STEP',
    '2021-09-01T19:02:47',
    ( '' ),
    ( '' ),
    'SwSTEP 2.0',
    'SolidWorks 2020',
    '' );
FILE_SCHEMA (( 'AUTOMOTIVE_DESIGN' ));
ENDSEC;

DATA;
#1 = EDGE_CURVE ( 'NONE', #112, #23, #5, .T. ) ;
#2 = ORIENTED_EDGE ( 'NONE', *, *, #64, .F. ) ;
#3 = VERTEX_POINT ( 'NONE', #109 ) ;
#4 = CONICAL_SURFACE ( 'NONE', #172, 0.03121874999999999997, 0.1745329251994338915 ) ;
#5 = LINE ( 'NONE', #222, #209 ) ;
#6 = DIRECTION ( 'NONE',  ( -0.0000000000000000000, -0.0000000000000000000, -1.000000000000000000 ) ) ;
#7 = CARTESIAN_POINT ( 'NONE',  ( -0.04750000000000064587, 0.0000000000000000000, 1.500000000000000222 ) ) ;
#8 = STYLED_ITEM ( 'NONE', ( #211 ), #221 ) ;
#9 = EDGE_CURVE ( 'NONE', #226, #23, #49, .T. ) ;
#10 = DIRECTION ( 'NONE',  ( -1.224646799147353700E-16, -0.0000000000000000000, -1.000000000000000000 ) ) ;
#11 = CARTESIAN_POINT ( 'NONE',  ( -0.04750000000000064587, 0.0000000000000000000, 1.500000000000000222 ) ) ;
#12 = CARTESIAN_POINT ( 'NONE',  ( -0.06250000000000002776, 0.0000000000000000000, 1.485000000000000764 ) ) ;
#13 = DIRECTION ( 'NONE',  ( -1.000000000000000000, 0.0000000000000000000, 0.0000000000000000000 ) ) ;
#14 = SHAPE_DEFINITION_REPRESENTATION ( #54, #230 ) ;
#15 = CARTESIAN_POINT ( 'NONE',  ( 0.0000000000000000000, 0.0000000000000000000, 1.500000000000000222 ) ) ;
#16 = VERTEX_POINT ( 'NONE', #38 ) ;
#17 = ADVANCED_FACE ( 'NONE', ( #286 ), #173, .T. ) ;
#18 =( GEOMETRIC_REPRESENTATION_CONTEXT ( 3 ) GLOBAL_UNCERTAINTY_ASSIGNED_CONTEXT ( ( #76 ) ) GLOBAL_UNIT_ASSIGNED_CONTEXT ( ( #241, #111, #89 ) ) REPRESENTATION_CONTEXT ( 'NONE', 'WORKASPACE' ) );
#19 = PLANE ( 'NONE',  #50 ) ;
#20 = ORIENTED_EDGE ( 'NONE', *, *, #278, .T. ) ;
#21 = VERTEX_POINT ( 'NONE', #7 ) ;
#22 = VECTOR ( 'NONE', #104, 39.37007874015748854 ) ;
#23 = VERTEX_POINT ( 'NONE', #202 ) ;
#24 = UNCERTAINTY_MEASURE_WITH_UNIT (LENGTH_MEASURE( 1.000000000000000082E-05 ), #127, 'distance_accuracy_value', 'NONE');
#25 = EDGE_LOOP ( 'NONE', ( #185, #95, #163, #177 ) ) ;
#26 = SURFACE_SIDE_STYLE ('',( #193 ) ) ;
#27 = APPLICATION_CONTEXT ( 'automotive_design' ) ;
#28 = DIRECTION ( 'NONE',  ( -1.000000000000000000, 0.0000000000000000000, 1.224646799147353947E-16 ) ) ;
#29 = ORIENTED_EDGE ( 'NONE', *, *, #98, .F. ) ;
#30 = EDGE_CURVE ( 'NONE', #93, #165, #68, .T. ) ;
#31 =( LENGTH_UNIT ( ) NAMED_UNIT ( * ) SI_UNIT ( $, .METRE. ) );
#32 = CARTESIAN_POINT ( 'NONE',  ( 2.302335982397025094E-17, 0.0000000000000000000, 0.1880000000000000282 ) ) ;
#33 = AXIS2_PLACEMENT_3D ( 'NONE', #124, #10, #60 ) ;
#34 = LINE ( 'NONE', #285, #277 ) ;
#35 = DIRECTION ( 'NONE',  ( -1.224646799147353700E-16, -0.0000000000000000000, -1.000000000000000000 ) ) ;
#36 = DIRECTION ( 'NONE',  ( 0.0000000000000000000, 0.0000000000000000000, 1.000000000000000000 ) ) ;
#37 = DIRECTION ( 'NONE',  ( -1.000000000000000000, 0.0000000000000000000, 0.0000000000000000000 ) ) ;
#38 = CARTESIAN_POINT ( 'NONE',  ( 0.03121874999999999997, 3.823194226088143687E-18, 0.0000000000000000000 ) ) ;
#39 = PRESENTATION_STYLE_ASSIGNMENT (( #217 ) ) ;
#40 = ORIENTED_EDGE ( 'NONE', *, *, #9, .T. ) ;
#41 = CLOSED_SHELL ( 'NONE', ( #233, #44, #180, #251, #17, #297, #284, #183, #258, #205 ) ) ;
#42 = AXIS2_PLACEMENT_3D ( 'NONE', #132, #171, #92 ) ;
#43 = LENGTH_MEASURE_WITH_UNIT ( LENGTH_MEASURE( 0.02539999999999999897 ), #238 );
#44 = ADVANCED_FACE ( 'NONE', ( #159 ), #72, .T. ) ;
#45 = ORIENTED_EDGE ( 'NONE', *, *, #1, .F. ) ;
#46 = CONICAL_SURFACE ( 'NONE', #153, 0.04750000000000064587, 0.7853981633974466137 ) ;
#47 = ORIENTED_EDGE ( 'NONE', *, *, #70, .F. ) ;
#48 = EDGE_LOOP ( 'NONE', ( #71, #298 ) ) ;
#49 = CIRCLE ( 'NONE', #246, 0.06250000000000002776 ) ;
#50 = AXIS2_PLACEMENT_3D ( 'NONE', #269, #203, #179 ) ;
#51 = ORIENTED_EDGE ( 'NONE', *, *, #1, .T. ) ;
#52 = DIRECTION ( 'NONE',  ( 0.0000000000000000000, 0.0000000000000000000, -1.000000000000000000 ) ) ;
#53 = VECTOR ( 'NONE', #154, 39.37007874015748143 ) ;
#54 = PRODUCT_DEFINITION_SHAPE ( 'NONE', 'NONE',  #213 ) ;
#55 = DIRECTION ( 'NONE',  ( 1.224646799147353700E-16, 0.0000000000000000000, 1.000000000000000000 ) ) ;
#56 = DIRECTION ( 'NONE',  ( 1.000000000000000000, 0.0000000000000000000, 0.0000000000000000000 ) ) ;
#57 = DIMENSIONAL_EXPONENTS ( 1.000000000000000000, 0.0000000000000000000, 0.0000000000000000000, 0.0000000000000000000, 0.0000000000000000000, 0.0000000000000000000, 0.0000000000000000000 ) ;
#58 = FACE_OUTER_BOUND ( 'NONE', #25, .T. ) ;
#59 = CARTESIAN_POINT ( 'NONE',  ( 0.04750000000000064587, 6.735557395310483192E-18, 1.500000000000000222 ) ) ;
#60 = DIRECTION ( 'NONE',  ( -1.000000000000000000, 0.0000000000000000000, 1.224646799147353947E-16 ) ) ;
#61 = CARTESIAN_POINT ( 'NONE',  ( 4.474917996329785777E-17, 0.0000000000000000000, 0.3654047844199156403 ) ) ;
#62 =( GEOMETRIC_REPRESENTATION_CONTEXT ( 3 ) GLOBAL_UNCERTAINTY_ASSIGNED_CONTEXT ( ( #24 ) ) GLOBAL_UNIT_ASSIGNED_CONTEXT ( ( #127, #249, #110 ) ) REPRESENTATION_CONTEXT ( 'NONE', 'WORKASPACE' ) );
#63 = FILL_AREA_STYLE_COLOUR ( '', #86 ) ;
#64 = EDGE_CURVE ( 'NONE', #93, #188, #252, .T. ) ;
#65 = CARTESIAN_POINT ( 'NONE',  ( 0.06250000000000006939, 7.654042494670963708E-18, 0.3654047844199156403 ) ) ;
#66 = ORIENTED_EDGE ( 'NONE', *, *, #30, .F. ) ;
#67 = LENGTH_MEASURE_WITH_UNIT ( LENGTH_MEASURE( 0.02539999999999999897 ), #195 );
#68 = LINE ( 'NONE', #82, #115 ) ;
#69 = AXIS2_PLACEMENT_3D ( 'NONE', #292, #288, #175 ) ;
#70 = EDGE_CURVE ( 'NONE', #188, #93, #204, .T. ) ;
#71 = ORIENTED_EDGE ( 'NONE', *, *, #248, .T. ) ;
#72 = CONICAL_SURFACE ( 'NONE', #293, 0.03121874999999999997, 0.1745329251994338915 ) ;
#73 = AXIS2_PLACEMENT_3D ( 'NONE', #155, #152, #200 ) ;
#74 = ORIENTED_EDGE ( 'NONE', *, *, #248, .F. ) ;
#75 = ORIENTED_EDGE ( 'NONE', *, *, #278, .F. ) ;
#76 = UNCERTAINTY_MEASURE_WITH_UNIT (LENGTH_MEASURE( 1.000000000000000082E-05 ), #241, 'distance_accuracy_value', 'NONE');
#77 = EDGE_LOOP ( 'NONE', ( #207, #143, #75, #66 ) ) ;
#78 = CIRCLE ( 'NONE', #42, 0.04750000000000064587 ) ;
#79 = FACE_OUTER_BOUND ( 'NONE', #77, .T. ) ;
#80 = DIRECTION ( 'NONE',  ( -1.000000000000000000, 0.0000000000000000000, 0.0000000000000000000 ) ) ;
#81 = DIRECTION ( 'NONE',  ( -0.0000000000000000000, -0.0000000000000000000, -1.000000000000000000 ) ) ;
#82 = CARTESIAN_POINT ( 'NONE',  ( -0.03121874999999999997, 0.0000000000000000000, 3.823194226088145228E-18 ) ) ;
#83 = EDGE_CURVE ( 'NONE', #93, #3, #295, .T. ) ;
#84 = DIRECTION ( 'NONE',  ( 0.0000000000000000000, 0.0000000000000000000, 1.000000000000000000 ) ) ;
#85 = DIRECTION ( 'NONE',  ( 1.224646799147353700E-16, 0.0000000000000000000, 1.000000000000000000 ) ) ;
#86 = COLOUR_RGB ( '',0.7921568627450980005, 0.8196078431372548767, 0.9333333333333333481 ) ;
#87 = FACE_OUTER_BOUND ( 'NONE', #229, .T. ) ;
#88 = LINE ( 'NONE', #235, #270 ) ;
#89 =( NAMED_UNIT ( * ) SI_UNIT ( $, .STERADIAN. ) SOLID_ANGLE_UNIT ( ) );
#90 = CIRCLE ( 'NONE', #259, 0.03121874999999999997 ) ;
#91 = EDGE_CURVE ( 'NONE', #226, #3, #88, .T. ) ;
#92 = DIRECTION ( 'NONE',  ( 1.000000000000000000, 0.0000000000000000000, 0.0000000000000000000 ) ) ;
#93 = VERTEX_POINT ( 'NONE', #192 ) ;
#94 = ORIENTED_EDGE ( 'NONE', *, *, #9, .F. ) ;
#95 = ORIENTED_EDGE ( 'NONE', *, *, #70, .T. ) ;
#96 = CIRCLE ( 'NONE', #140, 0.06250000000000002776 ) ;
#97 = CARTESIAN_POINT ( 'NONE',  ( 0.0000000000000000000, 0.0000000000000000000, 1.500000000000000222 ) ) ;
#98 = EDGE_CURVE ( 'NONE', #206, #3, #125, .T. ) ;
#99 = ORIENTED_EDGE ( 'NONE', *, *, #224, .F. ) ;
#100 = CYLINDRICAL_SURFACE ( 'NONE', #33, 0.03121874999999999997 ) ;
#101 = DIRECTION ( 'NONE',  ( -0.0000000000000000000, -0.0000000000000000000, -1.000000000000000000 ) ) ;
#102 = VECTOR ( 'NONE', #139, 39.37007874015748143 ) ;
#103 = FILL_AREA_STYLE_COLOUR ( '', #113 ) ;
#104 = DIRECTION ( 'NONE',  ( -0.7071067811865462405, 0.0000000000000000000, -0.7071067811865486830 ) ) ;
#105 = FACE_OUTER_BOUND ( 'NONE', #48, .T. ) ;
#106 = CARTESIAN_POINT ( 'NONE',  ( 0.0000000000000000000, 0.0000000000000000000, 0.0000000000000000000 ) ) ;
#107 = LINE ( 'NONE', #272, #102 ) ;
#108 = CARTESIAN_POINT ( 'NONE',  ( 2.302335982397025094E-17, 0.0000000000000000000, 0.1880000000000000282 ) ) ;
#109 = CARTESIAN_POINT ( 'NONE',  ( -0.06249999999999997918, 0.0000000000000000000, 0.3654047844199156403 ) ) ;
#110 =( NAMED_UNIT ( * ) SI_UNIT ( $, .STERADIAN. ) SOLID_ANGLE_UNIT ( ) );
#111 =( NAMED_UNIT ( * ) PLANE_ANGLE_UNIT ( ) SI_UNIT ( $, .RADIAN. ) );
#112 = VERTEX_POINT ( 'NONE', #59 ) ;
#113 = COLOUR_RGB ( '',0.7921568627450980005, 0.8196078431372548767, 0.9333333333333333481 ) ;
#114 = ORIENTED_EDGE ( 'NONE', *, *, #137, .T. ) ;
#115 = VECTOR ( 'NONE', #264, 39.37007874015748143 ) ;
#116 = ORIENTED_EDGE ( 'NONE', *, *, #134, .F. ) ;
#117 = EDGE_CURVE ( 'NONE', #3, #206, #96, .T. ) ;
#118 = ORIENTED_EDGE ( 'NONE', *, *, #224, .T. ) ;
#119 = AXIS2_PLACEMENT_3D ( 'NONE', #243, #81, #80 ) ;
#120 = CIRCLE ( 'NONE', #257, 0.06250000000000002776 ) ;
#121 =( NAMED_UNIT ( * ) PLANE_ANGLE_UNIT ( ) SI_UNIT ( $, .RADIAN. ) );
#122 = FACE_OUTER_BOUND ( 'NONE', #181, .T. ) ;
#123 = ORIENTED_EDGE ( 'NONE', *, *, #198, .F. ) ;
#124 = CARTESIAN_POINT ( 'NONE',  ( 0.0000000000000000000, 0.0000000000000000000, 0.0000000000000000000 ) ) ;
#125 = CIRCLE ( 'NONE', #69, 0.06250000000000002776 ) ;
#126 = DIRECTION ( 'NONE',  ( -1.000000000000000000, 0.0000000000000000000, 0.0000000000000000000 ) ) ;
#127 =( CONVERSION_BASED_UNIT ( 'INCH', #67 ) LENGTH_UNIT ( ) NAMED_UNIT ( #57 ) );
#128 = DIRECTION ( 'NONE',  ( 0.0000000000000000000, 0.0000000000000000000, -1.000000000000000000 ) ) ;
#129 = CARTESIAN_POINT ( 'NONE',  ( 0.0000000000000000000, 0.0000000000000000000, 1.485000000000000764 ) ) ;
#130 = SURFACE_STYLE_USAGE ( .BOTH. , #26 ) ;
#131 = CARTESIAN_POINT ( 'NONE',  ( 2.302335982397025094E-17, 0.0000000000000000000, 0.1880000000000000282 ) ) ;
#132 = CARTESIAN_POINT ( 'NONE',  ( 0.0000000000000000000, 0.0000000000000000000, 1.500000000000000222 ) ) ;
#133 = CARTESIAN_POINT ( 'NONE',  ( 0.0000000000000000000, 0.0000000000000000000, 1.500000000000000222 ) ) ;
#134 = EDGE_CURVE ( 'NONE', #21, #226, #216, .T. ) ;
#135 = CIRCLE ( 'NONE', #168, 0.04750000000000064587 ) ;
#136 = DIRECTION ( 'NONE',  ( 1.000000000000000000, 0.0000000000000000000, 0.0000000000000000000 ) ) ;
#137 = EDGE_CURVE ( 'NONE', #23, #206, #194, .T. ) ;
#138 = ORIENTED_EDGE ( 'NONE', *, *, #83, .T. ) ;
#139 = DIRECTION ( 'NONE',  ( -1.224646799147353700E-16, -0.0000000000000000000, -1.000000000000000000 ) ) ;
#140 = AXIS2_PLACEMENT_3D ( 'NONE', #61, #265, #150 ) ;
#141 = EDGE_LOOP ( 'NONE', ( #260, #51, #94, #116 ) ) ;
#142 = AXIS2_PLACEMENT_3D ( 'NONE', #271, #6, #37 ) ;
#143 = ORIENTED_EDGE ( 'NONE', *, *, #170, .T. ) ;
#144 = EDGE_LOOP ( 'NONE', ( #45, #74, #281, #99 ) ) ;
#145 = VECTOR ( 'NONE', #197, 39.37007874015747433 ) ;
#146 = PLANE ( 'NONE',  #73 ) ;
#147 = PRODUCT ( 'Micro_GEM-062-4', 'Micro_GEM-062-4', '', ( #199 ) ) ;
#148 = CARTESIAN_POINT ( 'NONE',  ( 2.302335982397025094E-17, 0.0000000000000000000, 0.1880000000000000282 ) ) ;
#149 = CYLINDRICAL_SURFACE ( 'NONE', #231, 0.03121874999999999997 ) ;
#150 = DIRECTION ( 'NONE',  ( 1.000000000000000000, 0.0000000000000000000, 0.0000000000000000000 ) ) ;
#151 = SURFACE_STYLE_FILL_AREA ( #296 ) ;
#152 = DIRECTION ( 'NONE',  ( 0.0000000000000000000, 0.0000000000000000000, 1.000000000000000000 ) ) ;
#153 = AXIS2_PLACEMENT_3D ( 'NONE', #133, #161, #244 ) ;
#154 = DIRECTION ( 'NONE',  ( -0.0000000000000000000, -0.0000000000000000000, -1.000000000000000000 ) ) ;
#155 = CARTESIAN_POINT ( 'NONE',  ( 0.0000000000000000000, 0.0000000000000000000, 0.0000000000000000000 ) ) ;
#156 = DIRECTION ( 'NONE',  ( 1.000000000000000000, 0.0000000000000000000, 0.0000000000000000000 ) ) ;
#157 = SURFACE_SIDE_STYLE ('',( #151 ) ) ;
#158 = EDGE_CURVE ( 'NONE', #16, #165, #90, .T. ) ;
#159 = FACE_OUTER_BOUND ( 'NONE', #255, .T. ) ;
#160 = AXIS2_PLACEMENT_3D ( 'NONE', #148, #268, #13 ) ;
#161 = DIRECTION ( 'NONE',  ( 0.0000000000000000000, 0.0000000000000000000, -1.000000000000000000 ) ) ;
#162 = DIRECTION ( 'NONE',  ( -1.000000000000000000, 0.0000000000000000000, 1.224646799147353947E-16 ) ) ;
#163 = ORIENTED_EDGE ( 'NONE', *, *, #30, .T. ) ;
#164 = MECHANICAL_DESIGN_GEOMETRIC_PRESENTATION_REPRESENTATION (  '', ( #287 ), #18 ) ;
#165 = VERTEX_POINT ( 'NONE', #178 ) ;
#166 = PRODUCT_RELATED_PRODUCT_CATEGORY ( 'part', '', ( #147 ) ) ;
#167 = EDGE_LOOP ( 'NONE', ( #274, #47, #282, #186 ) ) ;
#168 = AXIS2_PLACEMENT_3D ( 'NONE', #15, #84, #242 ) ;
#169 = ORIENTED_EDGE ( 'NONE', *, *, #117, .T. ) ;
#170 = EDGE_CURVE ( 'NONE', #188, #16, #107, .T. ) ;
#171 = DIRECTION ( 'NONE',  ( 0.0000000000000000000, 0.0000000000000000000, 1.000000000000000000 ) ) ;
#172 = AXIS2_PLACEMENT_3D ( 'NONE', #108, #55, #261 ) ;
#173 = CYLINDRICAL_SURFACE ( 'NONE', #119, 0.06250000000000002776 ) ;
#174 = DIRECTION ( 'NONE',  ( 0.1736481776669313859, 0.0000000000000000000, 0.9848077530122077983 ) ) ;
#175 = DIRECTION ( 'NONE',  ( 1.000000000000000000, 0.0000000000000000000, 0.0000000000000000000 ) ) ;
#176 = LENGTH_MEASURE_WITH_UNIT ( LENGTH_MEASURE( 0.02539999999999999897 ), #31 );
#177 = ORIENTED_EDGE ( 'NONE', *, *, #158, .F. ) ;
#178 = CARTESIAN_POINT ( 'NONE',  ( -0.03121874999999999997, 0.0000000000000000000, 7.646388452176290456E-18 ) ) ;
#179 = DIRECTION ( 'NONE',  ( 1.000000000000000000, 0.0000000000000000000, -0.0000000000000000000 ) ) ;
#180 = ADVANCED_FACE ( 'NONE', ( #279 ), #280, .T. ) ;
#181 = EDGE_LOOP ( 'NONE', ( #40, #114, #254, #228 ) ) ;
#182 = AXIS2_PLACEMENT_3D ( 'NONE', #191, #250, #162 ) ;
#183 = ADVANCED_FACE ( 'NONE', ( #236 ), #4, .T. ) ;
#184 = PRODUCT_DEFINITION_FORMATION_WITH_SPECIFIED_SOURCE ( 'ANY', '', #147, .NOT_KNOWN. ) ;
#185 = ORIENTED_EDGE ( 'NONE', *, *, #170, .F. ) ;
#186 = ORIENTED_EDGE ( 'NONE', *, *, #98, .T. ) ;
#187 = UNCERTAINTY_MEASURE_WITH_UNIT (LENGTH_MEASURE( 1.000000000000000082E-05 ), #291, 'distance_accuracy_value', 'NONE');
#188 = VERTEX_POINT ( 'NONE', #189 ) ;
#189 = CARTESIAN_POINT ( 'NONE',  ( 0.03121875000000002426, 0.0000000000000000000, 0.1880000000000000282 ) ) ;
#190 = DIRECTION ( 'NONE',  ( 0.0000000000000000000, 0.0000000000000000000, -1.000000000000000000 ) ) ;
#191 = CARTESIAN_POINT ( 'NONE',  ( 4.682062571497491304E-34, 0.0000000000000000000, 3.823194226088145228E-18 ) ) ;
#192 = CARTESIAN_POINT ( 'NONE',  ( -0.03121874999999997916, 5.738618360379552157E-18, 0.1880000000000000282 ) ) ;
#193 = SURFACE_STYLE_FILL_AREA ( #232 ) ;
#194 = LINE ( 'NONE', #289, #53 ) ;
#195 =( LENGTH_UNIT ( ) NAMED_UNIT ( * ) SI_UNIT ( $, .METRE. ) );
#196 = FACE_OUTER_BOUND ( 'NONE', #144, .T. ) ;
#197 = DIRECTION ( 'NONE',  ( -0.1736481776669311916, 2.126576849575783316E-17, 0.9848077530122080203 ) ) ;
#198 = EDGE_CURVE ( 'NONE', #188, #206, #34, .T. ) ;
#199 = PRODUCT_CONTEXT ( 'NONE', #239, 'mechanical' ) ;
#200 = DIRECTION ( 'NONE',  ( 1.000000000000000000, 0.0000000000000000000, -0.0000000000000000000 ) ) ;
#201 = AXIS2_PLACEMENT_3D ( 'NONE', #131, #237, #126 ) ;
#202 = CARTESIAN_POINT ( 'NONE',  ( 0.06250000000000002776, 7.654042494670959086E-18, 1.485000000000000764 ) ) ;
#203 = DIRECTION ( 'NONE',  ( 0.0000000000000000000, 0.0000000000000000000, 1.000000000000000000 ) ) ;
#204 = CIRCLE ( 'NONE', #160, 0.03121874999999999997 ) ;
#205 = ADVANCED_FACE ( 'NONE', ( #87 ), #146, .F. ) ;
#206 = VERTEX_POINT ( 'NONE', #65 ) ;
#207 = ORIENTED_EDGE ( 'NONE', *, *, #64, .T. ) ;
#208 = ORIENTED_EDGE ( 'NONE', *, *, #158, .T. ) ;
#209 = VECTOR ( 'NONE', #215, 39.37007874015748854 ) ;
#210 = CIRCLE ( 'NONE', #182, 0.03121874999999999997 ) ;
#211 = PRESENTATION_STYLE_ASSIGNMENT (( #130 ) ) ;
#212 = ORIENTED_EDGE ( 'NONE', *, *, #91, .T. ) ;
#213 = PRODUCT_DEFINITION ( 'UNKNOWN', '', #184, #256 ) ;
#214 = CYLINDRICAL_SURFACE ( 'NONE', #142, 0.06250000000000002776 ) ;
#215 = DIRECTION ( 'NONE',  ( 0.7071067811865462405, 8.659560562354916834E-17, -0.7071067811865486830 ) ) ;
#216 = LINE ( 'NONE', #11, #22 ) ;
#217 = SURFACE_STYLE_USAGE ( .BOTH. , #157 ) ;
#218 = DIRECTION ( 'NONE',  ( 1.000000000000000000, 0.0000000000000000000, 0.0000000000000000000 ) ) ;
#219 = DIRECTION ( 'NONE',  ( -1.000000000000000000, 0.0000000000000000000, 1.224646799147353947E-16 ) ) ;
#220 = APPLICATION_PROTOCOL_DEFINITION ( 'draft international standard', 'automotive_design', 1998, #27 ) ;
#221 = MANIFOLD_SOLID_BREP ( 'Cut-Revolve1', #41 ) ;
#222 = CARTESIAN_POINT ( 'NONE',  ( 0.04750000000000064587, 5.817072295950006528E-18, 1.500000000000000222 ) ) ;
#223 = MECHANICAL_DESIGN_GEOMETRIC_PRESENTATION_REPRESENTATION (  '', ( #8 ), #299 ) ;
#224 = EDGE_CURVE ( 'NONE', #23, #226, #120, .T. ) ;
#225 = ORIENTED_EDGE ( 'NONE', *, *, #137, .F. ) ;
#226 = VERTEX_POINT ( 'NONE', #12 ) ;
#227 = AXIS2_PLACEMENT_3D ( 'NONE', #97, #52, #263 ) ;
#228 = ORIENTED_EDGE ( 'NONE', *, *, #91, .F. ) ;
#229 = EDGE_LOOP ( 'NONE', ( #20, #208 ) ) ;
#230 = ADVANCED_BREP_SHAPE_REPRESENTATION ( 'Micro_GEM-062-4', ( #221, #247 ), #62 ) ;
#231 = AXIS2_PLACEMENT_3D ( 'NONE', #106, #234, #28 ) ;
#232 = FILL_AREA_STYLE ('',( #103 ) ) ;
#233 = ADVANCED_FACE ( 'NONE', ( #79 ), #149, .T. ) ;
#234 = DIRECTION ( 'NONE',  ( -1.224646799147353700E-16, -0.0000000000000000000, -1.000000000000000000 ) ) ;
#235 = CARTESIAN_POINT ( 'NONE',  ( -0.06250000000000002776, 0.0000000000000000000, 1.500000000000000222 ) ) ;
#236 = FACE_OUTER_BOUND ( 'NONE', #167, .T. ) ;
#237 = DIRECTION ( 'NONE',  ( -1.224646799147353700E-16, -0.0000000000000000000, -1.000000000000000000 ) ) ;
#238 =( LENGTH_UNIT ( ) NAMED_UNIT ( * ) SI_UNIT ( $, .METRE. ) );
#239 = APPLICATION_CONTEXT ( 'automotive_design' ) ;
#240 = CARTESIAN_POINT ( 'NONE',  ( 4.682062571497491304E-34, 0.0000000000000000000, 3.823194226088145228E-18 ) ) ;
#241 =( CONVERSION_BASED_UNIT ( 'INCH', #43 ) LENGTH_UNIT ( ) NAMED_UNIT ( #276 ) );
#242 = DIRECTION ( 'NONE',  ( 1.000000000000000000, 0.0000000000000000000, 0.0000000000000000000 ) ) ;
#243 = CARTESIAN_POINT ( 'NONE',  ( 0.0000000000000000000, 0.0000000000000000000, 1.500000000000000222 ) ) ;
#244 = DIRECTION ( 'NONE',  ( -1.000000000000000000, 0.0000000000000000000, 0.0000000000000000000 ) ) ;
#245 = CARTESIAN_POINT ( 'NONE',  ( -0.03121874999999997916, 3.823194226088143687E-18, 0.1880000000000000282 ) ) ;
#246 = AXIS2_PLACEMENT_3D ( 'NONE', #129, #190, #156 ) ;
#247 = AXIS2_PLACEMENT_3D ( 'NONE', #290, #36, #136 ) ;
#248 = EDGE_CURVE ( 'NONE', #21, #112, #135, .T. ) ;
#249 =( NAMED_UNIT ( * ) PLANE_ANGLE_UNIT ( ) SI_UNIT ( $, .RADIAN. ) );
#250 = DIRECTION ( 'NONE',  ( -1.224646799147353700E-16, -0.0000000000000000000, -1.000000000000000000 ) ) ;
#251 = ADVANCED_FACE ( 'NONE', ( #122 ), #214, .T. ) ;
#252 = CIRCLE ( 'NONE', #201, 0.03121874999999999997 ) ;
#253 = PRESENTATION_LAYER_ASSIGNMENT (  '', '', ( #287 ) ) ;
#254 = ORIENTED_EDGE ( 'NONE', *, *, #117, .F. ) ;
#255 = EDGE_LOOP ( 'NONE', ( #2, #138, #169, #123 ) ) ;
#256 = PRODUCT_DEFINITION_CONTEXT ( 'detailed design', #27, 'design' ) ;
#257 = AXIS2_PLACEMENT_3D ( 'NONE', #294, #128, #218 ) ;
#258 = ADVANCED_FACE ( 'NONE', ( #58 ), #100, .T. ) ;
#259 = AXIS2_PLACEMENT_3D ( 'NONE', #240, #35, #219 ) ;
#260 = ORIENTED_EDGE ( 'NONE', *, *, #275, .F. ) ;
#261 = DIRECTION ( 'NONE',  ( 1.000000000000000000, 0.0000000000000000000, 0.0000000000000000000 ) ) ;
#262 = PRESENTATION_LAYER_ASSIGNMENT (  '', '', ( #8 ) ) ;
#263 = DIRECTION ( 'NONE',  ( -1.000000000000000000, 0.0000000000000000000, 0.0000000000000000000 ) ) ;
#264 = DIRECTION ( 'NONE',  ( -1.224646799147353700E-16, -0.0000000000000000000, -1.000000000000000000 ) ) ;
#265 = DIRECTION ( 'NONE',  ( -1.224646799147353700E-16, -0.0000000000000000000, -1.000000000000000000 ) ) ;
#266 = APPLICATION_PROTOCOL_DEFINITION ( 'draft international standard', 'automotive_design', 1998, #239 ) ;
#267 =( NAMED_UNIT ( * ) SI_UNIT ( $, .STERADIAN. ) SOLID_ANGLE_UNIT ( ) );
#268 = DIRECTION ( 'NONE',  ( -1.224646799147353700E-16, -0.0000000000000000000, -1.000000000000000000 ) ) ;
#269 = CARTESIAN_POINT ( 'NONE',  ( 0.0000000000000000000, 0.0000000000000000000, 1.500000000000000222 ) ) ;
#270 = VECTOR ( 'NONE', #101, 39.37007874015748143 ) ;
#271 = CARTESIAN_POINT ( 'NONE',  ( 0.0000000000000000000, 0.0000000000000000000, 1.500000000000000222 ) ) ;
#272 = CARTESIAN_POINT ( 'NONE',  ( 0.03121874999999999997, 3.823194226088143687E-18, -3.823194226088145228E-18 ) ) ;
#273 = DIMENSIONAL_EXPONENTS ( 1.000000000000000000, 0.0000000000000000000, 0.0000000000000000000, 0.0000000000000000000, 0.0000000000000000000, 0.0000000000000000000, 0.0000000000000000000 ) ;
#274 = ORIENTED_EDGE ( 'NONE', *, *, #83, .F. ) ;
#275 = EDGE_CURVE ( 'NONE', #112, #21, #78, .T. ) ;
#276 = DIMENSIONAL_EXPONENTS ( 1.000000000000000000, 0.0000000000000000000, 0.0000000000000000000, 0.0000000000000000000, 0.0000000000000000000, 0.0000000000000000000, 0.0000000000000000000 ) ;
#277 = VECTOR ( 'NONE', #174, 39.37007874015748143 ) ;
#278 = EDGE_CURVE ( 'NONE', #165, #16, #210, .T. ) ;
#279 = FACE_OUTER_BOUND ( 'NONE', #141, .T. ) ;
#280 = CONICAL_SURFACE ( 'NONE', #227, 0.04750000000000064587, 0.7853981633974466137 ) ;
#281 = ORIENTED_EDGE ( 'NONE', *, *, #134, .T. ) ;
#282 = ORIENTED_EDGE ( 'NONE', *, *, #198, .T. ) ;
#283 = EDGE_LOOP ( 'NONE', ( #225, #118, #212, #29 ) ) ;
#284 = ADVANCED_FACE ( 'NONE', ( #196 ), #46, .T. ) ;
#285 = CARTESIAN_POINT ( 'NONE',  ( 0.03121875000000002426, 0.0000000000000000000, 0.1880000000000000282 ) ) ;
#286 = FACE_OUTER_BOUND ( 'NONE', #283, .T. ) ;
#287 = STYLED_ITEM ( 'NONE', ( #39 ), #230 ) ;
#288 = DIRECTION ( 'NONE',  ( -1.224646799147353700E-16, -0.0000000000000000000, -1.000000000000000000 ) ) ;
#289 = CARTESIAN_POINT ( 'NONE',  ( 0.06250000000000002776, 7.654042494670959086E-18, 1.500000000000000222 ) ) ;
#290 = CARTESIAN_POINT ( 'NONE',  ( 0.0000000000000000000, 0.0000000000000000000, 0.0000000000000000000 ) ) ;
#291 =( CONVERSION_BASED_UNIT ( 'INCH', #176 ) LENGTH_UNIT ( ) NAMED_UNIT ( #273 ) );
#292 = CARTESIAN_POINT ( 'NONE',  ( 4.474917996329785777E-17, 0.0000000000000000000, 0.3654047844199156403 ) ) ;
#293 = AXIS2_PLACEMENT_3D ( 'NONE', #32, #85, #56 ) ;
#294 = CARTESIAN_POINT ( 'NONE',  ( 0.0000000000000000000, 0.0000000000000000000, 1.485000000000000764 ) ) ;
#295 = LINE ( 'NONE', #245, #145 ) ;
#296 = FILL_AREA_STYLE ('',( #63 ) ) ;
#297 = ADVANCED_FACE ( 'NONE', ( #105 ), #19, .T. ) ;
#298 = ORIENTED_EDGE ( 'NONE', *, *, #275, .T. ) ;
#299 =( GEOMETRIC_REPRESENTATION_CONTEXT ( 3 ) GLOBAL_UNCERTAINTY_ASSIGNED_CONTEXT ( ( #187 ) ) GLOBAL_UNIT_ASSIGNED_CONTEXT ( ( #291, #121, #267 ) ) REPRESENTATION_CONTEXT ( 'NONE', 'WORKASPACE' ) );
ENDSEC;
END-ISO-10303-21;
