ISO-10303-21;
HEADER;
FILE_DESCRIPTION (( 'STEP AP214' ),
    '1' );
FILE_NAME ('81408.STEP',
    '2023-06-23T01:19:54',
    ( '' ),
    ( '' ),
    'SwSTEP 2.0',
    'SolidWorks 2023',
    '' );
FILE_SCHEMA (( 'AUTOMOTIVE_DESIGN' ));
ENDSEC;

DATA;
#1 = DIRECTION ( 'NONE',  ( 0.000000000000000000, 0.000000000000000000, -1.000000000000000000 ) ) ;
#2 = EDGE_CURVE ( 'NONE', #189, #132, #240, .T. ) ;
#3 =( NAMED_UNIT ( * ) PLANE_ANGLE_UNIT ( ) SI_UNIT ( $, .RADIAN. ) );
#4 = ORIENTED_EDGE ( 'NONE', *, *, #249, .F. ) ;
#5 = AXIS2_PLACEMENT_3D ( 'NONE', #182, #83, #151 ) ;
#6 = PRESENTATION_LAYER_ASSIGNMENT (  '', '', ( #141 ) ) ;
#7 = SURFACE_STYLE_FILL_AREA ( #131 ) ;
#8 = CARTESIAN_POINT ( 'NONE',  ( 0.000000000000000000, 0.7500000000000001110, 0.000000000000000000 ) ) ;
#9 = AXIS2_PLACEMENT_3D ( 'NONE', #202, #133, #148 ) ;
#10 = ORIENTED_EDGE ( 'NONE', *, *, #171, .F. ) ;
#11 = ADVANCED_FACE ( 'NONE', ( #142 ), #94, .T. ) ;
#12 = LENGTH_MEASURE_WITH_UNIT ( LENGTH_MEASURE( 0.02539999999999999897 ), #157 );
#13 = COLOUR_RGB ( '',0.7921568627450980005, 0.8196078431372548767, 0.9333333333333333481 ) ;
#14 = LINE ( 'NONE', #303, #20 ) ;
#15 = SURFACE_STYLE_FILL_AREA ( #87 ) ;
#16 = DIMENSIONAL_EXPONENTS ( 1.000000000000000000, 0.000000000000000000, 0.000000000000000000, 0.000000000000000000, 0.000000000000000000, 0.000000000000000000, 0.000000000000000000 ) ;
#17 = DIRECTION ( 'NONE',  ( 0.000000000000000000, 0.000000000000000000, -1.000000000000000000 ) ) ;
#18 = SURFACE_SIDE_STYLE ('',( #15 ) ) ;
#19 = PRESENTATION_LAYER_ASSIGNMENT (  '', '', ( #55 ) ) ;
#20 = VECTOR ( 'NONE', #159, 39.37007874015748143 ) ;
#21 = ORIENTED_EDGE ( 'NONE', *, *, #27, .T. ) ;
#22 =( NAMED_UNIT ( * ) SI_UNIT ( $, .STERADIAN. ) SOLID_ANGLE_UNIT ( ) );
#23 =( LENGTH_UNIT ( ) NAMED_UNIT ( * ) SI_UNIT ( $, .METRE. ) );
#24 = LENGTH_MEASURE_WITH_UNIT ( LENGTH_MEASURE( 0.02539999999999999897 ), #43 );
#25 = MECHANICAL_DESIGN_GEOMETRIC_PRESENTATION_REPRESENTATION (  '', ( #191 ), #301 ) ;
#26 = DIRECTION ( 'NONE',  ( -3.498990854706722745E-17, 1.000000000000000000, -0.000000000000000000 ) ) ;
#27 = EDGE_CURVE ( 'NONE', #178, #189, #232, .T. ) ;
#28 = DIRECTION ( 'NONE',  ( 0.000000000000000000, 0.000000000000000000, -1.000000000000000000 ) ) ;
#29 = SURFACE_STYLE_FILL_AREA ( #67 ) ;
#30 = ORIENTED_EDGE ( 'NONE', *, *, #217, .F. ) ;
#31 = PRESENTATION_STYLE_ASSIGNMENT (( #58 ) ) ;
#32 = DIRECTION ( 'NONE',  ( -0.000000000000000000, -1.000000000000000000, -0.000000000000000000 ) ) ;
#33 = CLOSED_SHELL ( 'NONE', ( #231, #11, #134, #262 ) ) ;
#34 = EDGE_CURVE ( 'NONE', #78, #132, #97, .T. ) ;
#35 = CARTESIAN_POINT ( 'NONE',  ( -0.1562500000000000000, 0.7499999999999998890, 0.000000000000000000 ) ) ;
#36 = ORIENTED_EDGE ( 'NONE', *, *, #170, .T. ) ;
#37 = CIRCLE ( 'NONE', #267, 0.1562500000000000000 ) ;
#38 = CARTESIAN_POINT ( 'NONE',  ( 0.000000000000000000, 0.7500000000000001110, -0.1562500000000000000 ) ) ;
#39 = ADVANCED_BREP_SHAPE_REPRESENTATION ( '81408', ( #225, #125, #173 ), #93 ) ;
#40 = PRESENTATION_STYLE_ASSIGNMENT (( #115 ) ) ;
#41 = DIRECTION ( 'NONE',  ( -0.000000000000000000, -1.000000000000000000, -0.000000000000000000 ) ) ;
#42 =( LENGTH_UNIT ( ) NAMED_UNIT ( * ) SI_UNIT ( $, .METRE. ) );
#43 =( LENGTH_UNIT ( ) NAMED_UNIT ( * ) SI_UNIT ( $, .METRE. ) );
#44 = CLOSED_SHELL ( 'NONE', ( #276, #209, #45, #113 ) ) ;
#45 = ADVANCED_FACE ( 'NONE', ( #279 ), #198, .T. ) ;
#46 = ORIENTED_EDGE ( 'NONE', *, *, #138, .F. ) ;
#47 = APPLICATION_PROTOCOL_DEFINITION ( 'draft international standard', 'automotive_design', 1998, #297 ) ;
#48 = UNCERTAINTY_MEASURE_WITH_UNIT (LENGTH_MEASURE( 1.000000000000000082E-05 ), #233, 'distance_accuracy_value', 'NONE');
#49 = EDGE_CURVE ( 'NONE', #189, #178, #37, .T. ) ;
#50 = DIRECTION ( 'NONE',  ( 0.000000000000000000, 0.000000000000000000, 1.000000000000000000 ) ) ;
#51 = MECHANICAL_DESIGN_GEOMETRIC_PRESENTATION_REPRESENTATION (  '', ( #141 ), #211 ) ;
#52 = CARTESIAN_POINT ( 'NONE',  ( 0.000000000000000000, 0.7500000000000001110, 0.000000000000000000 ) ) ;
#53 = FILL_AREA_STYLE_COLOUR ( '', #13 ) ;
#54 = EDGE_CURVE ( 'NONE', #132, #78, #140, .T. ) ;
#55 = STYLED_ITEM ( 'NONE', ( #254 ), #11 ) ;
#56 = ORIENTED_EDGE ( 'NONE', *, *, #242, .T. ) ;
#57 = CARTESIAN_POINT ( 'NONE',  ( -7.582401355855259480E-33, 0.7499999999999998890, 0.000000000000000000 ) ) ;
#58 = SURFACE_STYLE_USAGE ( .BOTH. , #226 ) ;
#59 = DIRECTION ( 'NONE',  ( -1.000000000000000000, 0.000000000000000000, 0.000000000000000000 ) ) ;
#60 = FILL_AREA_STYLE ('',( #186 ) ) ;
#61 = PRODUCT_DEFINITION_FORMATION_WITH_SPECIFIED_SOURCE ( 'ANY', '', #308, .NOT_KNOWN. ) ;
#62 = DIRECTION ( 'NONE',  ( 0.000000000000000000, 0.000000000000000000, -1.000000000000000000 ) ) ;
#63 = CARTESIAN_POINT ( 'NONE',  ( -7.582401355855259480E-33, 0.7499999999999998890, 0.000000000000000000 ) ) ;
#64 = FILL_AREA_STYLE_COLOUR ( '', #154 ) ;
#65 = CARTESIAN_POINT ( 'NONE',  ( 0.000000000000000000, 0.000000000000000000, 0.000000000000000000 ) ) ;
#66 = AXIS2_PLACEMENT_3D ( 'NONE', #57, #246, #300 ) ;
#67 = FILL_AREA_STYLE ('',( #238 ) ) ;
#68 = UNCERTAINTY_MEASURE_WITH_UNIT (LENGTH_MEASURE( 1.000000000000000082E-05 ), #117, 'distance_accuracy_value', 'NONE');
#69 =( NAMED_UNIT ( * ) PLANE_ANGLE_UNIT ( ) SI_UNIT ( $, .RADIAN. ) );
#70 = DIRECTION ( 'NONE',  ( -0.000000000000000000, -1.000000000000000000, -0.000000000000000000 ) ) ;
#71 = DIRECTION ( 'NONE',  ( 0.000000000000000000, -1.000000000000000000, -0.000000000000000000 ) ) ;
#72 = CARTESIAN_POINT ( 'NONE',  ( 1.913510623667739463E-17, 0.000000000000000000, 0.1562500000000000000 ) ) ;
#73 = DIRECTION ( 'NONE',  ( -0.000000000000000000, -1.000000000000000000, -0.000000000000000000 ) ) ;
#74 = COLOUR_RGB ( '',1.000000000000000000, 0.000000000000000000, 0.000000000000000000 ) ;
#75 =( NAMED_UNIT ( * ) SI_UNIT ( $, .STERADIAN. ) SOLID_ANGLE_UNIT ( ) );
#76 = DIRECTION ( 'NONE',  ( -3.498990854706722745E-17, 1.000000000000000000, -0.000000000000000000 ) ) ;
#77 = ORIENTED_EDGE ( 'NONE', *, *, #242, .F. ) ;
#78 = VERTEX_POINT ( 'NONE', #207 ) ;
#79 = FACE_OUTER_BOUND ( 'NONE', #221, .T. ) ;
#80 = UNCERTAINTY_MEASURE_WITH_UNIT (LENGTH_MEASURE( 1.000000000000000082E-05 ), #102, 'distance_accuracy_value', 'NONE');
#81 = ORIENTED_EDGE ( 'NONE', *, *, #49, .F. ) ;
#82 = AXIS2_PLACEMENT_3D ( 'NONE', #193, #70, #28 ) ;
#83 = DIRECTION ( 'NONE',  ( 3.498990854706722745E-17, -1.000000000000000000, 0.000000000000000000 ) ) ;
#84 = EDGE_LOOP ( 'NONE', ( #56, #105, #30, #10 ) ) ;
#85 = CARTESIAN_POINT ( 'NONE',  ( -0.1562500000000001110, 2.500000000000000000, 0.000000000000000000 ) ) ;
#86 = APPLICATION_CONTEXT ( 'automotive_design' ) ;
#87 = FILL_AREA_STYLE ('',( #299 ) ) ;
#88 = FILL_AREA_STYLE_COLOUR ( '', #74 ) ;
#89 = MECHANICAL_DESIGN_GEOMETRIC_PRESENTATION_REPRESENTATION (  '', ( #112 ), #256 ) ;
#90 = DIRECTION ( 'NONE',  ( -3.498990854706722745E-17, 1.000000000000000000, -0.000000000000000000 ) ) ;
#91 = FACE_OUTER_BOUND ( 'NONE', #288, .T. ) ;
#92 = PRESENTATION_STYLE_ASSIGNMENT (( #255 ) ) ;
#93 =( GEOMETRIC_REPRESENTATION_CONTEXT ( 3 ) GLOBAL_UNCERTAINTY_ASSIGNED_CONTEXT ( ( #197 ) ) GLOBAL_UNIT_ASSIGNED_CONTEXT ( ( #124, #263, #259 ) ) REPRESENTATION_CONTEXT ( 'NONE', 'WORKASPACE' ) );
#94 = PLANE ( 'NONE',  #227 ) ;
#95 = SURFACE_STYLE_USAGE ( .BOTH. , #120 ) ;
#96 = PRESENTATION_STYLE_ASSIGNMENT (( #212 ) ) ;
#97 = CIRCLE ( 'NONE', #274, 0.1562500000000000000 ) ;
#98 = AXIS2_PLACEMENT_3D ( 'NONE', #260, #26, #286 ) ;
#99 = CYLINDRICAL_SURFACE ( 'NONE', #98, 0.1562500000000000278 ) ;
#100 = CARTESIAN_POINT ( 'NONE',  ( 0.000000000000000000, 0.7500000000000001110, 0.000000000000000000 ) ) ;
#101 = LENGTH_MEASURE_WITH_UNIT ( LENGTH_MEASURE( 0.02539999999999999897 ), #23 );
#102 =( CONVERSION_BASED_UNIT ( 'INCH', #268 ) LENGTH_UNIT ( ) NAMED_UNIT ( #229 ) );
#103 = CARTESIAN_POINT ( 'NONE',  ( 0.000000000000000000, 0.000000000000000000, 0.000000000000000000 ) ) ;
#104 = ORIENTED_EDGE ( 'NONE', *, *, #34, .T. ) ;
#105 = ORIENTED_EDGE ( 'NONE', *, *, #145, .T. ) ;
#106 = CARTESIAN_POINT ( 'NONE',  ( 1.913510623667739463E-17, 0.7500000000000001110, 0.1562500000000000000 ) ) ;
#107 = DIRECTION ( 'NONE',  ( -3.498990854706722745E-17, 1.000000000000000000, -0.000000000000000000 ) ) ;
#108 = EDGE_LOOP ( 'NONE', ( #77, #269 ) ) ;
#109 = CARTESIAN_POINT ( 'NONE',  ( 9.564794532282251356E-35, 0.7500000000000001110, 0.000000000000000000 ) ) ;
#110 = DIRECTION ( 'NONE',  ( 0.000000000000000000, 0.000000000000000000, -1.000000000000000000 ) ) ;
#111 = LENGTH_MEASURE_WITH_UNIT ( LENGTH_MEASURE( 0.02539999999999999897 ), #42 );
#112 = STYLED_ITEM ( 'NONE', ( #92 ), #125 ) ;
#113 = ADVANCED_FACE ( 'NONE', ( #248 ), #219, .F. ) ;
#114 = CARTESIAN_POINT ( 'NONE',  ( 0.000000000000000000, 0.000000000000000000, 0.000000000000000000 ) ) ;
#115 = SURFACE_STYLE_USAGE ( .BOTH. , #208 ) ;
#116 = PRODUCT_RELATED_PRODUCT_CATEGORY ( 'part', '', ( #308 ) ) ;
#117 =( CONVERSION_BASED_UNIT ( 'INCH', #111 ) LENGTH_UNIT ( ) NAMED_UNIT ( #163 ) );
#118 = DIRECTION ( 'NONE',  ( 0.000000000000000000, 0.000000000000000000, -1.000000000000000000 ) ) ;
#119 = PRESENTATION_LAYER_ASSIGNMENT (  '', '', ( #228 ) ) ;
#120 = SURFACE_SIDE_STYLE ('',( #165 ) ) ;
#121 = CARTESIAN_POINT ( 'NONE',  ( 0.000000000000000000, 0.000000000000000000, 0.000000000000000000 ) ) ;
#122 = COLOUR_RGB ( '',1.000000000000000000, 0.000000000000000000, 0.000000000000000000 ) ;
#123 =( CONVERSION_BASED_UNIT ( 'INCH', #24 ) LENGTH_UNIT ( ) NAMED_UNIT ( #179 ) );
#124 =( CONVERSION_BASED_UNIT ( 'INCH', #237 ) LENGTH_UNIT ( ) NAMED_UNIT ( #16 ) );
#125 = MANIFOLD_SOLID_BREP ( 'Revolve - Tool Body (Straight Shanked)', #44 ) ;
#126 = AXIS2_PLACEMENT_3D ( 'NONE', #177, #107, #220 ) ;
#127 = DIRECTION ( 'NONE',  ( 0.000000000000000000, 0.000000000000000000, -1.000000000000000000 ) ) ;
#128 =( GEOMETRIC_REPRESENTATION_CONTEXT ( 3 ) GLOBAL_UNCERTAINTY_ASSIGNED_CONTEXT ( ( #144 ) ) GLOBAL_UNIT_ASSIGNED_CONTEXT ( ( #205, #280, #247 ) ) REPRESENTATION_CONTEXT ( 'NONE', 'WORKASPACE' ) );
#129 = DIRECTION ( 'NONE',  ( -1.000000000000000000, -3.498990854706722745E-17, 0.000000000000000000 ) ) ;
#130 = PRODUCT_DEFINITION_CONTEXT ( 'detailed design', #86, 'design' ) ;
#131 = FILL_AREA_STYLE ('',( #53 ) ) ;
#132 = VERTEX_POINT ( 'NONE', #72 ) ;
#133 = DIRECTION ( 'NONE',  ( -3.498990854706722745E-17, 1.000000000000000000, -0.000000000000000000 ) ) ;
#134 = ADVANCED_FACE ( 'NONE', ( #172 ), #222, .T. ) ;
#135 = AXIS2_PLACEMENT_3D ( 'NONE', #290, #76, #266 ) ;
#136 = MECHANICAL_DESIGN_GEOMETRIC_PRESENTATION_REPRESENTATION (  '', ( #228 ), #306 ) ;
#137 = CARTESIAN_POINT ( 'NONE',  ( -0.1562500000000001388, 2.500000000000000000, 0.000000000000000000 ) ) ;
#138 = EDGE_CURVE ( 'NONE', #224, #245, #251, .T. ) ;
#139 = CARTESIAN_POINT ( 'NONE',  ( 1.913510623667739463E-17, 0.000000000000000000, 0.1562500000000000000 ) ) ;
#140 = CIRCLE ( 'NONE', #206, 0.1562500000000000000 ) ;
#141 = STYLED_ITEM ( 'NONE', ( #285 ), #134 ) ;
#142 = FACE_OUTER_BOUND ( 'NONE', #296, .T. ) ;
#143 =( CONVERSION_BASED_UNIT ( 'INCH', #236 ) LENGTH_UNIT ( ) NAMED_UNIT ( #302 ) );
#144 = UNCERTAINTY_MEASURE_WITH_UNIT (LENGTH_MEASURE( 1.000000000000000082E-05 ), #205, 'distance_accuracy_value', 'NONE');
#145 = EDGE_CURVE ( 'NONE', #216, #224, #273, .T. ) ;
#146 = CARTESIAN_POINT ( 'NONE',  ( 0.000000000000000000, 0.000000000000000000, 0.000000000000000000 ) ) ;
#147 = ORIENTED_EDGE ( 'NONE', *, *, #54, .T. ) ;
#148 = DIRECTION ( 'NONE',  ( -1.000000000000000000, 0.000000000000000000, 0.000000000000000000 ) ) ;
#149 = CIRCLE ( 'NONE', #9, 0.1562500000000000833 ) ;
#150 = CARTESIAN_POINT ( 'NONE',  ( 0.1562499999999999722, 2.500000000000000000, 1.913510623667739771E-17 ) ) ;
#151 = DIRECTION ( 'NONE',  ( 1.000000000000000000, 3.498990854706722745E-17, 0.000000000000000000 ) ) ;
#152 = FACE_OUTER_BOUND ( 'NONE', #108, .T. ) ;
#153 = EDGE_LOOP ( 'NONE', ( #271, #183 ) ) ;
#154 = COLOUR_RGB ( '',1.000000000000000000, 0.000000000000000000, 0.000000000000000000 ) ;
#155 = MECHANICAL_DESIGN_GEOMETRIC_PRESENTATION_REPRESENTATION (  '', ( #257 ), #128 ) ;
#156 = PRODUCT_DEFINITION ( 'UNKNOWN', '', #61, #130 ) ;
#157 =( LENGTH_UNIT ( ) NAMED_UNIT ( * ) SI_UNIT ( $, .METRE. ) );
#158 = DIMENSIONAL_EXPONENTS ( 1.000000000000000000, 0.000000000000000000, 0.000000000000000000, 0.000000000000000000, 0.000000000000000000, 0.000000000000000000, 0.000000000000000000 ) ;
#159 = DIRECTION ( 'NONE',  ( -0.000000000000000000, -1.000000000000000000, -0.000000000000000000 ) ) ;
#160 =( NAMED_UNIT ( * ) PLANE_ANGLE_UNIT ( ) SI_UNIT ( $, .RADIAN. ) );
#161 = DIMENSIONAL_EXPONENTS ( 1.000000000000000000, 0.000000000000000000, 0.000000000000000000, 0.000000000000000000, 0.000000000000000000, 0.000000000000000000, 0.000000000000000000 ) ;
#162 = PRESENTATION_LAYER_ASSIGNMENT (  '', '', ( #191 ) ) ;
#163 = DIMENSIONAL_EXPONENTS ( 1.000000000000000000, 0.000000000000000000, 0.000000000000000000, 0.000000000000000000, 0.000000000000000000, 0.000000000000000000, 0.000000000000000000 ) ;
#164 = DIRECTION ( 'NONE',  ( -0.000000000000000000, -1.000000000000000000, -0.000000000000000000 ) ) ;
#165 = SURFACE_STYLE_FILL_AREA ( #265 ) ;
#166 = APPLICATION_PROTOCOL_DEFINITION ( 'draft international standard', 'automotive_design', 1998, #86 ) ;
#167 = PRODUCT_DEFINITION_SHAPE ( 'NONE', 'NONE',  #156 ) ;
#168 = VECTOR ( 'NONE', #272, 39.37007874015748143 ) ;
#169 = AXIS2_PLACEMENT_3D ( 'NONE', #63, #90, #59 ) ;
#170 = EDGE_CURVE ( 'NONE', #216, #174, #203, .T. ) ;
#171 = EDGE_CURVE ( 'NONE', #174, #245, #201, .T. ) ;
#172 = FACE_OUTER_BOUND ( 'NONE', #176, .T. ) ;
#173 = AXIS2_PLACEMENT_3D ( 'NONE', #121, #50, #213 ) ;
#174 = VERTEX_POINT ( 'NONE', #35 ) ;
#175 =( NAMED_UNIT ( * ) SI_UNIT ( $, .STERADIAN. ) SOLID_ANGLE_UNIT ( ) );
#176 = EDGE_LOOP ( 'NONE', ( #253, #293, #289, #264 ) ) ;
#177 = CARTESIAN_POINT ( 'NONE',  ( -6.123233995736766036E-17, 2.500000000000000000, 0.000000000000000000 ) ) ;
#178 = VERTEX_POINT ( 'NONE', #38 ) ;
#179 = DIMENSIONAL_EXPONENTS ( 1.000000000000000000, 0.000000000000000000, 0.000000000000000000, 0.000000000000000000, 0.000000000000000000, 0.000000000000000000, 0.000000000000000000 ) ;
#180 = CYLINDRICAL_SURFACE ( 'NONE', #192, 0.1562500000000000000 ) ;
#181 = COLOUR_RGB ( '',0.7921568627450980005, 0.8196078431372548767, 0.9333333333333333481 ) ;
#182 = CARTESIAN_POINT ( 'NONE',  ( 0.1562500000000000000, 2.500000000000000000, 0.000000000000000000 ) ) ;
#183 = ORIENTED_EDGE ( 'NONE', *, *, #138, .T. ) ;
#184 = CARTESIAN_POINT ( 'NONE',  ( 0.1562500000000000000, 0.7499999999999998890, 1.913510623667739771E-17 ) ) ;
#185 = PRESENTATION_LAYER_ASSIGNMENT (  '', '', ( #257 ) ) ;
#186 = FILL_AREA_STYLE_COLOUR ( '', #275 ) ;
#187 = VECTOR ( 'NONE', #73, 39.37007874015748143 ) ;
#188 = DIRECTION ( 'NONE',  ( 0.000000000000000000, 1.000000000000000000, 0.000000000000000000 ) ) ;
#189 = VERTEX_POINT ( 'NONE', #106 ) ;
#190 = FACE_OUTER_BOUND ( 'NONE', #84, .T. ) ;
#191 = STYLED_ITEM ( 'NONE', ( #31 ), #225 ) ;
#192 = AXIS2_PLACEMENT_3D ( 'NONE', #114, #41, #110 ) ;
#193 = CARTESIAN_POINT ( 'NONE',  ( 0.000000000000000000, 0.000000000000000000, 0.000000000000000000 ) ) ;
#194 = SURFACE_SIDE_STYLE ('',( #250 ) ) ;
#195 = DIRECTION ( 'NONE',  ( -0.000000000000000000, -1.000000000000000000, -0.000000000000000000 ) ) ;
#196 = MECHANICAL_DESIGN_GEOMETRIC_PRESENTATION_REPRESENTATION (  '', ( #55 ), #304 ) ;
#197 = UNCERTAINTY_MEASURE_WITH_UNIT (LENGTH_MEASURE( 1.000000000000000082E-05 ), #124, 'distance_accuracy_value', 'NONE');
#198 = CYLINDRICAL_SURFACE ( 'NONE', #135, 0.1562500000000000278 ) ;
#199 = ORIENTED_EDGE ( 'NONE', *, *, #27, .F. ) ;
#200 =( NAMED_UNIT ( * ) PLANE_ANGLE_UNIT ( ) SI_UNIT ( $, .RADIAN. ) );
#201 = LINE ( 'NONE', #85, #294 ) ;
#202 = CARTESIAN_POINT ( 'NONE',  ( -6.123233995736766036E-17, 2.500000000000000000, 0.000000000000000000 ) ) ;
#203 = CIRCLE ( 'NONE', #66, 0.1562500000000000000 ) ;
#204 = SURFACE_STYLE_FILL_AREA ( #252 ) ;
#205 =( CONVERSION_BASED_UNIT ( 'INCH', #12 ) LENGTH_UNIT ( ) NAMED_UNIT ( #158 ) );
#206 = AXIS2_PLACEMENT_3D ( 'NONE', #103, #164, #118 ) ;
#207 = CARTESIAN_POINT ( 'NONE',  ( 0.000000000000000000, 0.000000000000000000, -0.1562500000000000000 ) ) ;
#208 = SURFACE_SIDE_STYLE ('',( #204 ) ) ;
#209 = ADVANCED_FACE ( 'NONE', ( #152 ), #298, .F. ) ;
#210 =( LENGTH_UNIT ( ) NAMED_UNIT ( * ) SI_UNIT ( $, .METRE. ) );
#211 =( GEOMETRIC_REPRESENTATION_CONTEXT ( 3 ) GLOBAL_UNCERTAINTY_ASSIGNED_CONTEXT ( ( #239 ) ) GLOBAL_UNIT_ASSIGNED_CONTEXT ( ( #143, #3, #235 ) ) REPRESENTATION_CONTEXT ( 'NONE', 'WORKASPACE' ) );
#212 = SURFACE_STYLE_USAGE ( .BOTH. , #194 ) ;
#213 = DIRECTION ( 'NONE',  ( 1.000000000000000000, 0.000000000000000000, 0.000000000000000000 ) ) ;
#214 = DIRECTION ( 'NONE',  ( -0.000000000000000000, -1.000000000000000000, -0.000000000000000000 ) ) ;
#215 = PRESENTATION_LAYER_ASSIGNMENT (  '', '', ( #112 ) ) ;
#216 = VERTEX_POINT ( 'NONE', #184 ) ;
#217 = EDGE_CURVE ( 'NONE', #245, #224, #149, .T. ) ;
#218 = CARTESIAN_POINT ( 'NONE',  ( 0.1562500000000000000, 2.500000000000000000, 1.913510623667739771E-17 ) ) ;
#219 = PLANE ( 'NONE',  #5 ) ;
#220 = DIRECTION ( 'NONE',  ( -1.000000000000000000, 0.000000000000000000, 0.000000000000000000 ) ) ;
#221 = EDGE_LOOP ( 'NONE', ( #21, #291, #307, #4 ) ) ;
#222 = CYLINDRICAL_SURFACE ( 'NONE', #82, 0.1562500000000000000 ) ;
#223 = CIRCLE ( 'NONE', #169, 0.1562500000000000000 ) ;
#224 = VERTEX_POINT ( 'NONE', #218 ) ;
#225 = MANIFOLD_SOLID_BREP ( 'Revolve - Cutting Edge', #33 ) ;
#226 = SURFACE_SIDE_STYLE ('',( #7 ) ) ;
#227 = AXIS2_PLACEMENT_3D ( 'NONE', #8, #188, #230 ) ;
#228 = STYLED_ITEM ( 'NONE', ( #96 ), #262 ) ;
#229 = DIMENSIONAL_EXPONENTS ( 1.000000000000000000, 0.000000000000000000, 0.000000000000000000, 0.000000000000000000, 0.000000000000000000, 0.000000000000000000, 0.000000000000000000 ) ;
#230 = DIRECTION ( 'NONE',  ( 0.000000000000000000, -0.000000000000000000, 1.000000000000000000 ) ) ;
#231 = ADVANCED_FACE ( 'NONE', ( #79 ), #180, .T. ) ;
#232 = CIRCLE ( 'NONE', #244, 0.1562500000000000000 ) ;
#233 =( CONVERSION_BASED_UNIT ( 'INCH', #101 ) LENGTH_UNIT ( ) NAMED_UNIT ( #161 ) );
#234 = SHAPE_DEFINITION_REPRESENTATION ( #167, #39 ) ;
#235 =( NAMED_UNIT ( * ) SI_UNIT ( $, .STERADIAN. ) SOLID_ANGLE_UNIT ( ) );
#236 = LENGTH_MEASURE_WITH_UNIT ( LENGTH_MEASURE( 0.02539999999999999897 ), #210 );
#237 = LENGTH_MEASURE_WITH_UNIT ( LENGTH_MEASURE( 0.02539999999999999897 ), #287 );
#238 = FILL_AREA_STYLE_COLOUR ( '', #122 ) ;
#239 = UNCERTAINTY_MEASURE_WITH_UNIT (LENGTH_MEASURE( 1.000000000000000082E-05 ), #143, 'distance_accuracy_value', 'NONE');
#240 = LINE ( 'NONE', #139, #187 ) ;
#241 = DIRECTION ( 'NONE',  ( -3.498990854706722745E-17, 1.000000000000000000, 0.000000000000000000 ) ) ;
#242 = EDGE_CURVE ( 'NONE', #174, #216, #223, .T. ) ;
#243 = EDGE_LOOP ( 'NONE', ( #258, #36, #281, #46 ) ) ;
#244 = AXIS2_PLACEMENT_3D ( 'NONE', #100, #195, #62 ) ;
#245 = VERTEX_POINT ( 'NONE', #137 ) ;
#246 = DIRECTION ( 'NONE',  ( -3.498990854706722745E-17, 1.000000000000000000, -0.000000000000000000 ) ) ;
#247 =( NAMED_UNIT ( * ) SI_UNIT ( $, .STERADIAN. ) SOLID_ANGLE_UNIT ( ) );
#248 = FACE_OUTER_BOUND ( 'NONE', #153, .T. ) ;
#249 = EDGE_CURVE ( 'NONE', #178, #78, #14, .T. ) ;
#250 = SURFACE_STYLE_FILL_AREA ( #60 ) ;
#251 = CIRCLE ( 'NONE', #126, 0.1562500000000000833 ) ;
#252 = FILL_AREA_STYLE ('',( #88 ) ) ;
#253 = ORIENTED_EDGE ( 'NONE', *, *, #2, .F. ) ;
#254 = PRESENTATION_STYLE_ASSIGNMENT (( #95 ) ) ;
#255 = SURFACE_STYLE_USAGE ( .BOTH. , #18 ) ;
#256 =( GEOMETRIC_REPRESENTATION_CONTEXT ( 3 ) GLOBAL_UNCERTAINTY_ASSIGNED_CONTEXT ( ( #68 ) ) GLOBAL_UNIT_ASSIGNED_CONTEXT ( ( #117, #160, #75 ) ) REPRESENTATION_CONTEXT ( 'NONE', 'WORKASPACE' ) );
#257 = STYLED_ITEM ( 'NONE', ( #40 ), #231 ) ;
#258 = ORIENTED_EDGE ( 'NONE', *, *, #145, .F. ) ;
#259 =( NAMED_UNIT ( * ) SI_UNIT ( $, .STERADIAN. ) SOLID_ANGLE_UNIT ( ) );
#260 = CARTESIAN_POINT ( 'NONE',  ( -6.123233995736766036E-17, 2.500000000000000000, 0.000000000000000000 ) ) ;
#261 = SURFACE_SIDE_STYLE ('',( #29 ) ) ;
#262 = ADVANCED_FACE ( 'NONE', ( #91 ), #277, .T. ) ;
#263 =( NAMED_UNIT ( * ) PLANE_ANGLE_UNIT ( ) SI_UNIT ( $, .RADIAN. ) );
#264 = ORIENTED_EDGE ( 'NONE', *, *, #54, .F. ) ;
#265 = FILL_AREA_STYLE ('',( #64 ) ) ;
#266 = DIRECTION ( 'NONE',  ( -1.000000000000000000, 0.000000000000000000, 0.000000000000000000 ) ) ;
#267 = AXIS2_PLACEMENT_3D ( 'NONE', #52, #32, #127 ) ;
#268 = LENGTH_MEASURE_WITH_UNIT ( LENGTH_MEASURE( 0.02539999999999999897 ), #295 );
#269 = ORIENTED_EDGE ( 'NONE', *, *, #170, .F. ) ;
#270 = DIRECTION ( 'NONE',  ( -3.498990854706722745E-17, 1.000000000000000000, -0.000000000000000000 ) ) ;
#271 = ORIENTED_EDGE ( 'NONE', *, *, #217, .T. ) ;
#272 = DIRECTION ( 'NONE',  ( -3.498990854706722745E-17, 1.000000000000000000, -0.000000000000000000 ) ) ;
#273 = LINE ( 'NONE', #150, #168 ) ;
#274 = AXIS2_PLACEMENT_3D ( 'NONE', #146, #214, #17 ) ;
#275 = COLOUR_RGB ( '',1.000000000000000000, 0.000000000000000000, 0.000000000000000000 ) ;
#276 = ADVANCED_FACE ( 'NONE', ( #190 ), #99, .T. ) ;
#277 = PLANE ( 'NONE',  #309 ) ;
#278 =( NAMED_UNIT ( * ) PLANE_ANGLE_UNIT ( ) SI_UNIT ( $, .RADIAN. ) );
#279 = FACE_OUTER_BOUND ( 'NONE', #243, .T. ) ;
#280 =( NAMED_UNIT ( * ) PLANE_ANGLE_UNIT ( ) SI_UNIT ( $, .RADIAN. ) );
#281 = ORIENTED_EDGE ( 'NONE', *, *, #171, .T. ) ;
#282 = SURFACE_STYLE_USAGE ( .BOTH. , #261 ) ;
#283 = AXIS2_PLACEMENT_3D ( 'NONE', #109, #241, #129 ) ;
#284 = PRODUCT_CONTEXT ( 'NONE', #297, 'mechanical' ) ;
#285 = PRESENTATION_STYLE_ASSIGNMENT (( #282 ) ) ;
#286 = DIRECTION ( 'NONE',  ( -1.000000000000000000, 0.000000000000000000, 0.000000000000000000 ) ) ;
#287 =( LENGTH_UNIT ( ) NAMED_UNIT ( * ) SI_UNIT ( $, .METRE. ) );
#288 = EDGE_LOOP ( 'NONE', ( #104, #147 ) ) ;
#289 = ORIENTED_EDGE ( 'NONE', *, *, #249, .T. ) ;
#290 = CARTESIAN_POINT ( 'NONE',  ( -6.123233995736766036E-17, 2.500000000000000000, 0.000000000000000000 ) ) ;
#291 = ORIENTED_EDGE ( 'NONE', *, *, #2, .T. ) ;
#292 =( NAMED_UNIT ( * ) SI_UNIT ( $, .STERADIAN. ) SOLID_ANGLE_UNIT ( ) );
#293 = ORIENTED_EDGE ( 'NONE', *, *, #49, .T. ) ;
#294 = VECTOR ( 'NONE', #270, 39.37007874015748143 ) ;
#295 =( LENGTH_UNIT ( ) NAMED_UNIT ( * ) SI_UNIT ( $, .METRE. ) );
#296 = EDGE_LOOP ( 'NONE', ( #199, #81 ) ) ;
#297 = APPLICATION_CONTEXT ( 'automotive_design' ) ;
#298 = PLANE ( 'NONE',  #283 ) ;
#299 = FILL_AREA_STYLE_COLOUR ( '', #181 ) ;
#300 = DIRECTION ( 'NONE',  ( -1.000000000000000000, 0.000000000000000000, 0.000000000000000000 ) ) ;
#301 =( GEOMETRIC_REPRESENTATION_CONTEXT ( 3 ) GLOBAL_UNCERTAINTY_ASSIGNED_CONTEXT ( ( #80 ) ) GLOBAL_UNIT_ASSIGNED_CONTEXT ( ( #102, #200, #292 ) ) REPRESENTATION_CONTEXT ( 'NONE', 'WORKASPACE' ) );
#302 = DIMENSIONAL_EXPONENTS ( 1.000000000000000000, 0.000000000000000000, 0.000000000000000000, 0.000000000000000000, 0.000000000000000000, 0.000000000000000000, 0.000000000000000000 ) ;
#303 = CARTESIAN_POINT ( 'NONE',  ( 0.000000000000000000, 0.000000000000000000, -0.1562500000000000000 ) ) ;
#304 =( GEOMETRIC_REPRESENTATION_CONTEXT ( 3 ) GLOBAL_UNCERTAINTY_ASSIGNED_CONTEXT ( ( #48 ) ) GLOBAL_UNIT_ASSIGNED_CONTEXT ( ( #233, #278, #175 ) ) REPRESENTATION_CONTEXT ( 'NONE', 'WORKASPACE' ) );
#305 = UNCERTAINTY_MEASURE_WITH_UNIT (LENGTH_MEASURE( 1.000000000000000082E-05 ), #123, 'distance_accuracy_value', 'NONE');
#306 =( GEOMETRIC_REPRESENTATION_CONTEXT ( 3 ) GLOBAL_UNCERTAINTY_ASSIGNED_CONTEXT ( ( #305 ) ) GLOBAL_UNIT_ASSIGNED_CONTEXT ( ( #123, #69, #22 ) ) REPRESENTATION_CONTEXT ( 'NONE', 'WORKASPACE' ) );
#307 = ORIENTED_EDGE ( 'NONE', *, *, #34, .F. ) ;
#308 = PRODUCT ( '81408', '81408', '', ( #284 ) ) ;
#309 = AXIS2_PLACEMENT_3D ( 'NONE', #65, #71, #1 ) ;
ENDSEC;
END-ISO-10303-21;
