ISO-10303-21;
HEADER;
FILE_DESCRIPTION (( 'STEP AP214' ),
    '1' );
FILE_NAME ('84313.STEP',
    '2023-06-23T12:30:33',
    ( '' ),
    ( '' ),
    'SwSTEP 2.0',
    'SolidWorks 2023',
    '' );
FILE_SCHEMA (( 'AUTOMOTIVE_DESIGN' ));
ENDSEC;

DATA;
#1 = STYLED_ITEM ( 'NONE', ( #283 ), #215 ) ;
#2 = SURFACE_SIDE_STYLE ('',( #205 ) ) ;
#3 = PRODUCT_DEFINITION ( 'UNKNOWN', '', #141, #119 ) ;
#4 = FILL_AREA_STYLE_COLOUR ( '', #213 ) ;
#5 = ORIENTED_EDGE ( 'NONE', *, *, #240, .F. ) ;
#6 =( NAMED_UNIT ( * ) PLANE_ANGLE_UNIT ( ) SI_UNIT ( $, .RADIAN. ) );
#7 = DIRECTION ( 'NONE',  ( 0.000000000000000000, 0.000000000000000000, -1.000000000000000000 ) ) ;
#8 = ORIENTED_EDGE ( 'NONE', *, *, #136, .T. ) ;
#9 = MECHANICAL_DESIGN_GEOMETRIC_PRESENTATION_REPRESENTATION (  '', ( #150 ), #169 ) ;
#10 = CIRCLE ( 'NONE', #200, 0.3750000000000001665 ) ;
#11 = SHAPE_DEFINITION_REPRESENTATION ( #131, #72 ) ;
#12 = SURFACE_SIDE_STYLE ('',( #132 ) ) ;
#13 = PRESENTATION_STYLE_ASSIGNMENT (( #222 ) ) ;
#14 = CARTESIAN_POINT ( 'NONE',  ( -0.3750000000000002776, 5.000000000000000000, 0.000000000000000000 ) ) ;
#15 = LENGTH_MEASURE_WITH_UNIT ( LENGTH_MEASURE( 0.02539999999999999897 ), #277 );
#16 = FACE_OUTER_BOUND ( 'NONE', #33, .T. ) ;
#17 = CIRCLE ( 'NONE', #298, 0.3750000000000000555 ) ;
#18 = ORIENTED_EDGE ( 'NONE', *, *, #251, .T. ) ;
#19 = DIMENSIONAL_EXPONENTS ( 1.000000000000000000, 0.000000000000000000, 0.000000000000000000, 0.000000000000000000, 0.000000000000000000, 0.000000000000000000, 0.000000000000000000 ) ;
#20 = DIRECTION ( 'NONE',  ( -1.000000000000000000, 0.000000000000000000, 0.000000000000000000 ) ) ;
#21 = STYLED_ITEM ( 'NONE', ( #151 ), #35 ) ;
#22 = AXIS2_PLACEMENT_3D ( 'NONE', #306, #280, #59 ) ;
#23 = CARTESIAN_POINT ( 'NONE',  ( -1.224646799147353207E-16, 5.000000000000000000, 0.000000000000000000 ) ) ;
#24 = CARTESIAN_POINT ( 'NONE',  ( 3.718412684285598933E-34, 2.250000000000000000, 0.000000000000000000 ) ) ;
#25 = CLOSED_SHELL ( 'NONE', ( #123, #51, #215, #45 ) ) ;
#26 = COLOUR_RGB ( '',1.000000000000000000, 0.000000000000000000, 0.000000000000000000 ) ;
#27 =( NAMED_UNIT ( * ) PLANE_ANGLE_UNIT ( ) SI_UNIT ( $, .RADIAN. ) );
#28 = DIRECTION ( 'NONE',  ( -1.000000000000000000, 0.000000000000000000, 0.000000000000000000 ) ) ;
#29 = DIRECTION ( 'NONE',  ( -4.453261087808557677E-17, 1.000000000000000000, -0.000000000000000000 ) ) ;
#30 = VERTEX_POINT ( 'NONE', #14 ) ;
#31 = PRESENTATION_LAYER_ASSIGNMENT (  '', '', ( #76 ) ) ;
#32 = AXIS2_PLACEMENT_3D ( 'NONE', #214, #97, #7 ) ;
#33 = EDGE_LOOP ( 'NONE', ( #190, #99, #276, #118 ) ) ;
#34 = FILL_AREA_STYLE ('',( #253 ) ) ;
#35 = MANIFOLD_SOLID_BREP ( 'Revolve - Cutting Edge', #25 ) ;
#36 =( NAMED_UNIT ( * ) PLANE_ANGLE_UNIT ( ) SI_UNIT ( $, .RADIAN. ) );
#37 = CIRCLE ( 'NONE', #257, 0.3750000000000000555 ) ;
#38 = CARTESIAN_POINT ( 'NONE',  ( 0.000000000000000000, 0.000000000000000000, 0.000000000000000000 ) ) ;
#39 = SURFACE_STYLE_USAGE ( .BOTH. , #89 ) ;
#40 = UNCERTAINTY_MEASURE_WITH_UNIT (LENGTH_MEASURE( 1.000000000000000082E-05 ), #121, 'distance_accuracy_value', 'NONE');
#41 = LENGTH_MEASURE_WITH_UNIT ( LENGTH_MEASURE( 0.02539999999999999897 ), #304 );
#42 = AXIS2_PLACEMENT_3D ( 'NONE', #204, #142, #305 ) ;
#43 =( CONVERSION_BASED_UNIT ( 'INCH', #265 ) LENGTH_UNIT ( ) NAMED_UNIT ( #303 ) );
#44 = DIRECTION ( 'NONE',  ( -1.000000000000000000, 0.000000000000000000, 0.000000000000000000 ) ) ;
#45 = ADVANCED_FACE ( 'NONE', ( #220 ), #58, .T. ) ;
#46 = VERTEX_POINT ( 'NONE', #63 ) ;
#47 = CARTESIAN_POINT ( 'NONE',  ( 4.592425496802575451E-17, 2.250000000000000000, 0.3750000000000000555 ) ) ;
#48 =( GEOMETRIC_REPRESENTATION_CONTEXT ( 3 ) GLOBAL_UNCERTAINTY_ASSIGNED_CONTEXT ( ( #267 ) ) GLOBAL_UNIT_ASSIGNED_CONTEXT ( ( #106, #191, #247 ) ) REPRESENTATION_CONTEXT ( 'NONE', 'WORKASPACE' ) );
#49 =( LENGTH_UNIT ( ) NAMED_UNIT ( * ) SI_UNIT ( $, .METRE. ) );
#50 = CARTESIAN_POINT ( 'NONE',  ( 0.3750000000000000555, 2.250000000000000444, 4.592425496802576684E-17 ) ) ;
#51 = ADVANCED_FACE ( 'NONE', ( #155 ), #286, .T. ) ;
#52 = DIRECTION ( 'NONE',  ( -4.453261087808557677E-17, 1.000000000000000000, -0.000000000000000000 ) ) ;
#53 = ORIENTED_EDGE ( 'NONE', *, *, #107, .F. ) ;
#54 = EDGE_CURVE ( 'NONE', #297, #46, #17, .T. ) ;
#55 = EDGE_LOOP ( 'NONE', ( #53, #124, #8, #57 ) ) ;
#56 = PRESENTATION_LAYER_ASSIGNMENT (  '', '', ( #116 ) ) ;
#57 = ORIENTED_EDGE ( 'NONE', *, *, #251, .F. ) ;
#58 = PLANE ( 'NONE',  #263 ) ;
#59 = DIRECTION ( 'NONE',  ( 1.000000000000000000, 4.453261087808557677E-17, 0.000000000000000000 ) ) ;
#60 = COLOUR_RGB ( '',0.7921568627450980005, 0.8196078431372548767, 0.9333333333333333481 ) ;
#61 = DIRECTION ( 'NONE',  ( -4.453261087808557677E-17, 1.000000000000000000, -0.000000000000000000 ) ) ;
#62 = AXIS2_PLACEMENT_3D ( 'NONE', #252, #201, #157 ) ;
#63 = CARTESIAN_POINT ( 'NONE',  ( 4.592425496802575451E-17, 0.000000000000000000, 0.3750000000000000555 ) ) ;
#64 = FILL_AREA_STYLE_COLOUR ( '', #26 ) ;
#65 = CARTESIAN_POINT ( 'NONE',  ( 0.000000000000000000, 0.000000000000000000, 0.000000000000000000 ) ) ;
#66 = CARTESIAN_POINT ( 'NONE',  ( 0.000000000000000000, 2.250000000000000000, 0.000000000000000000 ) ) ;
#67 = ADVANCED_FACE ( 'NONE', ( #232 ), #177, .F. ) ;
#68 =( NAMED_UNIT ( * ) SI_UNIT ( $, .STERADIAN. ) SOLID_ANGLE_UNIT ( ) );
#69 = LINE ( 'NONE', #242, #249 ) ;
#70 = APPLICATION_PROTOCOL_DEFINITION ( 'draft international standard', 'automotive_design', 1998, #294 ) ;
#71 = CARTESIAN_POINT ( 'NONE',  ( 0.000000000000000000, 0.000000000000000000, 0.000000000000000000 ) ) ;
#72 = ADVANCED_BREP_SHAPE_REPRESENTATION ( '84313', ( #35, #143, #275 ), #158 ) ;
#73 = DIRECTION ( 'NONE',  ( -0.000000000000000000, -1.000000000000000000, -0.000000000000000000 ) ) ;
#74 = CARTESIAN_POINT ( 'NONE',  ( -0.3750000000000002220, 5.000000000000000000, 0.000000000000000000 ) ) ;
#75 = ORIENTED_EDGE ( 'NONE', *, *, #109, .F. ) ;
#76 = STYLED_ITEM ( 'NONE', ( #77 ), #143 ) ;
#77 = PRESENTATION_STYLE_ASSIGNMENT (( #234 ) ) ;
#78 = VERTEX_POINT ( 'NONE', #287 ) ;
#79 = ORIENTED_EDGE ( 'NONE', *, *, #98, .F. ) ;
#80 = VECTOR ( 'NONE', #161, 39.37007874015748143 ) ;
#81 = EDGE_CURVE ( 'NONE', #295, #85, #37, .T. ) ;
#82 = EDGE_LOOP ( 'NONE', ( #292, #172, #171, #128 ) ) ;
#83 = SURFACE_STYLE_FILL_AREA ( #279 ) ;
#84 = DIMENSIONAL_EXPONENTS ( 1.000000000000000000, 0.000000000000000000, 0.000000000000000000, 0.000000000000000000, 0.000000000000000000, 0.000000000000000000, 0.000000000000000000 ) ;
#85 = VERTEX_POINT ( 'NONE', #50 ) ;
#86 = MECHANICAL_DESIGN_GEOMETRIC_PRESENTATION_REPRESENTATION (  '', ( #278 ), #163 ) ;
#87 = AXIS2_PLACEMENT_3D ( 'NONE', #38, #139, #179 ) ;
#88 = CYLINDRICAL_SURFACE ( 'NONE', #87, 0.3750000000000000555 ) ;
#89 = SURFACE_SIDE_STYLE ('',( #260 ) ) ;
#90 = DIRECTION ( 'NONE',  ( 0.000000000000000000, 0.000000000000000000, -1.000000000000000000 ) ) ;
#91 = UNCERTAINTY_MEASURE_WITH_UNIT (LENGTH_MEASURE( 1.000000000000000082E-05 ), #43, 'distance_accuracy_value', 'NONE');
#92 = SURFACE_STYLE_FILL_AREA ( #100 ) ;
#93 = DIRECTION ( 'NONE',  ( -4.453261087808557677E-17, 1.000000000000000000, -0.000000000000000000 ) ) ;
#94 = LINE ( 'NONE', #166, #80 ) ;
#95 = ORIENTED_EDGE ( 'NONE', *, *, #309, .T. ) ;
#96 = CARTESIAN_POINT ( 'NONE',  ( 0.000000000000000000, 0.000000000000000000, -0.3750000000000000555 ) ) ;
#97 = DIRECTION ( 'NONE',  ( -0.000000000000000000, -1.000000000000000000, -0.000000000000000000 ) ) ;
#98 = EDGE_CURVE ( 'NONE', #46, #297, #307, .T. ) ;
#99 = ORIENTED_EDGE ( 'NONE', *, *, #107, .T. ) ;
#100 = FILL_AREA_STYLE ('',( #189 ) ) ;
#101 = ORIENTED_EDGE ( 'NONE', *, *, #194, .F. ) ;
#102 = SURFACE_STYLE_USAGE ( .BOTH. , #168 ) ;
#103 = COLOUR_RGB ( '',1.000000000000000000, 0.000000000000000000, 0.000000000000000000 ) ;
#104 = PRESENTATION_LAYER_ASSIGNMENT (  '', '', ( #1 ) ) ;
#105 = VERTEX_POINT ( 'NONE', #291 ) ;
#106 =( CONVERSION_BASED_UNIT ( 'INCH', #15 ) LENGTH_UNIT ( ) NAMED_UNIT ( #176 ) );
#107 = EDGE_CURVE ( 'NONE', #85, #105, #69, .T. ) ;
#108 = COLOUR_RGB ( '',1.000000000000000000, 0.000000000000000000, 0.000000000000000000 ) ;
#109 = EDGE_CURVE ( 'NONE', #125, #46, #94, .T. ) ;
#110 = CARTESIAN_POINT ( 'NONE',  ( -1.224646799147353207E-16, 5.000000000000000000, 0.000000000000000000 ) ) ;
#111 = CARTESIAN_POINT ( 'NONE',  ( -1.224646799147353207E-16, 5.000000000000000000, 0.000000000000000000 ) ) ;
#112 = LENGTH_MEASURE_WITH_UNIT ( LENGTH_MEASURE( 0.02539999999999999897 ), #202 );
#113 = DIRECTION ( 'NONE',  ( -4.453261087808557677E-17, 1.000000000000000000, -0.000000000000000000 ) ) ;
#114 = PRODUCT_CONTEXT ( 'NONE', #294, 'mechanical' ) ;
#115 = SURFACE_STYLE_USAGE ( .BOTH. , #2 ) ;
#116 = STYLED_ITEM ( 'NONE', ( #135 ), #51 ) ;
#117 = LINE ( 'NONE', #74, #256 ) ;
#118 = ORIENTED_EDGE ( 'NONE', *, *, #136, .F. ) ;
#119 = PRODUCT_DEFINITION_CONTEXT ( 'detailed design', #273, 'design' ) ;
#120 = CARTESIAN_POINT ( 'NONE',  ( -0.3750000000000000555, 2.250000000000000444, 0.000000000000000000 ) ) ;
#121 =( CONVERSION_BASED_UNIT ( 'INCH', #186 ) LENGTH_UNIT ( ) NAMED_UNIT ( #217 ) );
#122 = ORIENTED_EDGE ( 'NONE', *, *, #233, .T. ) ;
#123 = ADVANCED_FACE ( 'NONE', ( #210 ), #268, .T. ) ;
#124 = ORIENTED_EDGE ( 'NONE', *, *, #194, .T. ) ;
#125 = VERTEX_POINT ( 'NONE', #47 ) ;
#126 = MECHANICAL_DESIGN_GEOMETRIC_PRESENTATION_REPRESENTATION (  '', ( #21 ), #48 ) ;
#127 = AXIS2_PLACEMENT_3D ( 'NONE', #110, #113, #20 ) ;
#128 = ORIENTED_EDGE ( 'NONE', *, *, #309, .F. ) ;
#129 = DIMENSIONAL_EXPONENTS ( 1.000000000000000000, 0.000000000000000000, 0.000000000000000000, 0.000000000000000000, 0.000000000000000000, 0.000000000000000000, 0.000000000000000000 ) ;
#130 = FACE_OUTER_BOUND ( 'NONE', #55, .T. ) ;
#131 = PRODUCT_DEFINITION_SHAPE ( 'NONE', 'NONE',  #3 ) ;
#132 = SURFACE_STYLE_FILL_AREA ( #34 ) ;
#133 = MECHANICAL_DESIGN_GEOMETRIC_PRESENTATION_REPRESENTATION (  '', ( #76 ), #146 ) ;
#134 = AXIS2_PLACEMENT_3D ( 'NONE', #225, #153, #195 ) ;
#135 = PRESENTATION_STYLE_ASSIGNMENT (( #39 ) ) ;
#136 = EDGE_CURVE ( 'NONE', #295, #30, #117, .T. ) ;
#137 = DIRECTION ( 'NONE',  ( -1.000000000000000000, 0.000000000000000000, 0.000000000000000000 ) ) ;
#138 = FILL_AREA_STYLE_COLOUR ( '', #103 ) ;
#139 = DIRECTION ( 'NONE',  ( -0.000000000000000000, -1.000000000000000000, -0.000000000000000000 ) ) ;
#140 = SURFACE_SIDE_STYLE ('',( #259 ) ) ;
#141 = PRODUCT_DEFINITION_FORMATION_WITH_SPECIFIED_SOURCE ( 'ANY', '', #248, .NOT_KNOWN. ) ;
#142 = DIRECTION ( 'NONE',  ( 0.000000000000000000, 1.000000000000000000, 0.000000000000000000 ) ) ;
#143 = MANIFOLD_SOLID_BREP ( 'Revolve - Tool Body (Straight Shanked)', #187 ) ;
#144 = UNCERTAINTY_MEASURE_WITH_UNIT (LENGTH_MEASURE( 1.000000000000000082E-05 ), #180, 'distance_accuracy_value', 'NONE');
#145 = LINE ( 'NONE', #188, #229 ) ;
#146 =( GEOMETRIC_REPRESENTATION_CONTEXT ( 3 ) GLOBAL_UNCERTAINTY_ASSIGNED_CONTEXT ( ( #239 ) ) GLOBAL_UNIT_ASSIGNED_CONTEXT ( ( #272, #184, #244 ) ) REPRESENTATION_CONTEXT ( 'NONE', 'WORKASPACE' ) );
#147 = SURFACE_SIDE_STYLE ('',( #92 ) ) ;
#148 = DIRECTION ( 'NONE',  ( -0.000000000000000000, -1.000000000000000000, -0.000000000000000000 ) ) ;
#149 = FILL_AREA_STYLE ('',( #4 ) ) ;
#150 = STYLED_ITEM ( 'NONE', ( #13 ), #45 ) ;
#151 = PRESENTATION_STYLE_ASSIGNMENT (( #102 ) ) ;
#152 = AXIS2_PLACEMENT_3D ( 'NONE', #24, #302, #255 ) ;
#153 = DIRECTION ( 'NONE',  ( -4.453261087808557677E-17, 1.000000000000000000, -0.000000000000000000 ) ) ;
#154 = DIRECTION ( 'NONE',  ( 0.000000000000000000, -1.000000000000000000, -0.000000000000000000 ) ) ;
#155 = FACE_OUTER_BOUND ( 'NONE', #185, .T. ) ;
#156 = UNCERTAINTY_MEASURE_WITH_UNIT (LENGTH_MEASURE( 1.000000000000000082E-05 ), #178, 'distance_accuracy_value', 'NONE');
#157 = DIRECTION ( 'NONE',  ( 0.000000000000000000, 0.000000000000000000, -1.000000000000000000 ) ) ;
#158 =( GEOMETRIC_REPRESENTATION_CONTEXT ( 3 ) GLOBAL_UNCERTAINTY_ASSIGNED_CONTEXT ( ( #228 ) ) GLOBAL_UNIT_ASSIGNED_CONTEXT ( ( #207, #6, #68 ) ) REPRESENTATION_CONTEXT ( 'NONE', 'WORKASPACE' ) );
#159 = DIRECTION ( 'NONE',  ( -0.000000000000000000, -1.000000000000000000, -0.000000000000000000 ) ) ;
#160 = ORIENTED_EDGE ( 'NONE', *, *, #240, .T. ) ;
#161 = DIRECTION ( 'NONE',  ( -0.000000000000000000, -1.000000000000000000, -0.000000000000000000 ) ) ;
#162 = ADVANCED_FACE ( 'NONE', ( #254 ), #266, .F. ) ;
#163 =( GEOMETRIC_REPRESENTATION_CONTEXT ( 3 ) GLOBAL_UNCERTAINTY_ASSIGNED_CONTEXT ( ( #40 ) ) GLOBAL_UNIT_ASSIGNED_CONTEXT ( ( #121, #27, #238 ) ) REPRESENTATION_CONTEXT ( 'NONE', 'WORKASPACE' ) );
#164 = MECHANICAL_DESIGN_GEOMETRIC_PRESENTATION_REPRESENTATION (  '', ( #1 ), #269 ) ;
#165 = DIRECTION ( 'NONE',  ( 0.000000000000000000, 0.000000000000000000, 1.000000000000000000 ) ) ;
#166 = CARTESIAN_POINT ( 'NONE',  ( 4.592425496802575451E-17, 0.000000000000000000, 0.3750000000000000555 ) ) ;
#167 = LENGTH_MEASURE_WITH_UNIT ( LENGTH_MEASURE( 0.02539999999999999897 ), #209 );
#168 = SURFACE_SIDE_STYLE ('',( #83 ) ) ;
#169 =( GEOMETRIC_REPRESENTATION_CONTEXT ( 3 ) GLOBAL_UNCERTAINTY_ASSIGNED_CONTEXT ( ( #91 ) ) GLOBAL_UNIT_ASSIGNED_CONTEXT ( ( #43, #284, #231 ) ) REPRESENTATION_CONTEXT ( 'NONE', 'WORKASPACE' ) );
#170 = CIRCLE ( 'NONE', #243, 0.3750000000000000555 ) ;
#171 = ORIENTED_EDGE ( 'NONE', *, *, #54, .F. ) ;
#172 = ORIENTED_EDGE ( 'NONE', *, *, #109, .T. ) ;
#173 = EDGE_LOOP ( 'NONE', ( #75, #160, #95, #79 ) ) ;
#174 = PRODUCT_RELATED_PRODUCT_CATEGORY ( 'part', '', ( #248 ) ) ;
#175 = AXIS2_PLACEMENT_3D ( 'NONE', #226, #61, #137 ) ;
#176 = DIMENSIONAL_EXPONENTS ( 1.000000000000000000, 0.000000000000000000, 0.000000000000000000, 0.000000000000000000, 0.000000000000000000, 0.000000000000000000, 0.000000000000000000 ) ;
#177 = PLANE ( 'NONE',  #152 ) ;
#178 =( CONVERSION_BASED_UNIT ( 'INCH', #112 ) LENGTH_UNIT ( ) NAMED_UNIT ( #84 ) );
#179 = DIRECTION ( 'NONE',  ( 0.000000000000000000, 0.000000000000000000, -1.000000000000000000 ) ) ;
#180 =( CONVERSION_BASED_UNIT ( 'INCH', #41 ) LENGTH_UNIT ( ) NAMED_UNIT ( #129 ) );
#181 = DIRECTION ( 'NONE',  ( 0.000000000000000000, 0.000000000000000000, -1.000000000000000000 ) ) ;
#182 = AXIS2_PLACEMENT_3D ( 'NONE', #71, #148, #270 ) ;
#183 = DIRECTION ( 'NONE',  ( -4.453261087808557677E-17, 1.000000000000000000, -0.000000000000000000 ) ) ;
#184 =( NAMED_UNIT ( * ) PLANE_ANGLE_UNIT ( ) SI_UNIT ( $, .RADIAN. ) );
#185 = EDGE_LOOP ( 'NONE', ( #235, #5 ) ) ;
#186 = LENGTH_MEASURE_WITH_UNIT ( LENGTH_MEASURE( 0.02539999999999999897 ), #290 );
#187 = CLOSED_SHELL ( 'NONE', ( #218, #67, #274, #162 ) ) ;
#188 = CARTESIAN_POINT ( 'NONE',  ( 0.000000000000000000, 0.000000000000000000, -0.3750000000000000555 ) ) ;
#189 = FILL_AREA_STYLE_COLOUR ( '', #199 ) ;
#190 = ORIENTED_EDGE ( 'NONE', *, *, #81, .T. ) ;
#191 =( NAMED_UNIT ( * ) PLANE_ANGLE_UNIT ( ) SI_UNIT ( $, .RADIAN. ) );
#192 = AXIS2_PLACEMENT_3D ( 'NONE', #23, #183, #28 ) ;
#193 = ORIENTED_EDGE ( 'NONE', *, *, #54, .T. ) ;
#194 = EDGE_CURVE ( 'NONE', #85, #295, #300, .T. ) ;
#195 = DIRECTION ( 'NONE',  ( -1.000000000000000000, 0.000000000000000000, 0.000000000000000000 ) ) ;
#196 =( NAMED_UNIT ( * ) SI_UNIT ( $, .STERADIAN. ) SOLID_ANGLE_UNIT ( ) );
#197 = DIRECTION ( 'NONE',  ( -0.000000000000000000, -1.000000000000000000, -0.000000000000000000 ) ) ;
#198 = FILL_AREA_STYLE ('',( #138 ) ) ;
#199 = COLOUR_RGB ( '',0.7921568627450980005, 0.8196078431372548767, 0.9333333333333333481 ) ;
#200 = AXIS2_PLACEMENT_3D ( 'NONE', #111, #301, #230 ) ;
#201 = DIRECTION ( 'NONE',  ( -0.000000000000000000, -1.000000000000000000, -0.000000000000000000 ) ) ;
#202 =( LENGTH_UNIT ( ) NAMED_UNIT ( * ) SI_UNIT ( $, .METRE. ) );
#203 = FILL_AREA_STYLE ('',( #64 ) ) ;
#204 = CARTESIAN_POINT ( 'NONE',  ( 0.000000000000000000, 2.250000000000000000, 0.000000000000000000 ) ) ;
#205 = SURFACE_STYLE_FILL_AREA ( #149 ) ;
#206 = PRESENTATION_LAYER_ASSIGNMENT (  '', '', ( #21 ) ) ;
#207 =( CONVERSION_BASED_UNIT ( 'INCH', #289 ) LENGTH_UNIT ( ) NAMED_UNIT ( #19 ) );
#208 = CIRCLE ( 'NONE', #62, 0.3750000000000000555 ) ;
#209 =( LENGTH_UNIT ( ) NAMED_UNIT ( * ) SI_UNIT ( $, .METRE. ) );
#210 = FACE_OUTER_BOUND ( 'NONE', #82, .T. ) ;
#211 = DIRECTION ( 'NONE',  ( 1.000000000000000000, 0.000000000000000000, 0.000000000000000000 ) ) ;
#212 = CARTESIAN_POINT ( 'NONE',  ( 0.000000000000000000, 0.000000000000000000, 0.000000000000000000 ) ) ;
#213 = COLOUR_RGB ( '',1.000000000000000000, 0.000000000000000000, 0.000000000000000000 ) ;
#214 = CARTESIAN_POINT ( 'NONE',  ( 0.000000000000000000, 0.000000000000000000, 0.000000000000000000 ) ) ;
#215 = ADVANCED_FACE ( 'NONE', ( #285 ), #88, .T. ) ;
#216 = FILL_AREA_STYLE_COLOUR ( '', #60 ) ;
#217 = DIMENSIONAL_EXPONENTS ( 1.000000000000000000, 0.000000000000000000, 0.000000000000000000, 0.000000000000000000, 0.000000000000000000, 0.000000000000000000, 0.000000000000000000 ) ;
#218 = ADVANCED_FACE ( 'NONE', ( #16 ), #281, .T. ) ;
#219 =( GEOMETRIC_REPRESENTATION_CONTEXT ( 3 ) GLOBAL_UNCERTAINTY_ASSIGNED_CONTEXT ( ( #156 ) ) GLOBAL_UNIT_ASSIGNED_CONTEXT ( ( #178, #224, #196 ) ) REPRESENTATION_CONTEXT ( 'NONE', 'WORKASPACE' ) );
#220 = FACE_OUTER_BOUND ( 'NONE', #296, .T. ) ;
#221 = ORIENTED_EDGE ( 'NONE', *, *, #81, .F. ) ;
#222 = SURFACE_STYLE_USAGE ( .BOTH. , #12 ) ;
#223 =( NAMED_UNIT ( * ) SI_UNIT ( $, .STERADIAN. ) SOLID_ANGLE_UNIT ( ) );
#224 =( NAMED_UNIT ( * ) PLANE_ANGLE_UNIT ( ) SI_UNIT ( $, .RADIAN. ) );
#225 = CARTESIAN_POINT ( 'NONE',  ( 1.516480271171051896E-32, 2.250000000000000444, 0.000000000000000000 ) ) ;
#226 = CARTESIAN_POINT ( 'NONE',  ( -1.224646799147353207E-16, 5.000000000000000000, 0.000000000000000000 ) ) ;
#227 = DIRECTION ( 'NONE',  ( 0.000000000000000000, 0.000000000000000000, -1.000000000000000000 ) ) ;
#228 = UNCERTAINTY_MEASURE_WITH_UNIT (LENGTH_MEASURE( 1.000000000000000082E-05 ), #207, 'distance_accuracy_value', 'NONE');
#229 = VECTOR ( 'NONE', #73, 39.37007874015748143 ) ;
#230 = DIRECTION ( 'NONE',  ( -1.000000000000000000, 0.000000000000000000, 0.000000000000000000 ) ) ;
#231 =( NAMED_UNIT ( * ) SI_UNIT ( $, .STERADIAN. ) SOLID_ANGLE_UNIT ( ) );
#232 = FACE_OUTER_BOUND ( 'NONE', #245, .T. ) ;
#233 = EDGE_CURVE ( 'NONE', #30, #105, #258, .T. ) ;
#234 = SURFACE_STYLE_USAGE ( .BOTH. , #147 ) ;
#235 = ORIENTED_EDGE ( 'NONE', *, *, #264, .F. ) ;
#236 = PRESENTATION_LAYER_ASSIGNMENT (  '', '', ( #150 ) ) ;
#237 = APPLICATION_PROTOCOL_DEFINITION ( 'draft international standard', 'automotive_design', 1998, #273 ) ;
#238 =( NAMED_UNIT ( * ) SI_UNIT ( $, .STERADIAN. ) SOLID_ANGLE_UNIT ( ) );
#239 = UNCERTAINTY_MEASURE_WITH_UNIT (LENGTH_MEASURE( 1.000000000000000082E-05 ), #272, 'distance_accuracy_value', 'NONE');
#240 = EDGE_CURVE ( 'NONE', #125, #78, #170, .T. ) ;
#241 = MECHANICAL_DESIGN_GEOMETRIC_PRESENTATION_REPRESENTATION (  '', ( #116 ), #219 ) ;
#242 = CARTESIAN_POINT ( 'NONE',  ( 0.3749999999999999445, 5.000000000000000000, 4.592425496802576068E-17 ) ) ;
#243 = AXIS2_PLACEMENT_3D ( 'NONE', #66, #197, #90 ) ;
#244 =( NAMED_UNIT ( * ) SI_UNIT ( $, .STERADIAN. ) SOLID_ANGLE_UNIT ( ) );
#245 = EDGE_LOOP ( 'NONE', ( #221, #101 ) ) ;
#246 = DIMENSIONAL_EXPONENTS ( 1.000000000000000000, 0.000000000000000000, 0.000000000000000000, 0.000000000000000000, 0.000000000000000000, 0.000000000000000000, 0.000000000000000000 ) ;
#247 =( NAMED_UNIT ( * ) SI_UNIT ( $, .STERADIAN. ) SOLID_ANGLE_UNIT ( ) );
#248 = PRODUCT ( '84313', '84313', '', ( #114 ) ) ;
#249 = VECTOR ( 'NONE', #29, 39.37007874015748143 ) ;
#250 = ORIENTED_EDGE ( 'NONE', *, *, #98, .T. ) ;
#251 = EDGE_CURVE ( 'NONE', #105, #30, #10, .T. ) ;
#252 = CARTESIAN_POINT ( 'NONE',  ( 0.000000000000000000, 2.250000000000000000, 0.000000000000000000 ) ) ;
#253 = FILL_AREA_STYLE_COLOUR ( '', #108 ) ;
#254 = FACE_OUTER_BOUND ( 'NONE', #299, .T. ) ;
#255 = DIRECTION ( 'NONE',  ( -1.000000000000000000, -4.453261087808557677E-17, 0.000000000000000000 ) ) ;
#256 = VECTOR ( 'NONE', #93, 39.37007874015748143 ) ;
#257 = AXIS2_PLACEMENT_3D ( 'NONE', #271, #52, #44 ) ;
#258 = CIRCLE ( 'NONE', #127, 0.3750000000000001665 ) ;
#259 = SURFACE_STYLE_FILL_AREA ( #203 ) ;
#260 = SURFACE_STYLE_FILL_AREA ( #198 ) ;
#261 = SURFACE_STYLE_USAGE ( .BOTH. , #140 ) ;
#262 = CYLINDRICAL_SURFACE ( 'NONE', #192, 0.3750000000000001110 ) ;
#263 = AXIS2_PLACEMENT_3D ( 'NONE', #65, #154, #181 ) ;
#264 = EDGE_CURVE ( 'NONE', #78, #125, #208, .T. ) ;
#265 = LENGTH_MEASURE_WITH_UNIT ( LENGTH_MEASURE( 0.02539999999999999897 ), #293 );
#266 = PLANE ( 'NONE',  #22 ) ;
#267 = UNCERTAINTY_MEASURE_WITH_UNIT (LENGTH_MEASURE( 1.000000000000000082E-05 ), #106, 'distance_accuracy_value', 'NONE');
#268 = CYLINDRICAL_SURFACE ( 'NONE', #32, 0.3750000000000000555 ) ;
#269 =( GEOMETRIC_REPRESENTATION_CONTEXT ( 3 ) GLOBAL_UNCERTAINTY_ASSIGNED_CONTEXT ( ( #144 ) ) GLOBAL_UNIT_ASSIGNED_CONTEXT ( ( #180, #36, #223 ) ) REPRESENTATION_CONTEXT ( 'NONE', 'WORKASPACE' ) );
#270 = DIRECTION ( 'NONE',  ( 0.000000000000000000, 0.000000000000000000, -1.000000000000000000 ) ) ;
#271 = CARTESIAN_POINT ( 'NONE',  ( 1.516480271171051896E-32, 2.250000000000000444, 0.000000000000000000 ) ) ;
#272 =( CONVERSION_BASED_UNIT ( 'INCH', #167 ) LENGTH_UNIT ( ) NAMED_UNIT ( #246 ) );
#273 = APPLICATION_CONTEXT ( 'automotive_design' ) ;
#274 = ADVANCED_FACE ( 'NONE', ( #130 ), #262, .T. ) ;
#275 = AXIS2_PLACEMENT_3D ( 'NONE', #212, #165, #211 ) ;
#276 = ORIENTED_EDGE ( 'NONE', *, *, #233, .F. ) ;
#277 =( LENGTH_UNIT ( ) NAMED_UNIT ( * ) SI_UNIT ( $, .METRE. ) );
#278 = STYLED_ITEM ( 'NONE', ( #288 ), #123 ) ;
#279 = FILL_AREA_STYLE ('',( #216 ) ) ;
#280 = DIRECTION ( 'NONE',  ( 4.453261087808557677E-17, -1.000000000000000000, 0.000000000000000000 ) ) ;
#281 = CYLINDRICAL_SURFACE ( 'NONE', #175, 0.3750000000000001110 ) ;
#282 = PRESENTATION_LAYER_ASSIGNMENT (  '', '', ( #278 ) ) ;
#283 = PRESENTATION_STYLE_ASSIGNMENT (( #261 ) ) ;
#284 =( NAMED_UNIT ( * ) PLANE_ANGLE_UNIT ( ) SI_UNIT ( $, .RADIAN. ) );
#285 = FACE_OUTER_BOUND ( 'NONE', #173, .T. ) ;
#286 = PLANE ( 'NONE',  #42 ) ;
#287 = CARTESIAN_POINT ( 'NONE',  ( 0.000000000000000000, 2.250000000000000000, -0.3750000000000000555 ) ) ;
#288 = PRESENTATION_STYLE_ASSIGNMENT (( #115 ) ) ;
#289 = LENGTH_MEASURE_WITH_UNIT ( LENGTH_MEASURE( 0.02539999999999999897 ), #49 );
#290 =( LENGTH_UNIT ( ) NAMED_UNIT ( * ) SI_UNIT ( $, .METRE. ) );
#291 = CARTESIAN_POINT ( 'NONE',  ( 0.3750000000000000555, 5.000000000000000000, 4.592425496802576684E-17 ) ) ;
#292 = ORIENTED_EDGE ( 'NONE', *, *, #264, .T. ) ;
#293 =( LENGTH_UNIT ( ) NAMED_UNIT ( * ) SI_UNIT ( $, .METRE. ) );
#294 = APPLICATION_CONTEXT ( 'automotive_design' ) ;
#295 = VERTEX_POINT ( 'NONE', #120 ) ;
#296 = EDGE_LOOP ( 'NONE', ( #193, #250 ) ) ;
#297 = VERTEX_POINT ( 'NONE', #96 ) ;
#298 = AXIS2_PLACEMENT_3D ( 'NONE', #308, #159, #227 ) ;
#299 = EDGE_LOOP ( 'NONE', ( #122, #18 ) ) ;
#300 = CIRCLE ( 'NONE', #134, 0.3750000000000000555 ) ;
#301 = DIRECTION ( 'NONE',  ( -4.453261087808557677E-17, 1.000000000000000000, -0.000000000000000000 ) ) ;
#302 = DIRECTION ( 'NONE',  ( -4.453261087808557677E-17, 1.000000000000000000, 0.000000000000000000 ) ) ;
#303 = DIMENSIONAL_EXPONENTS ( 1.000000000000000000, 0.000000000000000000, 0.000000000000000000, 0.000000000000000000, 0.000000000000000000, 0.000000000000000000, 0.000000000000000000 ) ;
#304 =( LENGTH_UNIT ( ) NAMED_UNIT ( * ) SI_UNIT ( $, .METRE. ) );
#305 = DIRECTION ( 'NONE',  ( 0.000000000000000000, -0.000000000000000000, 1.000000000000000000 ) ) ;
#306 = CARTESIAN_POINT ( 'NONE',  ( 0.3750000000000000555, 5.000000000000000000, 0.000000000000000000 ) ) ;
#307 = CIRCLE ( 'NONE', #182, 0.3750000000000000555 ) ;
#308 = CARTESIAN_POINT ( 'NONE',  ( 0.000000000000000000, 0.000000000000000000, 0.000000000000000000 ) ) ;
#309 = EDGE_CURVE ( 'NONE', #78, #297, #145, .T. ) ;
ENDSEC;
END-ISO-10303-21;
