ISO-10303-21;
HEADER;
FILE_DESCRIPTION (( 'STEP AP214' ),
    '1' );
FILE_NAME ('Micro_RSC-375-24.STEP',
    '2021-09-03T17:52:59',
    ( '' ),
    ( '' ),
    'SwSTEP 2.0',
    'SolidWorks 2020',
    '' );
FILE_SCHEMA (( 'AUTOMOTIVE_DESIGN' ));
ENDSEC;

DATA;
#1 = ORIENTED_EDGE ( 'NONE', *, *, #99, .F. ) ;
#2 = ORIENTED_EDGE ( 'NONE', *, *, #214, .T. ) ;
#3 = CARTESIAN_POINT ( 'NONE',  ( 0.0000000000000000000, 0.0000000000000000000, 0.0000000000000000000 ) ) ;
#4 = ORIENTED_EDGE ( 'NONE', *, *, #43, .F. ) ;
#5 = EDGE_CURVE ( 'NONE', #131, #209, #174, .T. ) ;
#6 = ORIENTED_EDGE ( 'NONE', *, *, #129, .T. ) ;
#7 = DIRECTION ( 'NONE',  ( 1.000000000000000000, 0.0000000000000000000, 0.0000000000000000000 ) ) ;
#8 = CARTESIAN_POINT ( 'NONE',  ( 0.0000000000000000000, 0.0000000000000000000, 0.0000000000000000000 ) ) ;
#9 = DIRECTION ( 'NONE',  ( 0.0000000000000000000, 0.0000000000000000000, 1.000000000000000000 ) ) ;
#10 = CARTESIAN_POINT ( 'NONE',  ( -0.1875000000000000278, 0.0000000000000000000, 3.682168676811111929 ) ) ;
#11 = CARTESIAN_POINT ( 'NONE',  ( 0.0000000000000000000, 0.0000000000000000000, 0.0000000000000000000 ) ) ;
#12 = CARTESIAN_POINT ( 'NONE',  ( 0.0000000000000000000, 0.0000000000000000000, 3.682168676811111929 ) ) ;
#13 = EDGE_CURVE ( 'NONE', #188, #131, #149, .T. ) ;
#14 = PLANE ( 'NONE',  #69 ) ;
#15 = AXIS2_PLACEMENT_3D ( 'NONE', #171, #193, #7 ) ;
#16 = CONICAL_SURFACE ( 'NONE', #234, 0.003999999999999999216, 0.5235987755983005920 ) ;
#17 =( CONVERSION_BASED_UNIT ( 'INCH', #93 ) LENGTH_UNIT ( ) NAMED_UNIT ( #158 ) );
#18 = ORIENTED_EDGE ( 'NONE', *, *, #126, .T. ) ;
#19 = ORIENTED_EDGE ( 'NONE', *, *, #43, .T. ) ;
#20 = ORIENTED_EDGE ( 'NONE', *, *, #13, .T. ) ;
#21 = CIRCLE ( 'NONE', #170, 0.1875000000000000278 ) ;
#22 = CARTESIAN_POINT ( 'NONE',  ( 0.003999999999999999216, 0.0000000000000000000, 0.0000000000000000000 ) ) ;
#23 = DIRECTION ( 'NONE',  ( 0.0000000000000000000, 0.0000000000000000000, -1.000000000000000000 ) ) ;
#24 = CARTESIAN_POINT ( 'NONE',  ( 0.0000000000000000000, 0.0000000000000000000, 4.000000000000000000 ) ) ;
#25 = ADVANCED_FACE ( 'NONE', ( #55 ), #89, .T. ) ;
#26 = DIRECTION ( 'NONE',  ( 0.0000000000000000000, 0.0000000000000000000, -1.000000000000000000 ) ) ;
#27 = CARTESIAN_POINT ( 'NONE',  ( 0.0000000000000000000, 0.0000000000000000000, 4.000000000000000000 ) ) ;
#28 =( NAMED_UNIT ( * ) SI_UNIT ( $, .STERADIAN. ) SOLID_ANGLE_UNIT ( ) );
#29 = COLOUR_RGB ( '',0.7921568627450980005, 0.8196078431372548767, 0.9333333333333333481 ) ;
#30 = UNCERTAINTY_MEASURE_WITH_UNIT (LENGTH_MEASURE( 1.000000000000000082E-05 ), #201, 'distance_accuracy_value', 'NONE');
#31 = ORIENTED_EDGE ( 'NONE', *, *, #5, .F. ) ;
#32 =( NAMED_UNIT ( * ) SI_UNIT ( $, .STERADIAN. ) SOLID_ANGLE_UNIT ( ) );
#33 = MECHANICAL_DESIGN_GEOMETRIC_PRESENTATION_REPRESENTATION (  '', ( #58 ), #155 ) ;
#34 = ORIENTED_EDGE ( 'NONE', *, *, #62, .T. ) ;
#35 = EDGE_LOOP ( 'NONE', ( #130, #6, #1, #52 ) ) ;
#36 = DIRECTION ( 'NONE',  ( 1.000000000000000000, 0.0000000000000000000, 0.0000000000000000000 ) ) ;
#37 = ORIENTED_EDGE ( 'NONE', *, *, #162, .T. ) ;
#38 = VERTEX_POINT ( 'NONE', #22 ) ;
#39 = AXIS2_PLACEMENT_3D ( 'NONE', #237, #23, #172 ) ;
#40 = DIRECTION ( 'NONE',  ( -0.0000000000000000000, -0.0000000000000000000, -1.000000000000000000 ) ) ;
#41 = DIRECTION ( 'NONE',  ( -1.000000000000000000, 0.0000000000000000000, 0.0000000000000000000 ) ) ;
#42 = DIRECTION ( 'NONE',  ( -1.000000000000000000, 0.0000000000000000000, 0.0000000000000000000 ) ) ;
#43 = EDGE_CURVE ( 'NONE', #211, #209, #77, .T. ) ;
#44 = LINE ( 'NONE', #105, #180 ) ;
#45 = EDGE_CURVE ( 'NONE', #38, #166, #221, .T. ) ;
#46 = DIRECTION ( 'NONE',  ( -0.5000000000000013323, 6.123233995736782060E-17, 0.8660254037844377084 ) ) ;
#47 = CIRCLE ( 'NONE', #84, 0.1875000000000000278 ) ;
#48 = DIRECTION ( 'NONE',  ( 1.000000000000000000, 0.0000000000000000000, -0.0000000000000000000 ) ) ;
#49 = FILL_AREA_STYLE_COLOUR ( '', #64 ) ;
#50 = AXIS2_PLACEMENT_3D ( 'NONE', #3, #91, #36 ) ;
#51 = SURFACE_STYLE_USAGE ( .BOTH. , #66 ) ;
#52 = ORIENTED_EDGE ( 'NONE', *, *, #126, .F. ) ;
#53 = CIRCLE ( 'NONE', #206, 0.003999999999999999216 ) ;
#54 = ORIENTED_EDGE ( 'NONE', *, *, #162, .F. ) ;
#55 = FACE_OUTER_BOUND ( 'NONE', #213, .T. ) ;
#56 = ORIENTED_EDGE ( 'NONE', *, *, #81, .F. ) ;
#57 = FACE_OUTER_BOUND ( 'NONE', #112, .T. ) ;
#58 = STYLED_ITEM ( 'NONE', ( #226 ), #208 ) ;
#59 = PLANE ( 'NONE',  #229 ) ;
#60 = ADVANCED_FACE ( 'NONE', ( #133 ), #240, .T. ) ;
#61 = CARTESIAN_POINT ( 'NONE',  ( 0.0000000000000000000, 0.0000000000000000000, 4.000000000000000000 ) ) ;
#62 = EDGE_CURVE ( 'NONE', #168, #113, #78, .T. ) ;
#63 = DIRECTION ( 'NONE',  ( -1.000000000000000000, 0.0000000000000000000, 0.0000000000000000000 ) ) ;
#64 = COLOUR_RGB ( '',0.7921568627450980005, 0.8196078431372548767, 0.9333333333333333481 ) ;
#65 = CARTESIAN_POINT ( 'NONE',  ( 0.0000000000000000000, 0.0000000000000000000, 0.0000000000000000000 ) ) ;
#66 = SURFACE_SIDE_STYLE ('',( #228 ) ) ;
#67 =( NAMED_UNIT ( * ) SI_UNIT ( $, .STERADIAN. ) SOLID_ANGLE_UNIT ( ) );
#68 = EDGE_CURVE ( 'NONE', #166, #113, #21, .T. ) ;
#69 = AXIS2_PLACEMENT_3D ( 'NONE', #181, #139, #48 ) ;
#70 = APPLICATION_PROTOCOL_DEFINITION ( 'draft international standard', 'automotive_design', 1998, #231 ) ;
#71 = FILL_AREA_STYLE ('',( #163 ) ) ;
#72 = CONICAL_SURFACE ( 'NONE', #111, 0.003999999999999999216, 0.5235987755983005920 ) ;
#73 = ORIENTED_EDGE ( 'NONE', *, *, #13, .F. ) ;
#74 = SHAPE_DEFINITION_REPRESENTATION ( #241, #186 ) ;
#75 = ORIENTED_EDGE ( 'NONE', *, *, #62, .F. ) ;
#76 = DIRECTION ( 'NONE',  ( -1.000000000000000000, 0.0000000000000000000, 0.0000000000000000000 ) ) ;
#77 = LINE ( 'NONE', #132, #179 ) ;
#78 = LINE ( 'NONE', #197, #161 ) ;
#79 = AXIS2_PLACEMENT_3D ( 'NONE', #27, #101, #136 ) ;
#80 = CARTESIAN_POINT ( 'NONE',  ( 0.0000000000000000000, 0.0000000000000000000, 4.000000000000000000 ) ) ;
#81 = EDGE_CURVE ( 'NONE', #211, #188, #196, .T. ) ;
#82 = CARTESIAN_POINT ( 'NONE',  ( 0.1875000000000000278, 2.296212748401287726E-17, 0.3178313231888877932 ) ) ;
#83 = DIRECTION ( 'NONE',  ( 0.0000000000000000000, 0.0000000000000000000, -1.000000000000000000 ) ) ;
#84 = AXIS2_PLACEMENT_3D ( 'NONE', #195, #198, #220 ) ;
#85 =( NAMED_UNIT ( * ) PLANE_ANGLE_UNIT ( ) SI_UNIT ( $, .RADIAN. ) );
#86 = ADVANCED_FACE ( 'NONE', ( #199 ), #247, .T. ) ;
#87 = UNCERTAINTY_MEASURE_WITH_UNIT (LENGTH_MEASURE( 1.000000000000000082E-05 ), #205, 'distance_accuracy_value', 'NONE');
#88 = DIMENSIONAL_EXPONENTS ( 1.000000000000000000, 0.0000000000000000000, 0.0000000000000000000, 0.0000000000000000000, 0.0000000000000000000, 0.0000000000000000000, 0.0000000000000000000 ) ;
#89 = CONICAL_SURFACE ( 'NONE', #15, 0.003999999999999999216, 0.5235987755983005920 ) ;
#90 = PRODUCT_DEFINITION_FORMATION_WITH_SPECIFIED_SOURCE ( 'ANY', '', #248, .NOT_KNOWN. ) ;
#91 = DIRECTION ( 'NONE',  ( 0.0000000000000000000, 0.0000000000000000000, 1.000000000000000000 ) ) ;
#92 = ORIENTED_EDGE ( 'NONE', *, *, #45, .F. ) ;
#93 = LENGTH_MEASURE_WITH_UNIT ( LENGTH_MEASURE( 0.02539999999999999897 ), #222 );
#94 = ORIENTED_EDGE ( 'NONE', *, *, #207, .F. ) ;
#95 = ORIENTED_EDGE ( 'NONE', *, *, #68, .F. ) ;
#96 = ADVANCED_FACE ( 'NONE', ( #135 ), #72, .T. ) ;
#97 = AXIS2_PLACEMENT_3D ( 'NONE', #242, #182, #183 ) ;
#98 = CARTESIAN_POINT ( 'NONE',  ( -0.003999999999999999216, -4.898587196589411612E-19, 4.000000000000000000 ) ) ;
#99 = EDGE_CURVE ( 'NONE', #113, #166, #47, .T. ) ;
#100 = FACE_OUTER_BOUND ( 'NONE', #144, .T. ) ;
#101 = DIRECTION ( 'NONE',  ( -0.0000000000000000000, -0.0000000000000000000, -1.000000000000000000 ) ) ;
#102 = ADVANCED_FACE ( 'NONE', ( #57 ), #16, .T. ) ;
#103 = DIRECTION ( 'NONE',  ( -0.0000000000000000000, -0.0000000000000000000, -1.000000000000000000 ) ) ;
#104 = LINE ( 'NONE', #118, #115 ) ;
#105 = CARTESIAN_POINT ( 'NONE',  ( 0.1875000000000000278, 2.296212748401287726E-17, 4.000000000000000000 ) ) ;
#106 = PRESENTATION_LAYER_ASSIGNMENT (  '', '', ( #147 ) ) ;
#107 = SURFACE_STYLE_USAGE ( .BOTH. , #157 ) ;
#108 =( LENGTH_UNIT ( ) NAMED_UNIT ( * ) SI_UNIT ( $, .METRE. ) );
#109 = PRODUCT_CONTEXT ( 'NONE', #231, 'mechanical' ) ;
#110 = ORIENTED_EDGE ( 'NONE', *, *, #202, .F. ) ;
#111 = AXIS2_PLACEMENT_3D ( 'NONE', #65, #156, #152 ) ;
#112 = EDGE_LOOP ( 'NONE', ( #75, #94, #125, #145 ) ) ;
#113 = VERTEX_POINT ( 'NONE', #137 ) ;
#114 = ADVANCED_FACE ( 'NONE', ( #121 ), #239, .T. ) ;
#115 = VECTOR ( 'NONE', #216, 39.37007874015748143 ) ;
#116 = EDGE_LOOP ( 'NONE', ( #56, #54 ) ) ;
#117 = DIRECTION ( 'NONE',  ( 0.0000000000000000000, 0.0000000000000000000, -1.000000000000000000 ) ) ;
#118 = CARTESIAN_POINT ( 'NONE',  ( -0.1875000000000000278, 0.0000000000000000000, 4.000000000000000000 ) ) ;
#119 = CARTESIAN_POINT ( 'NONE',  ( -0.003999999999999999216, -1.172599310183591489E-17, 4.000000000000000000 ) ) ;
#120 = DIRECTION ( 'NONE',  ( 1.000000000000000000, 0.0000000000000000000, -0.0000000000000000000 ) ) ;
#121 = FACE_OUTER_BOUND ( 'NONE', #35, .T. ) ;
#122 = ADVANCED_FACE ( 'NONE', ( #100 ), #59, .F. ) ;
#123 =( NAMED_UNIT ( * ) PLANE_ANGLE_UNIT ( ) SI_UNIT ( $, .RADIAN. ) );
#124 = PRESENTATION_STYLE_ASSIGNMENT (( #51 ) ) ;
#125 = ORIENTED_EDGE ( 'NONE', *, *, #45, .T. ) ;
#126 = EDGE_CURVE ( 'NONE', #131, #113, #104, .T. ) ;
#127 = ORIENTED_EDGE ( 'NONE', *, *, #129, .F. ) ;
#128 = MECHANICAL_DESIGN_GEOMETRIC_PRESENTATION_REPRESENTATION (  '', ( #147 ), #238 ) ;
#129 = EDGE_CURVE ( 'NONE', #209, #166, #44, .T. ) ;
#130 = ORIENTED_EDGE ( 'NONE', *, *, #5, .T. ) ;
#131 = VERTEX_POINT ( 'NONE', #10 ) ;
#132 = CARTESIAN_POINT ( 'NONE',  ( 0.003999999999999999216, 0.0000000000000000000, 4.000000000000000000 ) ) ;
#133 = FACE_OUTER_BOUND ( 'NONE', #233, .T. ) ;
#134 = CARTESIAN_POINT ( 'NONE',  ( 0.0000000000000000000, 0.0000000000000000000, 0.0000000000000000000 ) ) ;
#135 = FACE_OUTER_BOUND ( 'NONE', #232, .T. ) ;
#136 = DIRECTION ( 'NONE',  ( -1.000000000000000000, 0.0000000000000000000, 0.0000000000000000000 ) ) ;
#137 = CARTESIAN_POINT ( 'NONE',  ( -0.1875000000000000278, 0.0000000000000000000, 0.3178313231888877932 ) ) ;
#138 = DIMENSIONAL_EXPONENTS ( 1.000000000000000000, 0.0000000000000000000, 0.0000000000000000000, 0.0000000000000000000, 0.0000000000000000000, 0.0000000000000000000, 0.0000000000000000000 ) ;
#139 = DIRECTION ( 'NONE',  ( 0.0000000000000000000, 0.0000000000000000000, 1.000000000000000000 ) ) ;
#140 = CLOSED_SHELL ( 'NONE', ( #25, #96, #114, #60, #102, #122, #86, #223 ) ) ;
#141 = CIRCLE ( 'NONE', #189, 0.1875000000000000278 ) ;
#142 = PRODUCT_RELATED_PRODUCT_CATEGORY ( 'part', '', ( #248 ) ) ;
#143 = SURFACE_STYLE_FILL_AREA ( #203 ) ;
#144 = EDGE_LOOP ( 'NONE', ( #212, #2 ) ) ;
#145 = ORIENTED_EDGE ( 'NONE', *, *, #68, .T. ) ;
#146 = ORIENTED_EDGE ( 'NONE', *, *, #214, .F. ) ;
#147 = STYLED_ITEM ( 'NONE', ( #124 ), #186 ) ;
#148 =( NAMED_UNIT ( * ) PLANE_ANGLE_UNIT ( ) SI_UNIT ( $, .RADIAN. ) );
#149 = LINE ( 'NONE', #98, #169 ) ;
#150 = DIRECTION ( 'NONE',  ( 0.5000000000000013323, 0.0000000000000000000, 0.8660254037844377084 ) ) ;
#151 = CIRCLE ( 'NONE', #224, 0.003999999999999999216 ) ;
#152 = DIRECTION ( 'NONE',  ( 1.000000000000000000, 0.0000000000000000000, 0.0000000000000000000 ) ) ;
#153 = CARTESIAN_POINT ( 'NONE',  ( 0.003999999999999999216, 0.0000000000000000000, 0.0000000000000000000 ) ) ;
#154 = DIRECTION ( 'NONE',  ( -0.0000000000000000000, -0.0000000000000000000, -1.000000000000000000 ) ) ;
#155 =( GEOMETRIC_REPRESENTATION_CONTEXT ( 3 ) GLOBAL_UNCERTAINTY_ASSIGNED_CONTEXT ( ( #87 ) ) GLOBAL_UNIT_ASSIGNED_CONTEXT ( ( #205, #123, #67 ) ) REPRESENTATION_CONTEXT ( 'NONE', 'WORKASPACE' ) );
#156 = DIRECTION ( 'NONE',  ( 0.0000000000000000000, 0.0000000000000000000, 1.000000000000000000 ) ) ;
#157 = SURFACE_SIDE_STYLE ('',( #143 ) ) ;
#158 = DIMENSIONAL_EXPONENTS ( 1.000000000000000000, 0.0000000000000000000, 0.0000000000000000000, 0.0000000000000000000, 0.0000000000000000000, 0.0000000000000000000, 0.0000000000000000000 ) ;
#159 = CARTESIAN_POINT ( 'NONE',  ( 0.1875000000000000278, 2.296212748401287726E-17, 3.682168676811111929 ) ) ;
#160 = VECTOR ( 'NONE', #150, 39.37007874015748854 ) ;
#161 = VECTOR ( 'NONE', #46, 39.37007874015748854 ) ;
#162 = EDGE_CURVE ( 'NONE', #188, #211, #53, .T. ) ;
#163 = FILL_AREA_STYLE_COLOUR ( '', #29 ) ;
#164 = DIRECTION ( 'NONE',  ( 0.5000000000000013323, 0.0000000000000000000, -0.8660254037844377084 ) ) ;
#165 = AXIS2_PLACEMENT_3D ( 'NONE', #24, #176, #178 ) ;
#166 = VERTEX_POINT ( 'NONE', #82 ) ;
#167 = ORIENTED_EDGE ( 'NONE', *, *, #81, .T. ) ;
#168 = VERTEX_POINT ( 'NONE', #218 ) ;
#169 = VECTOR ( 'NONE', #235, 39.37007874015748854 ) ;
#170 = AXIS2_PLACEMENT_3D ( 'NONE', #173, #40, #42 ) ;
#171 = CARTESIAN_POINT ( 'NONE',  ( 0.0000000000000000000, 0.0000000000000000000, 4.000000000000000000 ) ) ;
#172 = DIRECTION ( 'NONE',  ( 1.000000000000000000, 0.0000000000000000000, 0.0000000000000000000 ) ) ;
#173 = CARTESIAN_POINT ( 'NONE',  ( 0.0000000000000000000, 0.0000000000000000000, 0.3178313231888877932 ) ) ;
#174 = CIRCLE ( 'NONE', #219, 0.1875000000000000278 ) ;
#175 = CIRCLE ( 'NONE', #97, 0.003999999999999999216 ) ;
#176 = DIRECTION ( 'NONE',  ( -0.0000000000000000000, -0.0000000000000000000, -1.000000000000000000 ) ) ;
#177 = DIRECTION ( 'NONE',  ( -1.000000000000000000, 0.0000000000000000000, 0.0000000000000000000 ) ) ;
#178 = DIRECTION ( 'NONE',  ( -1.000000000000000000, 0.0000000000000000000, 0.0000000000000000000 ) ) ;
#179 = VECTOR ( 'NONE', #164, 39.37007874015748854 ) ;
#180 = VECTOR ( 'NONE', #103, 39.37007874015748143 ) ;
#181 = CARTESIAN_POINT ( 'NONE',  ( 0.0000000000000000000, 0.0000000000000000000, 4.000000000000000000 ) ) ;
#182 = DIRECTION ( 'NONE',  ( -0.0000000000000000000, -0.0000000000000000000, -1.000000000000000000 ) ) ;
#183 = DIRECTION ( 'NONE',  ( -1.000000000000000000, 0.0000000000000000000, 0.0000000000000000000 ) ) ;
#184 = LENGTH_MEASURE_WITH_UNIT ( LENGTH_MEASURE( 0.02539999999999999897 ), #244 );
#185 = PRODUCT_DEFINITION ( 'UNKNOWN', '', #90, #246 ) ;
#186 = ADVANCED_BREP_SHAPE_REPRESENTATION ( 'Micro_RSC-375-24', ( #208, #50 ), #210 ) ;
#187 = APPLICATION_PROTOCOL_DEFINITION ( 'draft international standard', 'automotive_design', 1998, #245 ) ;
#188 = VERTEX_POINT ( 'NONE', #119 ) ;
#189 = AXIS2_PLACEMENT_3D ( 'NONE', #12, #26, #177 ) ;
#190 = ORIENTED_EDGE ( 'NONE', *, *, #202, .T. ) ;
#191 = CARTESIAN_POINT ( 'NONE',  ( 0.0000000000000000000, 0.0000000000000000000, 3.682168676811111929 ) ) ;
#192 = DIRECTION ( 'NONE',  ( 0.0000000000000000000, 0.0000000000000000000, -1.000000000000000000 ) ) ;
#193 = DIRECTION ( 'NONE',  ( 0.0000000000000000000, 0.0000000000000000000, -1.000000000000000000 ) ) ;
#194 = DIRECTION ( 'NONE',  ( 1.000000000000000000, 0.0000000000000000000, 0.0000000000000000000 ) ) ;
#195 = CARTESIAN_POINT ( 'NONE',  ( 0.0000000000000000000, 0.0000000000000000000, 0.3178313231888877932 ) ) ;
#196 = CIRCLE ( 'NONE', #200, 0.003999999999999999216 ) ;
#197 = CARTESIAN_POINT ( 'NONE',  ( -0.003999999999999999216, 4.898587196589411612E-19, 0.0000000000000000000 ) ) ;
#198 = DIRECTION ( 'NONE',  ( -0.0000000000000000000, -0.0000000000000000000, -1.000000000000000000 ) ) ;
#199 = FACE_OUTER_BOUND ( 'NONE', #236, .T. ) ;
#200 = AXIS2_PLACEMENT_3D ( 'NONE', #61, #117, #41 ) ;
#201 =( CONVERSION_BASED_UNIT ( 'INCH', #184 ) LENGTH_UNIT ( ) NAMED_UNIT ( #138 ) );
#202 = EDGE_CURVE ( 'NONE', #209, #131, #141, .T. ) ;
#203 = FILL_AREA_STYLE ('',( #49 ) ) ;
#204 = FACE_OUTER_BOUND ( 'NONE', #116, .T. ) ;
#205 =( CONVERSION_BASED_UNIT ( 'INCH', #225 ) LENGTH_UNIT ( ) NAMED_UNIT ( #88 ) );
#206 = AXIS2_PLACEMENT_3D ( 'NONE', #80, #83, #63 ) ;
#207 = EDGE_CURVE ( 'NONE', #38, #168, #151, .T. ) ;
#208 = MANIFOLD_SOLID_BREP ( 'Mirror1', #140 ) ;
#209 = VERTEX_POINT ( 'NONE', #159 ) ;
#210 =( GEOMETRIC_REPRESENTATION_CONTEXT ( 3 ) GLOBAL_UNCERTAINTY_ASSIGNED_CONTEXT ( ( #30 ) ) GLOBAL_UNIT_ASSIGNED_CONTEXT ( ( #201, #85, #28 ) ) REPRESENTATION_CONTEXT ( 'NONE', 'WORKASPACE' ) );
#211 = VERTEX_POINT ( 'NONE', #249 ) ;
#212 = ORIENTED_EDGE ( 'NONE', *, *, #207, .T. ) ;
#213 = EDGE_LOOP ( 'NONE', ( #167, #20, #110, #4 ) ) ;
#214 = EDGE_CURVE ( 'NONE', #168, #38, #175, .T. ) ;
#215 = PRESENTATION_LAYER_ASSIGNMENT (  '', '', ( #58 ) ) ;
#216 = DIRECTION ( 'NONE',  ( -0.0000000000000000000, -0.0000000000000000000, -1.000000000000000000 ) ) ;
#217 = DIRECTION ( 'NONE',  ( 0.0000000000000000000, 0.0000000000000000000, 1.000000000000000000 ) ) ;
#218 = CARTESIAN_POINT ( 'NONE',  ( -0.003999999999999999216, 1.172599310183590719E-17, 0.0000000000000000000 ) ) ;
#219 = AXIS2_PLACEMENT_3D ( 'NONE', #191, #192, #76 ) ;
#220 = DIRECTION ( 'NONE',  ( -1.000000000000000000, 0.0000000000000000000, 0.0000000000000000000 ) ) ;
#221 = LINE ( 'NONE', #153, #160 ) ;
#222 =( LENGTH_UNIT ( ) NAMED_UNIT ( * ) SI_UNIT ( $, .METRE. ) );
#223 = ADVANCED_FACE ( 'NONE', ( #204 ), #14, .T. ) ;
#224 = AXIS2_PLACEMENT_3D ( 'NONE', #11, #154, #243 ) ;
#225 = LENGTH_MEASURE_WITH_UNIT ( LENGTH_MEASURE( 0.02539999999999999897 ), #108 );
#226 = PRESENTATION_STYLE_ASSIGNMENT (( #107 ) ) ;
#227 = UNCERTAINTY_MEASURE_WITH_UNIT (LENGTH_MEASURE( 1.000000000000000082E-05 ), #17, 'distance_accuracy_value', 'NONE');
#228 = SURFACE_STYLE_FILL_AREA ( #71 ) ;
#229 = AXIS2_PLACEMENT_3D ( 'NONE', #134, #217, #120 ) ;
#230 = ORIENTED_EDGE ( 'NONE', *, *, #99, .T. ) ;
#231 = APPLICATION_CONTEXT ( 'automotive_design' ) ;
#232 = EDGE_LOOP ( 'NONE', ( #146, #34, #230, #92 ) ) ;
#233 = EDGE_LOOP ( 'NONE', ( #127, #190, #18, #95 ) ) ;
#234 = AXIS2_PLACEMENT_3D ( 'NONE', #8, #9, #194 ) ;
#235 = DIRECTION ( 'NONE',  ( -0.5000000000000013323, -6.123233995736782060E-17, -0.8660254037844377084 ) ) ;
#236 = EDGE_LOOP ( 'NONE', ( #73, #37, #19, #31 ) ) ;
#237 = CARTESIAN_POINT ( 'NONE',  ( 0.0000000000000000000, 0.0000000000000000000, 4.000000000000000000 ) ) ;
#238 =( GEOMETRIC_REPRESENTATION_CONTEXT ( 3 ) GLOBAL_UNCERTAINTY_ASSIGNED_CONTEXT ( ( #227 ) ) GLOBAL_UNIT_ASSIGNED_CONTEXT ( ( #17, #148, #32 ) ) REPRESENTATION_CONTEXT ( 'NONE', 'WORKASPACE' ) );
#239 = CYLINDRICAL_SURFACE ( 'NONE', #79, 0.1875000000000000278 ) ;
#240 = CYLINDRICAL_SURFACE ( 'NONE', #165, 0.1875000000000000278 ) ;
#241 = PRODUCT_DEFINITION_SHAPE ( 'NONE', 'NONE',  #185 ) ;
#242 = CARTESIAN_POINT ( 'NONE',  ( 0.0000000000000000000, 0.0000000000000000000, 0.0000000000000000000 ) ) ;
#243 = DIRECTION ( 'NONE',  ( -1.000000000000000000, 0.0000000000000000000, 0.0000000000000000000 ) ) ;
#244 =( LENGTH_UNIT ( ) NAMED_UNIT ( * ) SI_UNIT ( $, .METRE. ) );
#245 = APPLICATION_CONTEXT ( 'automotive_design' ) ;
#246 = PRODUCT_DEFINITION_CONTEXT ( 'detailed design', #245, 'design' ) ;
#247 = CONICAL_SURFACE ( 'NONE', #39, 0.003999999999999999216, 0.5235987755983005920 ) ;
#248 = PRODUCT ( 'Micro_RSC-375-24', 'Micro_RSC-375-24', '', ( #109 ) ) ;
#249 = CARTESIAN_POINT ( 'NONE',  ( 0.003999999999999999216, 0.0000000000000000000, 4.000000000000000000 ) ) ;
ENDSEC;
END-ISO-10303-21;
