ISO-10303-21;
HEADER;
FILE_DESCRIPTION (( 'STEP AP214' ),
    '1' );
FILE_NAME ('82269.STEP',
    '2023-06-23T05:01:55',
    ( '' ),
    ( '' ),
    'SwSTEP 2.0',
    'SolidWorks 2023',
    '' );
FILE_SCHEMA (( 'AUTOMOTIVE_DESIGN' ));
ENDSEC;

DATA;
#1 = PLANE ( 'NONE',  #285 ) ;
#2 = PRESENTATION_LAYER_ASSIGNMENT (  '', '', ( #231 ) ) ;
#3 = MECHANICAL_DESIGN_GEOMETRIC_PRESENTATION_REPRESENTATION (  '', ( #289 ), #74 ) ;
#4 = COLOUR_RGB ( '',1.000000000000000000, 0.000000000000000000, 0.000000000000000000 ) ;
#5 =( CONVERSION_BASED_UNIT ( 'INCH', #127 ) LENGTH_UNIT ( ) NAMED_UNIT ( #76 ) );
#6 = ADVANCED_FACE ( 'NONE', ( #276 ), #120, .T. ) ;
#7 =( NAMED_UNIT ( * ) SI_UNIT ( $, .STERADIAN. ) SOLID_ANGLE_UNIT ( ) );
#8 = DIRECTION ( 'NONE',  ( 6.997981709413449187E-17, -1.000000000000000000, 0.000000000000000000 ) ) ;
#9 = CARTESIAN_POINT ( 'NONE',  ( 0.1874999999999999445, 3.000000000000000444, 2.296212748401288342E-17 ) ) ;
#10 = CARTESIAN_POINT ( 'NONE',  ( 0.000000000000000000, 0.000000000000000000, 0.000000000000000000 ) ) ;
#11 =( GEOMETRIC_REPRESENTATION_CONTEXT ( 3 ) GLOBAL_UNCERTAINTY_ASSIGNED_CONTEXT ( ( #17 ) ) GLOBAL_UNIT_ASSIGNED_CONTEXT ( ( #244, #264, #39 ) ) REPRESENTATION_CONTEXT ( 'NONE', 'WORKASPACE' ) );
#12 =( NAMED_UNIT ( * ) SI_UNIT ( $, .STERADIAN. ) SOLID_ANGLE_UNIT ( ) );
#13 = PRESENTATION_LAYER_ASSIGNMENT (  '', '', ( #267 ) ) ;
#14 = EDGE_CURVE ( 'NONE', #192, #299, #195, .T. ) ;
#15 = CARTESIAN_POINT ( 'NONE',  ( -0.1875000000000002220, 3.000000000000000444, 0.000000000000000000 ) ) ;
#16 = SURFACE_STYLE_FILL_AREA ( #268 ) ;
#17 = UNCERTAINTY_MEASURE_WITH_UNIT (LENGTH_MEASURE( 1.000000000000000082E-05 ), #244, 'distance_accuracy_value', 'NONE');
#18 = ORIENTED_EDGE ( 'NONE', *, *, #180, .T. ) ;
#19 = AXIS2_PLACEMENT_3D ( 'NONE', #103, #8, #152 ) ;
#20 =( NAMED_UNIT ( * ) PLANE_ANGLE_UNIT ( ) SI_UNIT ( $, .RADIAN. ) );
#21 = ORIENTED_EDGE ( 'NONE', *, *, #14, .T. ) ;
#22 = APPLICATION_CONTEXT ( 'automotive_design' ) ;
#23 = DIRECTION ( 'NONE',  ( -6.997981709413449187E-17, 1.000000000000000000, -0.000000000000000000 ) ) ;
#24 = UNCERTAINTY_MEASURE_WITH_UNIT (LENGTH_MEASURE( 1.000000000000000082E-05 ), #124, 'distance_accuracy_value', 'NONE');
#25 = AXIS2_PLACEMENT_3D ( 'NONE', #131, #201, #291 ) ;
#26 = EDGE_LOOP ( 'NONE', ( #51, #279 ) ) ;
#27 = FILL_AREA_STYLE_COLOUR ( '', #43 ) ;
#28 = DIRECTION ( 'NONE',  ( 0.000000000000000000, 0.000000000000000000, -1.000000000000000000 ) ) ;
#29 = ADVANCED_FACE ( 'NONE', ( #239 ), #290, .F. ) ;
#30 = FACE_OUTER_BOUND ( 'NONE', #98, .T. ) ;
#31 = PRESENTATION_LAYER_ASSIGNMENT (  '', '', ( #305 ) ) ;
#32 = SURFACE_STYLE_USAGE ( .BOTH. , #197 ) ;
#33 =( NAMED_UNIT ( * ) PLANE_ANGLE_UNIT ( ) SI_UNIT ( $, .RADIAN. ) );
#34 = DIRECTION ( 'NONE',  ( -0.000000000000000000, -1.000000000000000000, -0.000000000000000000 ) ) ;
#35 = EDGE_CURVE ( 'NONE', #192, #169, #196, .T. ) ;
#36 = AXIS2_PLACEMENT_3D ( 'NONE', #65, #160, #137 ) ;
#37 = CIRCLE ( 'NONE', #70, 0.1875000000000000278 ) ;
#38 = LINE ( 'NONE', #15, #184 ) ;
#39 =( NAMED_UNIT ( * ) SI_UNIT ( $, .STERADIAN. ) SOLID_ANGLE_UNIT ( ) );
#40 = DIRECTION ( 'NONE',  ( 0.000000000000000000, -0.000000000000000000, 1.000000000000000000 ) ) ;
#41 = CYLINDRICAL_SURFACE ( 'NONE', #111, 0.1875000000000000278 ) ;
#42 =( GEOMETRIC_REPRESENTATION_CONTEXT ( 3 ) GLOBAL_UNCERTAINTY_ASSIGNED_CONTEXT ( ( #296 ) ) GLOBAL_UNIT_ASSIGNED_CONTEXT ( ( #163, #116, #73 ) ) REPRESENTATION_CONTEXT ( 'NONE', 'WORKASPACE' ) );
#43 = COLOUR_RGB ( '',0.7921568627450980005, 0.8196078431372548767, 0.9333333333333333481 ) ;
#44 = PRODUCT_CONTEXT ( 'NONE', #22, 'mechanical' ) ;
#45 =( CONVERSION_BASED_UNIT ( 'INCH', #140 ) LENGTH_UNIT ( ) NAMED_UNIT ( #125 ) );
#46 = EDGE_CURVE ( 'NONE', #299, #192, #288, .T. ) ;
#47 = PRODUCT_DEFINITION_SHAPE ( 'NONE', 'NONE',  #191 ) ;
#48 = EDGE_LOOP ( 'NONE', ( #55, #300, #254, #185 ) ) ;
#49 = COLOUR_RGB ( '',1.000000000000000000, 0.000000000000000000, 0.000000000000000000 ) ;
#50 = DIRECTION ( 'NONE',  ( -0.000000000000000000, -1.000000000000000000, -0.000000000000000000 ) ) ;
#51 = ORIENTED_EDGE ( 'NONE', *, *, #139, .T. ) ;
#52 = DIRECTION ( 'NONE',  ( -1.000000000000000000, 0.000000000000000000, 0.000000000000000000 ) ) ;
#53 = EDGE_LOOP ( 'NONE', ( #77, #210 ) ) ;
#54 = CYLINDRICAL_SURFACE ( 'NONE', #183, 0.1875000000000000833 ) ;
#55 = ORIENTED_EDGE ( 'NONE', *, *, #174, .T. ) ;
#56 = FILL_AREA_STYLE ('',( #27 ) ) ;
#57 = COLOUR_RGB ( '',1.000000000000000000, 0.000000000000000000, 0.000000000000000000 ) ;
#58 = DIRECTION ( 'NONE',  ( -0.000000000000000000, -1.000000000000000000, -0.000000000000000000 ) ) ;
#59 = DIRECTION ( 'NONE',  ( -1.000000000000000000, 0.000000000000000000, 0.000000000000000000 ) ) ;
#60 = DIRECTION ( 'NONE',  ( -6.997981709413449187E-17, 1.000000000000000000, -0.000000000000000000 ) ) ;
#61 = AXIS2_PLACEMENT_3D ( 'NONE', #257, #186, #278 ) ;
#62 = DIRECTION ( 'NONE',  ( -6.997981709413449187E-17, 1.000000000000000000, -0.000000000000000000 ) ) ;
#63 = SURFACE_STYLE_USAGE ( .BOTH. , #159 ) ;
#64 = DIRECTION ( 'NONE',  ( -1.000000000000000000, 0.000000000000000000, 0.000000000000000000 ) ) ;
#65 = CARTESIAN_POINT ( 'NONE',  ( 0.000000000000000000, 1.250000000000000000, 0.000000000000000000 ) ) ;
#66 = EDGE_CURVE ( 'NONE', #190, #212, #286, .T. ) ;
#67 = PRESENTATION_STYLE_ASSIGNMENT (( #251 ) ) ;
#68 = UNCERTAINTY_MEASURE_WITH_UNIT (LENGTH_MEASURE( 1.000000000000000082E-05 ), #45, 'distance_accuracy_value', 'NONE');
#69 =( NAMED_UNIT ( * ) PLANE_ANGLE_UNIT ( ) SI_UNIT ( $, .RADIAN. ) );
#70 = AXIS2_PLACEMENT_3D ( 'NONE', #308, #50, #99 ) ;
#71 = ORIENTED_EDGE ( 'NONE', *, *, #119, .T. ) ;
#72 = CARTESIAN_POINT ( 'NONE',  ( -1.224646799147353700E-16, 3.000000000000000444, 0.000000000000000000 ) ) ;
#73 =( NAMED_UNIT ( * ) SI_UNIT ( $, .STERADIAN. ) SOLID_ANGLE_UNIT ( ) );
#74 =( GEOMETRIC_REPRESENTATION_CONTEXT ( 3 ) GLOBAL_UNCERTAINTY_ASSIGNED_CONTEXT ( ( #211 ) ) GLOBAL_UNIT_ASSIGNED_CONTEXT ( ( #263, #33, #7 ) ) REPRESENTATION_CONTEXT ( 'NONE', 'WORKASPACE' ) );
#75 =( LENGTH_UNIT ( ) NAMED_UNIT ( * ) SI_UNIT ( $, .METRE. ) );
#76 = DIMENSIONAL_EXPONENTS ( 1.000000000000000000, 0.000000000000000000, 0.000000000000000000, 0.000000000000000000, 0.000000000000000000, 0.000000000000000000, 0.000000000000000000 ) ;
#77 = ORIENTED_EDGE ( 'NONE', *, *, #174, .F. ) ;
#78 = DIRECTION ( 'NONE',  ( -1.000000000000000000, 0.000000000000000000, 0.000000000000000000 ) ) ;
#79 = ORIENTED_EDGE ( 'NONE', *, *, #46, .T. ) ;
#80 = CARTESIAN_POINT ( 'NONE',  ( 0.000000000000000000, 1.250000000000000000, 0.000000000000000000 ) ) ;
#81 = PRESENTATION_STYLE_ASSIGNMENT (( #179 ) ) ;
#82 = DIRECTION ( 'NONE',  ( -6.997981709413449187E-17, 1.000000000000000000, 0.000000000000000000 ) ) ;
#83 = FACE_OUTER_BOUND ( 'NONE', #53, .T. ) ;
#84 = AXIS2_PLACEMENT_3D ( 'NONE', #10, #178, #283 ) ;
#85 = PRESENTATION_STYLE_ASSIGNMENT (( #32 ) ) ;
#86 = CIRCLE ( 'NONE', #284, 0.1875000000000000278 ) ;
#87 =( LENGTH_UNIT ( ) NAMED_UNIT ( * ) SI_UNIT ( $, .METRE. ) );
#88 = ADVANCED_FACE ( 'NONE', ( #83 ), #1, .F. ) ;
#89 = FILL_AREA_STYLE_COLOUR ( '', #96 ) ;
#90 =( NAMED_UNIT ( * ) PLANE_ANGLE_UNIT ( ) SI_UNIT ( $, .RADIAN. ) );
#91 = DIRECTION ( 'NONE',  ( -6.997981709413449187E-17, 1.000000000000000000, -0.000000000000000000 ) ) ;
#92 = SURFACE_STYLE_USAGE ( .BOTH. , #114 ) ;
#93 = DIRECTION ( 'NONE',  ( 0.000000000000000000, 0.000000000000000000, 1.000000000000000000 ) ) ;
#94 = VERTEX_POINT ( 'NONE', #173 ) ;
#95 = SURFACE_STYLE_FILL_AREA ( #258 ) ;
#96 = COLOUR_RGB ( '',0.7921568627450980005, 0.8196078431372548767, 0.9333333333333333481 ) ;
#97 = AXIS2_PLACEMENT_3D ( 'NONE', #146, #164, #78 ) ;
#98 = EDGE_LOOP ( 'NONE', ( #307, #234 ) ) ;
#99 = DIRECTION ( 'NONE',  ( 0.000000000000000000, 0.000000000000000000, -1.000000000000000000 ) ) ;
#100 = VECTOR ( 'NONE', #287, 39.37007874015748143 ) ;
#101 = DIMENSIONAL_EXPONENTS ( 1.000000000000000000, 0.000000000000000000, 0.000000000000000000, 0.000000000000000000, 0.000000000000000000, 0.000000000000000000, 0.000000000000000000 ) ;
#102 = CLOSED_SHELL ( 'NONE', ( #6, #155, #132, #229 ) ) ;
#103 = CARTESIAN_POINT ( 'NONE',  ( 0.1875000000000000278, 3.000000000000000444, 0.000000000000000000 ) ) ;
#104 = FILL_AREA_STYLE ('',( #194 ) ) ;
#105 = CARTESIAN_POINT ( 'NONE',  ( 0.000000000000000000, 1.250000000000000000, 0.000000000000000000 ) ) ;
#106 = SURFACE_STYLE_FILL_AREA ( #221 ) ;
#107 = DIRECTION ( 'NONE',  ( 0.000000000000000000, 0.000000000000000000, -1.000000000000000000 ) ) ;
#108 = FILL_AREA_STYLE ('',( #112 ) ) ;
#109 = UNCERTAINTY_MEASURE_WITH_UNIT (LENGTH_MEASURE( 1.000000000000000082E-05 ), #298, 'distance_accuracy_value', 'NONE');
#110 = PRESENTATION_LAYER_ASSIGNMENT (  '', '', ( #240 ) ) ;
#111 = AXIS2_PLACEMENT_3D ( 'NONE', #243, #34, #107 ) ;
#112 = FILL_AREA_STYLE_COLOUR ( '', #49 ) ;
#113 = FILL_AREA_STYLE_COLOUR ( '', #193 ) ;
#114 = SURFACE_SIDE_STYLE ('',( #16 ) ) ;
#115 = APPLICATION_PROTOCOL_DEFINITION ( 'draft international standard', 'automotive_design', 1998, #209 ) ;
#116 =( NAMED_UNIT ( * ) PLANE_ANGLE_UNIT ( ) SI_UNIT ( $, .RADIAN. ) );
#117 =( GEOMETRIC_REPRESENTATION_CONTEXT ( 3 ) GLOBAL_UNCERTAINTY_ASSIGNED_CONTEXT ( ( #253 ) ) GLOBAL_UNIT_ASSIGNED_CONTEXT ( ( #5, #262, #271 ) ) REPRESENTATION_CONTEXT ( 'NONE', 'WORKASPACE' ) );
#118 = PRODUCT_DEFINITION_FORMATION_WITH_SPECIFIED_SOURCE ( 'ANY', '', #162, .NOT_KNOWN. ) ;
#119 = EDGE_CURVE ( 'NONE', #212, #232, #217, .T. ) ;
#120 = CYLINDRICAL_SURFACE ( 'NONE', #84, 0.1875000000000000278 ) ;
#121 = CARTESIAN_POINT ( 'NONE',  ( 0.000000000000000000, 1.250000000000000000, -0.1875000000000000278 ) ) ;
#122 = ORIENTED_EDGE ( 'NONE', *, *, #35, .F. ) ;
#123 = CARTESIAN_POINT ( 'NONE',  ( 0.000000000000000000, 0.000000000000000000, -0.1875000000000000278 ) ) ;
#124 =( CONVERSION_BASED_UNIT ( 'INCH', #235 ) LENGTH_UNIT ( ) NAMED_UNIT ( #147 ) );
#125 = DIMENSIONAL_EXPONENTS ( 1.000000000000000000, 0.000000000000000000, 0.000000000000000000, 0.000000000000000000, 0.000000000000000000, 0.000000000000000000, 0.000000000000000000 ) ;
#126 = CARTESIAN_POINT ( 'NONE',  ( 4.591101375495486296E-34, 1.250000000000000000, 0.000000000000000000 ) ) ;
#127 = LENGTH_MEASURE_WITH_UNIT ( LENGTH_MEASURE( 0.02539999999999999897 ), #87 );
#128 = MECHANICAL_DESIGN_GEOMETRIC_PRESENTATION_REPRESENTATION (  '', ( #240 ), #11 ) ;
#129 = CARTESIAN_POINT ( 'NONE',  ( -1.224646799147353700E-16, 3.000000000000000444, 0.000000000000000000 ) ) ;
#130 = PLANE ( 'NONE',  #149 ) ;
#131 = CARTESIAN_POINT ( 'NONE',  ( 0.000000000000000000, 0.000000000000000000, 0.000000000000000000 ) ) ;
#132 = ADVANCED_FACE ( 'NONE', ( #154 ), #41, .T. ) ;
#133 = CARTESIAN_POINT ( 'NONE',  ( 0.1875000000000000278, 1.250000000000000000, 2.296212748401288650E-17 ) ) ;
#134 = SURFACE_SIDE_STYLE ('',( #106 ) ) ;
#135 = MECHANICAL_DESIGN_GEOMETRIC_PRESENTATION_REPRESENTATION (  '', ( #231 ), #151 ) ;
#136 = PRESENTATION_LAYER_ASSIGNMENT (  '', '', ( #289 ) ) ;
#137 = DIRECTION ( 'NONE',  ( -1.000000000000000000, 0.000000000000000000, 0.000000000000000000 ) ) ;
#138 = CARTESIAN_POINT ( 'NONE',  ( 0.000000000000000000, 0.000000000000000000, 0.000000000000000000 ) ) ;
#139 = EDGE_CURVE ( 'NONE', #94, #169, #241, .T. ) ;
#140 = LENGTH_MEASURE_WITH_UNIT ( LENGTH_MEASURE( 0.02539999999999999897 ), #294 );
#141 = ORIENTED_EDGE ( 'NONE', *, *, #66, .F. ) ;
#142 = ADVANCED_FACE ( 'NONE', ( #182 ), #269, .T. ) ;
#143 = PRODUCT_DEFINITION_CONTEXT ( 'detailed design', #209, 'design' ) ;
#144 = ORIENTED_EDGE ( 'NONE', *, *, #139, .F. ) ;
#145 = EDGE_LOOP ( 'NONE', ( #122, #21, #280, #233 ) ) ;
#146 = CARTESIAN_POINT ( 'NONE',  ( -1.224646799147353700E-16, 3.000000000000000444, 0.000000000000000000 ) ) ;
#147 = DIMENSIONAL_EXPONENTS ( 1.000000000000000000, 0.000000000000000000, 0.000000000000000000, 0.000000000000000000, 0.000000000000000000, 0.000000000000000000, 0.000000000000000000 ) ;
#148 = SURFACE_STYLE_USAGE ( .BOTH. , #252 ) ;
#149 = AXIS2_PLACEMENT_3D ( 'NONE', #202, #223, #40 ) ;
#150 = DIRECTION ( 'NONE',  ( -0.000000000000000000, -1.000000000000000000, -0.000000000000000000 ) ) ;
#151 =( GEOMETRIC_REPRESENTATION_CONTEXT ( 3 ) GLOBAL_UNCERTAINTY_ASSIGNED_CONTEXT ( ( #24 ) ) GLOBAL_UNIT_ASSIGNED_CONTEXT ( ( #124, #20, #302 ) ) REPRESENTATION_CONTEXT ( 'NONE', 'WORKASPACE' ) );
#152 = DIRECTION ( 'NONE',  ( 1.000000000000000000, 6.997981709413449187E-17, 0.000000000000000000 ) ) ;
#153 = DIMENSIONAL_EXPONENTS ( 1.000000000000000000, 0.000000000000000000, 0.000000000000000000, 0.000000000000000000, 0.000000000000000000, 0.000000000000000000, 0.000000000000000000 ) ;
#154 = FACE_OUTER_BOUND ( 'NONE', #145, .T. ) ;
#155 = ADVANCED_FACE ( 'NONE', ( #30 ), #130, .T. ) ;
#156 = SURFACE_SIDE_STYLE ('',( #199 ) ) ;
#157 = CARTESIAN_POINT ( 'NONE',  ( -1.224646799147353700E-16, 3.000000000000000444, 0.000000000000000000 ) ) ;
#158 = CARTESIAN_POINT ( 'NONE',  ( 2.296212748401287726E-17, 0.000000000000000000, 0.1875000000000000278 ) ) ;
#159 = SURFACE_SIDE_STYLE ('',( #224 ) ) ;
#160 = DIRECTION ( 'NONE',  ( -6.997981709413449187E-17, 1.000000000000000000, -0.000000000000000000 ) ) ;
#161 = VECTOR ( 'NONE', #60, 39.37007874015748143 ) ;
#162 = PRODUCT ( '82269', '82269', '', ( #44 ) ) ;
#163 =( CONVERSION_BASED_UNIT ( 'INCH', #272 ) LENGTH_UNIT ( ) NAMED_UNIT ( #101 ) );
#164 = DIRECTION ( 'NONE',  ( -6.997981709413449187E-17, 1.000000000000000000, -0.000000000000000000 ) ) ;
#165 = FACE_OUTER_BOUND ( 'NONE', #256, .T. ) ;
#166 = MECHANICAL_DESIGN_GEOMETRIC_PRESENTATION_REPRESENTATION (  '', ( #305 ), #42 ) ;
#167 = PRESENTATION_STYLE_ASSIGNMENT (( #148 ) ) ;
#168 = FILL_AREA_STYLE_COLOUR ( '', #4 ) ;
#169 = VERTEX_POINT ( 'NONE', #158 ) ;
#170 = AXIS2_PLACEMENT_3D ( 'NONE', #157, #62, #64 ) ;
#171 = AXIS2_PLACEMENT_3D ( 'NONE', #138, #93, #250 ) ;
#172 = DIRECTION ( 'NONE',  ( -0.000000000000000000, -1.000000000000000000, -0.000000000000000000 ) ) ;
#173 = CARTESIAN_POINT ( 'NONE',  ( 0.000000000000000000, 0.000000000000000000, -0.1875000000000000278 ) ) ;
#174 = EDGE_CURVE ( 'NONE', #228, #190, #214, .T. ) ;
#175 =( LENGTH_UNIT ( ) NAMED_UNIT ( * ) SI_UNIT ( $, .METRE. ) );
#176 = DIRECTION ( 'NONE',  ( -1.000000000000000000, -6.997981709413449187E-17, 0.000000000000000000 ) ) ;
#177 = LENGTH_MEASURE_WITH_UNIT ( LENGTH_MEASURE( 0.02539999999999999897 ), #175 );
#178 = DIRECTION ( 'NONE',  ( -0.000000000000000000, -1.000000000000000000, -0.000000000000000000 ) ) ;
#179 = SURFACE_STYLE_USAGE ( .BOTH. , #156 ) ;
#180 = EDGE_CURVE ( 'NONE', #228, #232, #38, .T. ) ;
#181 = FACE_OUTER_BOUND ( 'NONE', #26, .T. ) ;
#182 = FACE_OUTER_BOUND ( 'NONE', #48, .T. ) ;
#183 = AXIS2_PLACEMENT_3D ( 'NONE', #72, #23, #52 ) ;
#184 = VECTOR ( 'NONE', #205, 39.37007874015748143 ) ;
#185 = ORIENTED_EDGE ( 'NONE', *, *, #180, .F. ) ;
#186 = DIRECTION ( 'NONE',  ( 0.000000000000000000, -1.000000000000000000, -0.000000000000000000 ) ) ;
#187 = ORIENTED_EDGE ( 'NONE', *, *, #35, .T. ) ;
#188 = AXIS2_PLACEMENT_3D ( 'NONE', #129, #261, #59 ) ;
#189 = MECHANICAL_DESIGN_GEOMETRIC_PRESENTATION_REPRESENTATION (  '', ( #267 ), #117 ) ;
#190 = VERTEX_POINT ( 'NONE', #133 ) ;
#191 = PRODUCT_DEFINITION ( 'UNKNOWN', '', #118, #143 ) ;
#192 = VERTEX_POINT ( 'NONE', #297 ) ;
#193 = COLOUR_RGB ( '',1.000000000000000000, 0.000000000000000000, 0.000000000000000000 ) ;
#194 = FILL_AREA_STYLE_COLOUR ( '', #57 ) ;
#195 = CIRCLE ( 'NONE', #248, 0.1875000000000000278 ) ;
#196 = LINE ( 'NONE', #260, #100 ) ;
#197 = SURFACE_SIDE_STYLE ('',( #237 ) ) ;
#198 = STYLED_ITEM ( 'NONE', ( #67 ), #204 ) ;
#199 = SURFACE_STYLE_FILL_AREA ( #104 ) ;
#200 = CARTESIAN_POINT ( 'NONE',  ( 0.000000000000000000, 1.250000000000000000, 0.000000000000000000 ) ) ;
#201 = DIRECTION ( 'NONE',  ( -0.000000000000000000, -1.000000000000000000, -0.000000000000000000 ) ) ;
#202 = CARTESIAN_POINT ( 'NONE',  ( 0.000000000000000000, 1.250000000000000000, 0.000000000000000000 ) ) ;
#203 = EDGE_CURVE ( 'NONE', #190, #228, #86, .T. ) ;
#204 = MANIFOLD_SOLID_BREP ( 'Revolve - Tool Body (Straight Shanked)', #292 ) ;
#205 = DIRECTION ( 'NONE',  ( -6.997981709413449187E-17, 1.000000000000000000, -0.000000000000000000 ) ) ;
#206 = MECHANICAL_DESIGN_GEOMETRIC_PRESENTATION_REPRESENTATION (  '', ( #198 ), #249 ) ;
#207 = ORIENTED_EDGE ( 'NONE', *, *, #119, .F. ) ;
#208 = PRESENTATION_STYLE_ASSIGNMENT (( #92 ) ) ;
#209 = APPLICATION_CONTEXT ( 'automotive_design' ) ;
#210 = ORIENTED_EDGE ( 'NONE', *, *, #203, .F. ) ;
#211 = UNCERTAINTY_MEASURE_WITH_UNIT (LENGTH_MEASURE( 1.000000000000000082E-05 ), #263, 'distance_accuracy_value', 'NONE');
#212 = VERTEX_POINT ( 'NONE', #247 ) ;
#213 = ORIENTED_EDGE ( 'NONE', *, *, #203, .T. ) ;
#214 = CIRCLE ( 'NONE', #36, 0.1875000000000000278 ) ;
#215 = LINE ( 'NONE', #123, #277 ) ;
#216 = EDGE_LOOP ( 'NONE', ( #236, #71 ) ) ;
#217 = CIRCLE ( 'NONE', #188, 0.1875000000000001388 ) ;
#218 = PRODUCT_RELATED_PRODUCT_CATEGORY ( 'part', '', ( #162 ) ) ;
#219 = PRESENTATION_LAYER_ASSIGNMENT (  '', '', ( #198 ) ) ;
#220 = LENGTH_MEASURE_WITH_UNIT ( LENGTH_MEASURE( 0.02539999999999999897 ), #295 );
#221 = FILL_AREA_STYLE ('',( #89 ) ) ;
#222 = SHAPE_DEFINITION_REPRESENTATION ( #47, #275 ) ;
#223 = DIRECTION ( 'NONE',  ( 0.000000000000000000, 1.000000000000000000, 0.000000000000000000 ) ) ;
#224 = SURFACE_STYLE_FILL_AREA ( #108 ) ;
#225 = CIRCLE ( 'NONE', #97, 0.1875000000000001388 ) ;
#226 = CARTESIAN_POINT ( 'NONE',  ( -0.1875000000000000278, 1.250000000000000000, 0.000000000000000000 ) ) ;
#227 = APPLICATION_PROTOCOL_DEFINITION ( 'draft international standard', 'automotive_design', 1998, #22 ) ;
#228 = VERTEX_POINT ( 'NONE', #226 ) ;
#229 = ADVANCED_FACE ( 'NONE', ( #181 ), #270, .T. ) ;
#230 =( LENGTH_UNIT ( ) NAMED_UNIT ( * ) SI_UNIT ( $, .METRE. ) );
#231 = STYLED_ITEM ( 'NONE', ( #208 ), #229 ) ;
#232 = VERTEX_POINT ( 'NONE', #259 ) ;
#233 = ORIENTED_EDGE ( 'NONE', *, *, #281, .F. ) ;
#234 = ORIENTED_EDGE ( 'NONE', *, *, #14, .F. ) ;
#235 = LENGTH_MEASURE_WITH_UNIT ( LENGTH_MEASURE( 0.02539999999999999897 ), #273 );
#236 = ORIENTED_EDGE ( 'NONE', *, *, #242, .T. ) ;
#237 = SURFACE_STYLE_FILL_AREA ( #56 ) ;
#238 = DIRECTION ( 'NONE',  ( 0.000000000000000000, 0.000000000000000000, -1.000000000000000000 ) ) ;
#239 = FACE_OUTER_BOUND ( 'NONE', #216, .T. ) ;
#240 = STYLED_ITEM ( 'NONE', ( #265 ), #132 ) ;
#241 = CIRCLE ( 'NONE', #25, 0.1875000000000000278 ) ;
#242 = EDGE_CURVE ( 'NONE', #232, #212, #225, .T. ) ;
#243 = CARTESIAN_POINT ( 'NONE',  ( 0.000000000000000000, 0.000000000000000000, 0.000000000000000000 ) ) ;
#244 =( CONVERSION_BASED_UNIT ( 'INCH', #220 ) LENGTH_UNIT ( ) NAMED_UNIT ( #282 ) );
#245 = ADVANCED_FACE ( 'NONE', ( #165 ), #54, .T. ) ;
#246 = DIRECTION ( 'NONE',  ( -1.000000000000000000, 0.000000000000000000, 0.000000000000000000 ) ) ;
#247 = CARTESIAN_POINT ( 'NONE',  ( 0.1875000000000000278, 3.000000000000000444, 2.296212748401288650E-17 ) ) ;
#248 = AXIS2_PLACEMENT_3D ( 'NONE', #80, #172, #28 ) ;
#249 =( GEOMETRIC_REPRESENTATION_CONTEXT ( 3 ) GLOBAL_UNCERTAINTY_ASSIGNED_CONTEXT ( ( #68 ) ) GLOBAL_UNIT_ASSIGNED_CONTEXT ( ( #45, #69, #12 ) ) REPRESENTATION_CONTEXT ( 'NONE', 'WORKASPACE' ) );
#250 = DIRECTION ( 'NONE',  ( 1.000000000000000000, 0.000000000000000000, 0.000000000000000000 ) ) ;
#251 = SURFACE_STYLE_USAGE ( .BOTH. , #134 ) ;
#252 = SURFACE_SIDE_STYLE ('',( #95 ) ) ;
#253 = UNCERTAINTY_MEASURE_WITH_UNIT (LENGTH_MEASURE( 1.000000000000000082E-05 ), #5, 'distance_accuracy_value', 'NONE');
#254 = ORIENTED_EDGE ( 'NONE', *, *, #242, .F. ) ;
#255 = EDGE_CURVE ( 'NONE', #299, #94, #215, .T. ) ;
#256 = EDGE_LOOP ( 'NONE', ( #141, #213, #18, #207 ) ) ;
#257 = CARTESIAN_POINT ( 'NONE',  ( 0.000000000000000000, 0.000000000000000000, 0.000000000000000000 ) ) ;
#258 = FILL_AREA_STYLE ('',( #168 ) ) ;
#259 = CARTESIAN_POINT ( 'NONE',  ( -0.1875000000000002776, 3.000000000000000444, 0.000000000000000000 ) ) ;
#260 = CARTESIAN_POINT ( 'NONE',  ( 2.296212748401287726E-17, 0.000000000000000000, 0.1875000000000000278 ) ) ;
#261 = DIRECTION ( 'NONE',  ( -6.997981709413449187E-17, 1.000000000000000000, -0.000000000000000000 ) ) ;
#262 =( NAMED_UNIT ( * ) PLANE_ANGLE_UNIT ( ) SI_UNIT ( $, .RADIAN. ) );
#263 =( CONVERSION_BASED_UNIT ( 'INCH', #177 ) LENGTH_UNIT ( ) NAMED_UNIT ( #153 ) );
#264 =( NAMED_UNIT ( * ) PLANE_ANGLE_UNIT ( ) SI_UNIT ( $, .RADIAN. ) );
#265 = PRESENTATION_STYLE_ASSIGNMENT (( #63 ) ) ;
#266 = AXIS2_PLACEMENT_3D ( 'NONE', #105, #58, #238 ) ;
#267 = STYLED_ITEM ( 'NONE', ( #81 ), #155 ) ;
#268 = FILL_AREA_STYLE ('',( #113 ) ) ;
#269 = CYLINDRICAL_SURFACE ( 'NONE', #170, 0.1875000000000000833 ) ;
#270 = PLANE ( 'NONE',  #61 ) ;
#271 =( NAMED_UNIT ( * ) SI_UNIT ( $, .STERADIAN. ) SOLID_ANGLE_UNIT ( ) );
#272 = LENGTH_MEASURE_WITH_UNIT ( LENGTH_MEASURE( 0.02539999999999999897 ), #75 );
#273 =( LENGTH_UNIT ( ) NAMED_UNIT ( * ) SI_UNIT ( $, .METRE. ) );
#274 = LENGTH_MEASURE_WITH_UNIT ( LENGTH_MEASURE( 0.02539999999999999897 ), #230 );
#275 = ADVANCED_BREP_SHAPE_REPRESENTATION ( '82269', ( #303, #204, #171 ), #306 ) ;
#276 = FACE_OUTER_BOUND ( 'NONE', #304, .T. ) ;
#277 = VECTOR ( 'NONE', #150, 39.37007874015748143 ) ;
#278 = DIRECTION ( 'NONE',  ( 0.000000000000000000, 0.000000000000000000, -1.000000000000000000 ) ) ;
#279 = ORIENTED_EDGE ( 'NONE', *, *, #281, .T. ) ;
#280 = ORIENTED_EDGE ( 'NONE', *, *, #255, .T. ) ;
#281 = EDGE_CURVE ( 'NONE', #169, #94, #37, .T. ) ;
#282 = DIMENSIONAL_EXPONENTS ( 1.000000000000000000, 0.000000000000000000, 0.000000000000000000, 0.000000000000000000, 0.000000000000000000, 0.000000000000000000, 0.000000000000000000 ) ;
#283 = DIRECTION ( 'NONE',  ( 0.000000000000000000, 0.000000000000000000, -1.000000000000000000 ) ) ;
#284 = AXIS2_PLACEMENT_3D ( 'NONE', #200, #91, #246 ) ;
#285 = AXIS2_PLACEMENT_3D ( 'NONE', #126, #82, #176 ) ;
#286 = LINE ( 'NONE', #9, #161 ) ;
#287 = DIRECTION ( 'NONE',  ( -0.000000000000000000, -1.000000000000000000, -0.000000000000000000 ) ) ;
#288 = CIRCLE ( 'NONE', #266, 0.1875000000000000278 ) ;
#289 = STYLED_ITEM ( 'NONE', ( #85 ), #303 ) ;
#290 = PLANE ( 'NONE',  #19 ) ;
#291 = DIRECTION ( 'NONE',  ( 0.000000000000000000, 0.000000000000000000, -1.000000000000000000 ) ) ;
#292 = CLOSED_SHELL ( 'NONE', ( #142, #88, #245, #29 ) ) ;
#293 =( NAMED_UNIT ( * ) SI_UNIT ( $, .STERADIAN. ) SOLID_ANGLE_UNIT ( ) );
#294 =( LENGTH_UNIT ( ) NAMED_UNIT ( * ) SI_UNIT ( $, .METRE. ) );
#295 =( LENGTH_UNIT ( ) NAMED_UNIT ( * ) SI_UNIT ( $, .METRE. ) );
#296 = UNCERTAINTY_MEASURE_WITH_UNIT (LENGTH_MEASURE( 1.000000000000000082E-05 ), #163, 'distance_accuracy_value', 'NONE');
#297 = CARTESIAN_POINT ( 'NONE',  ( 2.296212748401287726E-17, 1.250000000000000000, 0.1875000000000000278 ) ) ;
#298 =( CONVERSION_BASED_UNIT ( 'INCH', #274 ) LENGTH_UNIT ( ) NAMED_UNIT ( #301 ) );
#299 = VERTEX_POINT ( 'NONE', #121 ) ;
#300 = ORIENTED_EDGE ( 'NONE', *, *, #66, .T. ) ;
#301 = DIMENSIONAL_EXPONENTS ( 1.000000000000000000, 0.000000000000000000, 0.000000000000000000, 0.000000000000000000, 0.000000000000000000, 0.000000000000000000, 0.000000000000000000 ) ;
#302 =( NAMED_UNIT ( * ) SI_UNIT ( $, .STERADIAN. ) SOLID_ANGLE_UNIT ( ) );
#303 = MANIFOLD_SOLID_BREP ( 'Revolve - Cutting Edge', #102 ) ;
#304 = EDGE_LOOP ( 'NONE', ( #79, #187, #144, #309 ) ) ;
#305 = STYLED_ITEM ( 'NONE', ( #167 ), #6 ) ;
#306 =( GEOMETRIC_REPRESENTATION_CONTEXT ( 3 ) GLOBAL_UNCERTAINTY_ASSIGNED_CONTEXT ( ( #109 ) ) GLOBAL_UNIT_ASSIGNED_CONTEXT ( ( #298, #90, #293 ) ) REPRESENTATION_CONTEXT ( 'NONE', 'WORKASPACE' ) );
#307 = ORIENTED_EDGE ( 'NONE', *, *, #46, .F. ) ;
#308 = CARTESIAN_POINT ( 'NONE',  ( 0.000000000000000000, 0.000000000000000000, 0.000000000000000000 ) ) ;
#309 = ORIENTED_EDGE ( 'NONE', *, *, #255, .F. ) ;
ENDSEC;
END-ISO-10303-21;
