ISO-10303-21;
HEADER;
FILE_DESCRIPTION (( 'STEP AP214' ),
    '1' );
FILE_NAME ('59655.STEP',
    '2023-07-24T15:20:06',
    ( '' ),
    ( '' ),
    'SwSTEP 2.0',
    'SolidWorks 2023',
    '' );
FILE_SCHEMA (( 'AUTOMOTIVE_DESIGN' ));
ENDSEC;

DATA;
#1 = CARTESIAN_POINT ( 'NONE',  ( 0.000000000000000000, 16.00000000000000000, -4.000000000000000000 ) ) ;
#2 = PRESENTATION_STYLE_ASSIGNMENT (( #122 ) ) ;
#3 = DIRECTION ( 'NONE',  ( 0.000000000000000000, 0.000000000000000000, -1.000000000000000000 ) ) ;
#4 = EDGE_CURVE ( 'NONE', #52, #169, #264, .T. ) ;
#5 = CARTESIAN_POINT ( 'NONE',  ( 3.184081677783117402E-15, 63.00000000000000000, 0.000000000000000000 ) ) ;
#6 =( GEOMETRIC_REPRESENTATION_CONTEXT ( 3 ) GLOBAL_UNCERTAINTY_ASSIGNED_CONTEXT ( ( #343 ) ) GLOBAL_UNIT_ASSIGNED_CONTEXT ( ( #321, #75, #72 ) ) REPRESENTATION_CONTEXT ( 'NONE', 'WORKASPACE' ) );
#7 = DIRECTION ( 'NONE',  ( -0.000000000000000000, -1.000000000000000000, -0.000000000000000000 ) ) ;
#8 = UNCERTAINTY_MEASURE_WITH_UNIT (LENGTH_MEASURE( 1.000000000000000082E-05 ), #156, 'distance_accuracy_value', 'NONE');
#9 =( NAMED_UNIT ( * ) PLANE_ANGLE_UNIT ( ) SI_UNIT ( $, .RADIAN. ) );
#10 =( LENGTH_UNIT ( ) NAMED_UNIT ( * ) SI_UNIT ( .MILLI., .METRE. ) );
#11 = AXIS2_PLACEMENT_3D ( 'NONE', #354, #104, #220 ) ;
#12 = APPLICATION_PROTOCOL_DEFINITION ( 'draft international standard', 'automotive_design', 1998, #134 ) ;
#13 = FACE_OUTER_BOUND ( 'NONE', #284, .T. ) ;
#14 = ADVANCED_BREP_SHAPE_REPRESENTATION ( '59655', ( #170, #318, #298 ), #94 ) ;
#15 = ADVANCED_FACE ( 'NONE', ( #148 ), #176, .F. ) ;
#16 = ORIENTED_EDGE ( 'NONE', *, *, #196, .F. ) ;
#17 = CIRCLE ( 'NONE', #206, 3.000000000000000000 ) ;
#18 = PRODUCT_DEFINITION_FORMATION_WITH_SPECIFIED_SOURCE ( 'ANY', '', #307, .NOT_KNOWN. ) ;
#19 =( NAMED_UNIT ( * ) PLANE_ANGLE_UNIT ( ) SI_UNIT ( $, .RADIAN. ) );
#20 = ORIENTED_EDGE ( 'NONE', *, *, #247, .F. ) ;
#21 = ORIENTED_EDGE ( 'NONE', *, *, #84, .F. ) ;
#22 = DIRECTION ( 'NONE',  ( -0.000000000000000000, -1.000000000000000000, -0.000000000000000000 ) ) ;
#23 = DIRECTION ( 'NONE',  ( -1.000000000000000000, -5.682149050294907483E-17, 0.000000000000000000 ) ) ;
#24 = AXIS2_PLACEMENT_3D ( 'NONE', #99, #7, #3 ) ;
#25 = PRESENTATION_LAYER_ASSIGNMENT (  '', '', ( #336 ) ) ;
#26 = EDGE_CURVE ( 'NONE', #303, #228, #117, .T. ) ;
#27 = CARTESIAN_POINT ( 'NONE',  ( 4.000000000000000000, 16.00000000000000000, 4.898587196589407898E-16 ) ) ;
#28 = APPLICATION_CONTEXT ( 'automotive_design' ) ;
#29 =( GEOMETRIC_REPRESENTATION_CONTEXT ( 3 ) GLOBAL_UNCERTAINTY_ASSIGNED_CONTEXT ( ( #180 ) ) GLOBAL_UNIT_ASSIGNED_CONTEXT ( ( #159, #296, #68 ) ) REPRESENTATION_CONTEXT ( 'NONE', 'WORKASPACE' ) );
#30 = PRESENTATION_LAYER_ASSIGNMENT (  '', '', ( #233 ) ) ;
#31 = FILL_AREA_STYLE ('',( #120 ) ) ;
#32 = CARTESIAN_POINT ( 'NONE',  ( 3.673940397442059868E-16, 1.000000000000000000, 3.000000000000000000 ) ) ;
#33 = DIRECTION ( 'NONE',  ( -1.000000000000000000, 0.000000000000000000, 0.000000000000000000 ) ) ;
#34 =( LENGTH_UNIT ( ) NAMED_UNIT ( * ) SI_UNIT ( .MILLI., .METRE. ) );
#35 =( LENGTH_UNIT ( ) NAMED_UNIT ( * ) SI_UNIT ( .MILLI., .METRE. ) );
#36 = CARTESIAN_POINT ( 'NONE',  ( 0.000000000000000000, 1.000000000000000000, 0.000000000000000000 ) ) ;
#37 =( NAMED_UNIT ( * ) PLANE_ANGLE_UNIT ( ) SI_UNIT ( $, .RADIAN. ) );
#38 =( NAMED_UNIT ( * ) PLANE_ANGLE_UNIT ( ) SI_UNIT ( $, .RADIAN. ) );
#39 = DIRECTION ( 'NONE',  ( -1.000000000000000000, 0.000000000000000000, 0.000000000000000000 ) ) ;
#40 = CIRCLE ( 'NONE', #338, 1.000000000000000000 ) ;
#41 = DIRECTION ( 'NONE',  ( -5.682149050294907483E-17, 1.000000000000000000, -0.000000000000000000 ) ) ;
#42 = COLOUR_RGB ( '',0.7921568627450980005, 0.8196078431372548767, 0.9333333333333333481 ) ;
#43 = CYLINDRICAL_SURFACE ( 'NONE', #149, 3.999999999999994671 ) ;
#44 = SURFACE_STYLE_FILL_AREA ( #319 ) ;
#45 = DIRECTION ( 'NONE',  ( 0.000000000000000000, 0.000000000000000000, -1.000000000000000000 ) ) ;
#46 = FILL_AREA_STYLE_COLOUR ( '', #249 ) ;
#47 = ORIENTED_EDGE ( 'NONE', *, *, #143, .T. ) ;
#48 = SURFACE_SIDE_STYLE ('',( #168 ) ) ;
#49 = VERTEX_POINT ( 'NONE', #261 ) ;
#50 = PRESENTATION_LAYER_ASSIGNMENT (  '', '', ( #97 ) ) ;
#51 = AXIS2_PLACEMENT_3D ( 'NONE', #139, #364, #257 ) ;
#52 = VERTEX_POINT ( 'NONE', #361 ) ;
#53 = VECTOR ( 'NONE', #203, 1000.000000000000000 ) ;
#54 = EDGE_LOOP ( 'NONE', ( #236, #254, #16, #20 ) ) ;
#55 = CARTESIAN_POINT ( 'NONE',  ( 3.999999999999998224, 63.00000000000000000, 4.898587196589406912E-16 ) ) ;
#56 = AXIS2_PLACEMENT_3D ( 'NONE', #193, #359, #191 ) ;
#57 = EDGE_CURVE ( 'NONE', #299, #169, #367, .T. ) ;
#58 = DIRECTION ( 'NONE',  ( -1.224646799147352961E-16, 0.000000000000000000, -1.000000000000000000 ) ) ;
#59 = CARTESIAN_POINT ( 'NONE',  ( 3.184081677783117402E-15, 63.00000000000000000, 0.000000000000000000 ) ) ;
#60 = AXIS2_PLACEMENT_3D ( 'NONE', #347, #62, #205 ) ;
#61 = FACE_OUTER_BOUND ( 'NONE', #252, .T. ) ;
#62 = DIRECTION ( 'NONE',  ( -5.682149050294907483E-17, 1.000000000000000000, -0.000000000000000000 ) ) ;
#63 = DIRECTION ( 'NONE',  ( 0.000000000000000000, 0.000000000000000000, 1.000000000000000000 ) ) ;
#64 =( NAMED_UNIT ( * ) SI_UNIT ( $, .STERADIAN. ) SOLID_ANGLE_UNIT ( ) );
#65 = PRESENTATION_LAYER_ASSIGNMENT (  '', '', ( #98 ) ) ;
#66 = ADVANCED_FACE ( 'NONE', ( #179 ), #110, .T. ) ;
#67 = FACE_OUTER_BOUND ( 'NONE', #136, .T. ) ;
#68 =( NAMED_UNIT ( * ) SI_UNIT ( $, .STERADIAN. ) SOLID_ANGLE_UNIT ( ) );
#69 = SURFACE_STYLE_USAGE ( .BOTH. , #218 ) ;
#70 = ORIENTED_EDGE ( 'NONE', *, *, #165, .T. ) ;
#71 = FILL_AREA_STYLE_COLOUR ( '', #355 ) ;
#72 =( NAMED_UNIT ( * ) SI_UNIT ( $, .STERADIAN. ) SOLID_ANGLE_UNIT ( ) );
#73 = CYLINDRICAL_SURFACE ( 'NONE', #56, 4.000000000000000000 ) ;
#74 = MECHANICAL_DESIGN_GEOMETRIC_PRESENTATION_REPRESENTATION (  '', ( #282 ), #183 ) ;
#75 =( NAMED_UNIT ( * ) PLANE_ANGLE_UNIT ( ) SI_UNIT ( $, .RADIAN. ) );
#76 = MECHANICAL_DESIGN_GEOMETRIC_PRESENTATION_REPRESENTATION (  '', ( #128 ), #6 ) ;
#77 = PRESENTATION_STYLE_ASSIGNMENT (( #322 ) ) ;
#78 = ORIENTED_EDGE ( 'NONE', *, *, #137, .T. ) ;
#79 = CARTESIAN_POINT ( 'NONE',  ( 0.000000000000000000, 0.000000000000000000, 0.000000000000000000 ) ) ;
#80 = EDGE_LOOP ( 'NONE', ( #327, #106 ) ) ;
#81 = EDGE_CURVE ( 'NONE', #169, #52, #279, .T. ) ;
#82 = COLOUR_RGB ( '',1.000000000000000000, 0.000000000000000000, 0.000000000000000000 ) ;
#83 = AXIS2_PLACEMENT_3D ( 'NONE', #243, #320, #45 ) ;
#84 = EDGE_CURVE ( 'NONE', #49, #103, #297, .T. ) ;
#85 = VERTEX_POINT ( 'NONE', #266 ) ;
#86 = AXIS2_PLACEMENT_3D ( 'NONE', #186, #291, #124 ) ;
#87 = SURFACE_STYLE_FILL_AREA ( #334 ) ;
#88 =( LENGTH_UNIT ( ) NAMED_UNIT ( * ) SI_UNIT ( .MILLI., .METRE. ) );
#89 = ADVANCED_FACE ( 'NONE', ( #157 ), #304, .T. ) ;
#90 = DIRECTION ( 'NONE',  ( -0.000000000000000000, -1.000000000000000000, -0.000000000000000000 ) ) ;
#91 = EDGE_CURVE ( 'NONE', #228, #49, #238, .T. ) ;
#92 = DIRECTION ( 'NONE',  ( 0.000000000000000000, -0.000000000000000000, 1.000000000000000000 ) ) ;
#93 = MECHANICAL_DESIGN_GEOMETRIC_PRESENTATION_REPRESENTATION (  '', ( #233 ), #194 ) ;
#94 =( GEOMETRIC_REPRESENTATION_CONTEXT ( 3 ) GLOBAL_UNCERTAINTY_ASSIGNED_CONTEXT ( ( #112 ) ) GLOBAL_UNIT_ASSIGNED_CONTEXT ( ( #10, #314, #64 ) ) REPRESENTATION_CONTEXT ( 'NONE', 'WORKASPACE' ) );
#95 = CARTESIAN_POINT ( 'NONE',  ( 0.000000000000000000, 0.000000000000000000, -4.000000000000000000 ) ) ;
#96 = DIRECTION ( 'NONE',  ( -0.000000000000000000, -1.000000000000000000, -0.000000000000000000 ) ) ;
#97 = STYLED_ITEM ( 'NONE', ( #2 ), #89 ) ;
#98 = STYLED_ITEM ( 'NONE', ( #160 ), #318 ) ;
#99 = CARTESIAN_POINT ( 'NONE',  ( 0.000000000000000000, 0.000000000000000000, 0.000000000000000000 ) ) ;
#100 = FILL_AREA_STYLE ('',( #295 ) ) ;
#101 = PRESENTATION_STYLE_ASSIGNMENT (( #69 ) ) ;
#102 = SHAPE_DEFINITION_REPRESENTATION ( #138, #14 ) ;
#103 = VERTEX_POINT ( 'NONE', #317 ) ;
#104 = DIRECTION ( 'NONE',  ( -0.000000000000000000, -1.000000000000000000, -0.000000000000000000 ) ) ;
#105 = DIRECTION ( 'NONE',  ( -1.000000000000000000, 0.000000000000000000, 0.000000000000000000 ) ) ;
#106 = ORIENTED_EDGE ( 'NONE', *, *, #135, .F. ) ;
#107 = PRESENTATION_STYLE_ASSIGNMENT (( #253 ) ) ;
#108 = VERTEX_POINT ( 'NONE', #245 ) ;
#109 = COLOUR_RGB ( '',0.7921568627450980005, 0.8196078431372548767, 0.9333333333333333481 ) ;
#110 = PLANE ( 'NONE',  #332 ) ;
#111 = ADVANCED_FACE ( 'NONE', ( #267 ), #340, .T. ) ;
#112 = UNCERTAINTY_MEASURE_WITH_UNIT (LENGTH_MEASURE( 1.000000000000000082E-05 ), #10, 'distance_accuracy_value', 'NONE');
#113 =( NAMED_UNIT ( * ) SI_UNIT ( $, .STERADIAN. ) SOLID_ANGLE_UNIT ( ) );
#114 = DIRECTION ( 'NONE',  ( -5.682149050294907483E-17, 1.000000000000000000, -0.000000000000000000 ) ) ;
#115 = CIRCLE ( 'NONE', #171, 4.000000000000000000 ) ;
#116 = AXIS2_PLACEMENT_3D ( 'NONE', #311, #357, #280 ) ;
#117 = CIRCLE ( 'NONE', #51, 4.000000000000000000 ) ;
#118 = PRESENTATION_LAYER_ASSIGNMENT (  '', '', ( #282 ) ) ;
#119 = DIRECTION ( 'NONE',  ( -1.000000000000000000, 0.000000000000000000, 0.000000000000000000 ) ) ;
#120 = FILL_AREA_STYLE_COLOUR ( '', #82 ) ;
#121 = AXIS2_PLACEMENT_3D ( 'NONE', #185, #96, #273 ) ;
#122 = SURFACE_STYLE_USAGE ( .BOTH. , #152 ) ;
#123 = ADVANCED_FACE ( 'NONE', ( #67 ), #216, .T. ) ;
#124 = DIRECTION ( 'NONE',  ( -1.000000000000000000, 0.000000000000000000, 0.000000000000000000 ) ) ;
#125 = SURFACE_SIDE_STYLE ('',( #211 ) ) ;
#126 = AXIS2_PLACEMENT_3D ( 'NONE', #289, #33, #153 ) ;
#127 = DIRECTION ( 'NONE',  ( 1.000000000000000000, 0.000000000000000000, 0.000000000000000000 ) ) ;
#128 = STYLED_ITEM ( 'NONE', ( #77 ), #328 ) ;
#129 = PRODUCT_CONTEXT ( 'NONE', #134, 'mechanical' ) ;
#130 = CARTESIAN_POINT ( 'NONE',  ( 0.000000000000000000, 16.00000000000000000, 0.000000000000000000 ) ) ;
#131 = EDGE_LOOP ( 'NONE', ( #278, #78, #201, #173 ) ) ;
#132 = EDGE_LOOP ( 'NONE', ( #305, #258, #356, #300 ) ) ;
#133 = PRESENTATION_LAYER_ASSIGNMENT (  '', '', ( #128 ) ) ;
#134 = APPLICATION_CONTEXT ( 'automotive_design' ) ;
#135 = EDGE_CURVE ( 'NONE', #299, #108, #370, .T. ) ;
#136 = EDGE_LOOP ( 'NONE', ( #353, #337, #21, #323 ) ) ;
#137 = EDGE_CURVE ( 'NONE', #85, #197, #263, .T. ) ;
#138 = PRODUCT_DEFINITION_SHAPE ( 'NONE', 'NONE',  #331 ) ;
#139 = CARTESIAN_POINT ( 'NONE',  ( 0.000000000000000000, 1.000000000000000000, 0.000000000000000000 ) ) ;
#140 = ORIENTED_EDGE ( 'NONE', *, *, #137, .F. ) ;
#141 = UNCERTAINTY_MEASURE_WITH_UNIT (LENGTH_MEASURE( 1.000000000000000082E-05 ), #35, 'distance_accuracy_value', 'NONE');
#142 = DIRECTION ( 'NONE',  ( 0.000000000000000000, 0.000000000000000000, -1.000000000000000000 ) ) ;
#143 = EDGE_CURVE ( 'NONE', #103, #49, #17, .T. ) ;
#144 = FILL_AREA_STYLE_COLOUR ( '', #109 ) ;
#145 = SURFACE_STYLE_USAGE ( .BOTH. , #202 ) ;
#146 =( NAMED_UNIT ( * ) PLANE_ANGLE_UNIT ( ) SI_UNIT ( $, .RADIAN. ) );
#147 = CARTESIAN_POINT ( 'NONE',  ( 4.000000000000000000, 63.00000000000000000, 0.000000000000000000 ) ) ;
#148 = FACE_OUTER_BOUND ( 'NONE', #80, .T. ) ;
#149 = AXIS2_PLACEMENT_3D ( 'NONE', #59, #345, #39 ) ;
#150 = EDGE_CURVE ( 'NONE', #197, #85, #115, .T. ) ;
#151 = MECHANICAL_DESIGN_GEOMETRIC_PRESENTATION_REPRESENTATION (  '', ( #316 ), #346 ) ;
#152 = SURFACE_SIDE_STYLE ('',( #217 ) ) ;
#153 = DIRECTION ( 'NONE',  ( 0.000000000000000000, 0.000000000000000000, 1.000000000000000000 ) ) ;
#154 = FACE_OUTER_BOUND ( 'NONE', #131, .T. ) ;
#155 = CARTESIAN_POINT ( 'NONE',  ( -3.999999999999991562, 63.00000000000000000, 0.000000000000000000 ) ) ;
#156 =( LENGTH_UNIT ( ) NAMED_UNIT ( * ) SI_UNIT ( .MILLI., .METRE. ) );
#157 = FACE_OUTER_BOUND ( 'NONE', #132, .T. ) ;
#158 = UNCERTAINTY_MEASURE_WITH_UNIT (LENGTH_MEASURE( 1.000000000000000082E-05 ), #34, 'distance_accuracy_value', 'NONE');
#159 =( LENGTH_UNIT ( ) NAMED_UNIT ( * ) SI_UNIT ( .MILLI., .METRE. ) );
#160 = PRESENTATION_STYLE_ASSIGNMENT (( #277 ) ) ;
#161 = AXIS2_PLACEMENT_3D ( 'NONE', #36, #22, #142 ) ;
#162 =( NAMED_UNIT ( * ) SI_UNIT ( $, .STERADIAN. ) SOLID_ANGLE_UNIT ( ) );
#163 = CARTESIAN_POINT ( 'NONE',  ( 0.000000000000000000, 16.00000000000000000, 0.000000000000000000 ) ) ;
#164 = COLOUR_RGB ( '',1.000000000000000000, 0.000000000000000000, 0.000000000000000000 ) ;
#165 = EDGE_CURVE ( 'NONE', #108, #52, #293, .T. ) ;
#166 =( NAMED_UNIT ( * ) SI_UNIT ( $, .STERADIAN. ) SOLID_ANGLE_UNIT ( ) );
#167 = EDGE_LOOP ( 'NONE', ( #226, #140 ) ) ;
#168 = SURFACE_STYLE_FILL_AREA ( #100 ) ;
#169 = VERTEX_POINT ( 'NONE', #315 ) ;
#170 = MANIFOLD_SOLID_BREP ( 'Revolve - Cutting Edge', #184 ) ;
#171 = AXIS2_PLACEMENT_3D ( 'NONE', #163, #240, #268 ) ;
#172 =( GEOMETRIC_REPRESENTATION_CONTEXT ( 3 ) GLOBAL_UNCERTAINTY_ASSIGNED_CONTEXT ( ( #141 ) ) GLOBAL_UNIT_ASSIGNED_CONTEXT ( ( #35, #37, #162 ) ) REPRESENTATION_CONTEXT ( 'NONE', 'WORKASPACE' ) );
#173 = ORIENTED_EDGE ( 'NONE', *, *, #26, .F. ) ;
#174 = PRODUCT_DEFINITION_CONTEXT ( 'detailed design', #28, 'design' ) ;
#175 = SURFACE_SIDE_STYLE ('',( #269 ) ) ;
#176 = PLANE ( 'NONE',  #281 ) ;
#177 = ORIENTED_EDGE ( 'NONE', *, *, #4, .F. ) ;
#178 = CARTESIAN_POINT ( 'NONE',  ( 0.000000000000000000, 1.000000000000000000, -4.000000000000000000 ) ) ;
#179 = FACE_OUTER_BOUND ( 'NONE', #167, .T. ) ;
#180 = UNCERTAINTY_MEASURE_WITH_UNIT (LENGTH_MEASURE( 1.000000000000000082E-05 ), #159, 'distance_accuracy_value', 'NONE');
#181 = DIRECTION ( 'NONE',  ( 1.000000000000000000, 5.682149050294907483E-17, 0.000000000000000000 ) ) ;
#182 =( NAMED_UNIT ( * ) SI_UNIT ( $, .STERADIAN. ) SOLID_ANGLE_UNIT ( ) );
#183 =( GEOMETRIC_REPRESENTATION_CONTEXT ( 3 ) GLOBAL_UNCERTAINTY_ASSIGNED_CONTEXT ( ( #8 ) ) GLOBAL_UNIT_ASSIGNED_CONTEXT ( ( #156, #9, #294 ) ) REPRESENTATION_CONTEXT ( 'NONE', 'WORKASPACE' ) );
#184 = CLOSED_SHELL ( 'NONE', ( #308, #123, #328, #89, #368, #66 ) ) ;
#185 = CARTESIAN_POINT ( 'NONE',  ( 0.000000000000000000, 1.000000000000000000, 0.000000000000000000 ) ) ;
#186 = CARTESIAN_POINT ( 'NONE',  ( 3.184081677783117402E-15, 63.00000000000000000, 0.000000000000000000 ) ) ;
#187 = PRESENTATION_STYLE_ASSIGNMENT (( #312 ) ) ;
#188 = UNCERTAINTY_MEASURE_WITH_UNIT (LENGTH_MEASURE( 1.000000000000000082E-05 ), #333, 'distance_accuracy_value', 'NONE');
#189 = FILL_AREA_STYLE_COLOUR ( '', #285 ) ;
#190 = FACE_OUTER_BOUND ( 'NONE', #227, .T. ) ;
#191 = DIRECTION ( 'NONE',  ( 0.000000000000000000, 0.000000000000000000, -1.000000000000000000 ) ) ;
#192 = FILL_AREA_STYLE ('',( #71 ) ) ;
#193 = CARTESIAN_POINT ( 'NONE',  ( 0.000000000000000000, 0.000000000000000000, 0.000000000000000000 ) ) ;
#194 =( GEOMETRIC_REPRESENTATION_CONTEXT ( 3 ) GLOBAL_UNCERTAINTY_ASSIGNED_CONTEXT ( ( #242 ) ) GLOBAL_UNIT_ASSIGNED_CONTEXT ( ( #88, #146, #113 ) ) REPRESENTATION_CONTEXT ( 'NONE', 'WORKASPACE' ) );
#195 = ORIENTED_EDGE ( 'NONE', *, *, #81, .T. ) ;
#196 = EDGE_CURVE ( 'NONE', #228, #303, #310, .T. ) ;
#197 = VERTEX_POINT ( 'NONE', #1 ) ;
#198 = COLOUR_RGB ( '',1.000000000000000000, 0.000000000000000000, 0.000000000000000000 ) ;
#199 = VECTOR ( 'NONE', #114, 1000.000000000000000 ) ;
#200 = AXIS2_PLACEMENT_3D ( 'NONE', #262, #369, #119 ) ;
#201 = ORIENTED_EDGE ( 'NONE', *, *, #247, .T. ) ;
#202 = SURFACE_SIDE_STYLE ('',( #87 ) ) ;
#203 = DIRECTION ( 'NONE',  ( -0.000000000000000000, -1.000000000000000000, -0.000000000000000000 ) ) ;
#204 = CARTESIAN_POINT ( 'NONE',  ( 5.854691731421723944E-15, 16.00000000000000000, 0.000000000000000000 ) ) ;
#205 = DIRECTION ( 'NONE',  ( -1.000000000000000000, 0.000000000000000000, 0.000000000000000000 ) ) ;
#206 = AXIS2_PLACEMENT_3D ( 'NONE', #79, #209, #219 ) ;
#207 = MECHANICAL_DESIGN_GEOMETRIC_PRESENTATION_REPRESENTATION (  '', ( #306 ), #234 ) ;
#208 = EDGE_CURVE ( 'NONE', #303, #103, #40, .T. ) ;
#209 = DIRECTION ( 'NONE',  ( -0.000000000000000000, -1.000000000000000000, -0.000000000000000000 ) ) ;
#210 = PLANE ( 'NONE',  #116 ) ;
#211 = SURFACE_STYLE_FILL_AREA ( #241 ) ;
#212 = PRESENTATION_STYLE_ASSIGNMENT (( #246 ) ) ;
#213 = CARTESIAN_POINT ( 'NONE',  ( 0.000000000000000000, 16.00000000000000000, 0.000000000000000000 ) ) ;
#214 = AXIS2_PLACEMENT_3D ( 'NONE', #130, #325, #225 ) ;
#215 = MECHANICAL_DESIGN_GEOMETRIC_PRESENTATION_REPRESENTATION (  '', ( #336 ), #172 ) ;
#216 = TOROIDAL_SURFACE ( 'NONE', #11, 3.000000000000000000, 1.000000000000000000 ) ;
#217 = SURFACE_STYLE_FILL_AREA ( #31 ) ;
#218 = SURFACE_SIDE_STYLE ('',( #44 ) ) ;
#219 = DIRECTION ( 'NONE',  ( 0.000000000000000000, 0.000000000000000000, -1.000000000000000000 ) ) ;
#220 = DIRECTION ( 'NONE',  ( 0.000000000000000000, 0.000000000000000000, -1.000000000000000000 ) ) ;
#221 = ORIENTED_EDGE ( 'NONE', *, *, #301, .T. ) ;
#222 = SURFACE_STYLE_FILL_AREA ( #350 ) ;
#223 = FACE_OUTER_BOUND ( 'NONE', #54, .T. ) ;
#224 = ORIENTED_EDGE ( 'NONE', *, *, #84, .T. ) ;
#225 = DIRECTION ( 'NONE',  ( 0.000000000000000000, 0.000000000000000000, -1.000000000000000000 ) ) ;
#226 = ORIENTED_EDGE ( 'NONE', *, *, #150, .F. ) ;
#227 = EDGE_LOOP ( 'NONE', ( #224, #47 ) ) ;
#228 = VERTEX_POINT ( 'NONE', #178 ) ;
#229 = AXIS2_PLACEMENT_3D ( 'NONE', #270, #41, #275 ) ;
#230 = FILL_AREA_STYLE_COLOUR ( '', #198 ) ;
#231 = EDGE_CURVE ( 'NONE', #85, #303, #309, .T. ) ;
#232 = LINE ( 'NONE', #95, #53 ) ;
#233 = STYLED_ITEM ( 'NONE', ( #260 ), #66 ) ;
#234 =( GEOMETRIC_REPRESENTATION_CONTEXT ( 3 ) GLOBAL_UNCERTAINTY_ASSIGNED_CONTEXT ( ( #313 ) ) GLOBAL_UNIT_ASSIGNED_CONTEXT ( ( #326, #38, #166 ) ) REPRESENTATION_CONTEXT ( 'NONE', 'WORKASPACE' ) );
#235 = CLOSED_SHELL ( 'NONE', ( #111, #15, #358, #272 ) ) ;
#236 = ORIENTED_EDGE ( 'NONE', *, *, #150, .T. ) ;
#237 =( NAMED_UNIT ( * ) PLANE_ANGLE_UNIT ( ) SI_UNIT ( $, .RADIAN. ) );
#238 = CIRCLE ( 'NONE', #126, 1.000000000000000000 ) ;
#239 = SURFACE_SIDE_STYLE ('',( #271 ) ) ;
#240 = DIRECTION ( 'NONE',  ( -0.000000000000000000, -1.000000000000000000, -0.000000000000000000 ) ) ;
#241 = FILL_AREA_STYLE ('',( #189 ) ) ;
#242 = UNCERTAINTY_MEASURE_WITH_UNIT (LENGTH_MEASURE( 1.000000000000000082E-05 ), #88, 'distance_accuracy_value', 'NONE');
#243 = CARTESIAN_POINT ( 'NONE',  ( 0.000000000000000000, 0.000000000000000000, 0.000000000000000000 ) ) ;
#244 = DIRECTION ( 'NONE',  ( -5.682149050294907483E-17, 1.000000000000000000, -0.000000000000000000 ) ) ;
#245 = CARTESIAN_POINT ( 'NONE',  ( -3.999999999999988010, 16.00000000000000000, 0.000000000000000000 ) ) ;
#246 = SURFACE_STYLE_USAGE ( .BOTH. , #239 ) ;
#247 = EDGE_CURVE ( 'NONE', #197, #228, #232, .T. ) ;
#248 = MECHANICAL_DESIGN_GEOMETRIC_PRESENTATION_REPRESENTATION (  '', ( #97 ), #274 ) ;
#249 = COLOUR_RGB ( '',1.000000000000000000, 0.000000000000000000, 0.000000000000000000 ) ;
#250 = CARTESIAN_POINT ( 'NONE',  ( 0.000000000000000000, 0.000000000000000000, 0.000000000000000000 ) ) ;
#251 = FILL_AREA_STYLE_COLOUR ( '', #164 ) ;
#252 = EDGE_LOOP ( 'NONE', ( #329, #195 ) ) ;
#253 = SURFACE_STYLE_USAGE ( .BOTH. , #175 ) ;
#254 = ORIENTED_EDGE ( 'NONE', *, *, #231, .T. ) ;
#255 = ORIENTED_EDGE ( 'NONE', *, *, #57, .F. ) ;
#256 =( NAMED_UNIT ( * ) SI_UNIT ( $, .STERADIAN. ) SOLID_ANGLE_UNIT ( ) );
#257 = DIRECTION ( 'NONE',  ( 0.000000000000000000, 0.000000000000000000, -1.000000000000000000 ) ) ;
#258 = ORIENTED_EDGE ( 'NONE', *, *, #26, .T. ) ;
#259 = VECTOR ( 'NONE', #90, 1000.000000000000000 ) ;
#260 = PRESENTATION_STYLE_ASSIGNMENT (( #145 ) ) ;
#261 = CARTESIAN_POINT ( 'NONE',  ( 0.000000000000000000, 0.000000000000000000, -3.000000000000000000 ) ) ;
#262 = CARTESIAN_POINT ( 'NONE',  ( 5.854691731421723944E-15, 16.00000000000000000, 0.000000000000000000 ) ) ;
#263 = CIRCLE ( 'NONE', #214, 4.000000000000000000 ) ;
#264 = CIRCLE ( 'NONE', #324, 3.999999999999996447 ) ;
#265 = AXIS2_PLACEMENT_3D ( 'NONE', #147, #366, #181 ) ;
#266 = CARTESIAN_POINT ( 'NONE',  ( 4.898587196589412829E-16, 16.00000000000000000, 4.000000000000000000 ) ) ;
#267 = FACE_OUTER_BOUND ( 'NONE', #330, .T. ) ;
#268 = DIRECTION ( 'NONE',  ( 0.000000000000000000, 0.000000000000000000, -1.000000000000000000 ) ) ;
#269 = SURFACE_STYLE_FILL_AREA ( #339 ) ;
#270 = CARTESIAN_POINT ( 'NONE',  ( 5.854691731421723944E-15, 16.00000000000000000, 0.000000000000000000 ) ) ;
#271 = SURFACE_STYLE_FILL_AREA ( #192 ) ;
#272 = ADVANCED_FACE ( 'NONE', ( #61 ), #286, .F. ) ;
#273 = DIRECTION ( 'NONE',  ( 0.000000000000000000, 0.000000000000000000, -1.000000000000000000 ) ) ;
#274 =( GEOMETRIC_REPRESENTATION_CONTEXT ( 3 ) GLOBAL_UNCERTAINTY_ASSIGNED_CONTEXT ( ( #158 ) ) GLOBAL_UNIT_ASSIGNED_CONTEXT ( ( #34, #237, #182 ) ) REPRESENTATION_CONTEXT ( 'NONE', 'WORKASPACE' ) );
#275 = DIRECTION ( 'NONE',  ( -1.000000000000000000, 0.000000000000000000, 0.000000000000000000 ) ) ;
#276 = ORIENTED_EDGE ( 'NONE', *, *, #81, .F. ) ;
#277 = SURFACE_STYLE_USAGE ( .BOTH. , #48 ) ;
#278 = ORIENTED_EDGE ( 'NONE', *, *, #231, .F. ) ;
#279 = CIRCLE ( 'NONE', #60, 3.999999999999996447 ) ;
#280 = DIRECTION ( 'NONE',  ( 0.000000000000000000, 0.000000000000000000, -1.000000000000000000 ) ) ;
#281 = AXIS2_PLACEMENT_3D ( 'NONE', #204, #287, #23 ) ;
#282 = STYLED_ITEM ( 'NONE', ( #187 ), #123 ) ;
#283 = ORIENTED_EDGE ( 'NONE', *, *, #57, .T. ) ;
#284 = EDGE_LOOP ( 'NONE', ( #255, #290, #70, #276 ) ) ;
#285 = COLOUR_RGB ( '',1.000000000000000000, 0.000000000000000000, 0.000000000000000000 ) ;
#286 = PLANE ( 'NONE',  #265 ) ;
#287 = DIRECTION ( 'NONE',  ( -5.682149050294907483E-17, 1.000000000000000000, 0.000000000000000000 ) ) ;
#288 = PRESENTATION_LAYER_ASSIGNMENT (  '', '', ( #306 ) ) ;
#289 = CARTESIAN_POINT ( 'NONE',  ( 0.000000000000000000, 1.000000000000000000, -3.000000000000000000 ) ) ;
#290 = ORIENTED_EDGE ( 'NONE', *, *, #135, .T. ) ;
#291 = DIRECTION ( 'NONE',  ( -5.682149050294907483E-17, 1.000000000000000000, -0.000000000000000000 ) ) ;
#292 = PRODUCT_RELATED_PRODUCT_CATEGORY ( 'part', '', ( #307 ) ) ;
#293 = LINE ( 'NONE', #155, #302 ) ;
#294 =( NAMED_UNIT ( * ) SI_UNIT ( $, .STERADIAN. ) SOLID_ANGLE_UNIT ( ) );
#295 = FILL_AREA_STYLE_COLOUR ( '', #42 ) ;
#296 =( NAMED_UNIT ( * ) PLANE_ANGLE_UNIT ( ) SI_UNIT ( $, .RADIAN. ) );
#297 = CIRCLE ( 'NONE', #24, 3.000000000000000000 ) ;
#298 = AXIS2_PLACEMENT_3D ( 'NONE', #250, #63, #127 ) ;
#299 = VERTEX_POINT ( 'NONE', #27 ) ;
#300 = ORIENTED_EDGE ( 'NONE', *, *, #143, .F. ) ;
#301 = EDGE_CURVE ( 'NONE', #108, #299, #349, .T. ) ;
#302 = VECTOR ( 'NONE', #244, 1000.000000000000000 ) ;
#303 = VERTEX_POINT ( 'NONE', #348 ) ;
#304 = TOROIDAL_SURFACE ( 'NONE', #121, 3.000000000000000000, 1.000000000000000000 ) ;
#305 = ORIENTED_EDGE ( 'NONE', *, *, #208, .F. ) ;
#306 = STYLED_ITEM ( 'NONE', ( #101 ), #308 ) ;
#307 = PRODUCT ( '59655', '59655', '', ( #129 ) ) ;
#308 = ADVANCED_FACE ( 'NONE', ( #223 ), #73, .T. ) ;
#309 = LINE ( 'NONE', #365, #259 ) ;
#310 = CIRCLE ( 'NONE', #161, 4.000000000000000000 ) ;
#311 = CARTESIAN_POINT ( 'NONE',  ( 0.000000000000000000, 0.000000000000000000, 0.000000000000000000 ) ) ;
#312 = SURFACE_STYLE_USAGE ( .BOTH. , #125 ) ;
#313 = UNCERTAINTY_MEASURE_WITH_UNIT (LENGTH_MEASURE( 1.000000000000000082E-05 ), #326, 'distance_accuracy_value', 'NONE');
#314 =( NAMED_UNIT ( * ) PLANE_ANGLE_UNIT ( ) SI_UNIT ( $, .RADIAN. ) );
#315 = CARTESIAN_POINT ( 'NONE',  ( 4.000000000000000000, 63.00000000000000000, 4.898587196589407898E-16 ) ) ;
#316 = STYLED_ITEM ( 'NONE', ( #107 ), #170 ) ;
#317 = CARTESIAN_POINT ( 'NONE',  ( 4.286263797015736595E-16, 0.000000000000000000, 3.000000000000000000 ) ) ;
#318 = MANIFOLD_SOLID_BREP ( 'Revolve - Tool Body (Straight Shanked)', #235 ) ;
#319 = FILL_AREA_STYLE ('',( #46 ) ) ;
#320 = DIRECTION ( 'NONE',  ( -0.000000000000000000, -1.000000000000000000, -0.000000000000000000 ) ) ;
#321 =( LENGTH_UNIT ( ) NAMED_UNIT ( * ) SI_UNIT ( .MILLI., .METRE. ) );
#322 = SURFACE_STYLE_USAGE ( .BOTH. , #352 ) ;
#323 = ORIENTED_EDGE ( 'NONE', *, *, #91, .F. ) ;
#324 = AXIS2_PLACEMENT_3D ( 'NONE', #5, #341, #105 ) ;
#325 = DIRECTION ( 'NONE',  ( -0.000000000000000000, -1.000000000000000000, -0.000000000000000000 ) ) ;
#326 =( LENGTH_UNIT ( ) NAMED_UNIT ( * ) SI_UNIT ( .MILLI., .METRE. ) );
#327 = ORIENTED_EDGE ( 'NONE', *, *, #301, .F. ) ;
#328 = ADVANCED_FACE ( 'NONE', ( #190 ), #210, .T. ) ;
#329 = ORIENTED_EDGE ( 'NONE', *, *, #4, .T. ) ;
#330 = EDGE_LOOP ( 'NONE', ( #221, #283, #177, #360 ) ) ;
#331 = PRODUCT_DEFINITION ( 'UNKNOWN', '', #18, #174 ) ;
#332 = AXIS2_PLACEMENT_3D ( 'NONE', #213, #344, #92 ) ;
#333 =( LENGTH_UNIT ( ) NAMED_UNIT ( * ) SI_UNIT ( .MILLI., .METRE. ) );
#334 = FILL_AREA_STYLE ('',( #230 ) ) ;
#335 = DIRECTION ( 'NONE',  ( 1.000000000000000000, 0.000000000000000000, -1.224646799147353207E-16 ) ) ;
#336 = STYLED_ITEM ( 'NONE', ( #212 ), #368 ) ;
#337 = ORIENTED_EDGE ( 'NONE', *, *, #208, .T. ) ;
#338 = AXIS2_PLACEMENT_3D ( 'NONE', #32, #335, #58 ) ;
#339 = FILL_AREA_STYLE ('',( #144 ) ) ;
#340 = CYLINDRICAL_SURFACE ( 'NONE', #86, 3.999999999999994671 ) ;
#341 = DIRECTION ( 'NONE',  ( -5.682149050294907483E-17, 1.000000000000000000, -0.000000000000000000 ) ) ;
#342 = CYLINDRICAL_SURFACE ( 'NONE', #83, 4.000000000000000000 ) ;
#343 = UNCERTAINTY_MEASURE_WITH_UNIT (LENGTH_MEASURE( 1.000000000000000082E-05 ), #321, 'distance_accuracy_value', 'NONE');
#344 = DIRECTION ( 'NONE',  ( 0.000000000000000000, 1.000000000000000000, 0.000000000000000000 ) ) ;
#345 = DIRECTION ( 'NONE',  ( -5.682149050294907483E-17, 1.000000000000000000, -0.000000000000000000 ) ) ;
#346 =( GEOMETRIC_REPRESENTATION_CONTEXT ( 3 ) GLOBAL_UNCERTAINTY_ASSIGNED_CONTEXT ( ( #188 ) ) GLOBAL_UNIT_ASSIGNED_CONTEXT ( ( #333, #19, #256 ) ) REPRESENTATION_CONTEXT ( 'NONE', 'WORKASPACE' ) );
#347 = CARTESIAN_POINT ( 'NONE',  ( 3.184081677783117402E-15, 63.00000000000000000, 0.000000000000000000 ) ) ;
#348 = CARTESIAN_POINT ( 'NONE',  ( 4.898587196589412829E-16, 1.000000000000000000, 4.000000000000000000 ) ) ;
#349 = CIRCLE ( 'NONE', #200, 3.999999999999994227 ) ;
#350 = FILL_AREA_STYLE ('',( #251 ) ) ;
#351 = APPLICATION_PROTOCOL_DEFINITION ( 'draft international standard', 'automotive_design', 1998, #28 ) ;
#352 = SURFACE_SIDE_STYLE ('',( #222 ) ) ;
#353 = ORIENTED_EDGE ( 'NONE', *, *, #196, .T. ) ;
#354 = CARTESIAN_POINT ( 'NONE',  ( 0.000000000000000000, 1.000000000000000000, 0.000000000000000000 ) ) ;
#355 = COLOUR_RGB ( '',1.000000000000000000, 0.000000000000000000, 0.000000000000000000 ) ;
#356 = ORIENTED_EDGE ( 'NONE', *, *, #91, .T. ) ;
#357 = DIRECTION ( 'NONE',  ( 0.000000000000000000, -1.000000000000000000, -0.000000000000000000 ) ) ;
#358 = ADVANCED_FACE ( 'NONE', ( #13 ), #43, .T. ) ;
#359 = DIRECTION ( 'NONE',  ( -0.000000000000000000, -1.000000000000000000, -0.000000000000000000 ) ) ;
#360 = ORIENTED_EDGE ( 'NONE', *, *, #165, .F. ) ;
#361 = CARTESIAN_POINT ( 'NONE',  ( -3.999999999999993339, 63.00000000000000000, 0.000000000000000000 ) ) ;
#362 = PRESENTATION_LAYER_ASSIGNMENT (  '', '', ( #316 ) ) ;
#363 = MECHANICAL_DESIGN_GEOMETRIC_PRESENTATION_REPRESENTATION (  '', ( #98 ), #29 ) ;
#364 = DIRECTION ( 'NONE',  ( -0.000000000000000000, -1.000000000000000000, -0.000000000000000000 ) ) ;
#365 = CARTESIAN_POINT ( 'NONE',  ( 4.898587196589412829E-16, 0.000000000000000000, 4.000000000000000000 ) ) ;
#366 = DIRECTION ( 'NONE',  ( 5.682149050294907483E-17, -1.000000000000000000, 0.000000000000000000 ) ) ;
#367 = LINE ( 'NONE', #55, #199 ) ;
#368 = ADVANCED_FACE ( 'NONE', ( #154 ), #342, .T. ) ;
#369 = DIRECTION ( 'NONE',  ( -5.682149050294907483E-17, 1.000000000000000000, -0.000000000000000000 ) ) ;
#370 = CIRCLE ( 'NONE', #229, 3.999999999999994227 ) ;
ENDSEC;
END-ISO-10303-21;
