ISO-10303-21;
HEADER;
FILE_DESCRIPTION (( 'STEP AP214' ),
    '1' );
FILE_NAME ('56602.STEP',
    '2023-06-30T22:11:12',
    ( '' ),
    ( '' ),
    'SwSTEP 2.0',
    'SolidWorks 2023',
    '' );
FILE_SCHEMA (( 'AUTOMOTIVE_DESIGN' ));
ENDSEC;

DATA;
#1 = DIRECTION ( 'NONE',  ( -1.000000000000000000, 0.000000000000000000, 0.000000000000000000 ) ) ;
#2 = FILL_AREA_STYLE ('',( #161 ) ) ;
#3 = DIRECTION ( 'NONE',  ( -1.224646799147352961E-16, 1.000000000000000000, -0.000000000000000000 ) ) ;
#4 = ORIENTED_EDGE ( 'NONE', *, *, #152, .T. ) ;
#5 = UNCERTAINTY_MEASURE_WITH_UNIT (LENGTH_MEASURE( 1.000000000000000082E-05 ), #166, 'distance_accuracy_value', 'NONE');
#6 = AXIS2_PLACEMENT_3D ( 'NONE', #36, #67, #62 ) ;
#7 = CLOSED_SHELL ( 'NONE', ( #133, #261, #307, #207, #220 ) ) ;
#8 =( LENGTH_UNIT ( ) NAMED_UNIT ( * ) SI_UNIT ( $, .METRE. ) );
#9 = AXIS2_PLACEMENT_3D ( 'NONE', #52, #252, #370 ) ;
#10 =( GEOMETRIC_REPRESENTATION_CONTEXT ( 3 ) GLOBAL_UNCERTAINTY_ASSIGNED_CONTEXT ( ( #203 ) ) GLOBAL_UNIT_ASSIGNED_CONTEXT ( ( #340, #110, #227 ) ) REPRESENTATION_CONTEXT ( 'NONE', 'WORKASPACE' ) );
#11 = FILL_AREA_STYLE ('',( #357 ) ) ;
#12 = STYLED_ITEM ( 'NONE', ( #84 ), #207 ) ;
#13 = LENGTH_MEASURE_WITH_UNIT ( LENGTH_MEASURE( 0.02539999999999999897 ), #274 );
#14 = ORIENTED_EDGE ( 'NONE', *, *, #107, .T. ) ;
#15 = APPLICATION_CONTEXT ( 'automotive_design' ) ;
#16 = DIRECTION ( 'NONE',  ( 0.000000000000000000, 0.000000000000000000, -1.000000000000000000 ) ) ;
#17 =( NAMED_UNIT ( * ) PLANE_ANGLE_UNIT ( ) SI_UNIT ( $, .RADIAN. ) );
#18 = PRESENTATION_STYLE_ASSIGNMENT (( #313 ) ) ;
#19 = SURFACE_SIDE_STYLE ('',( #347 ) ) ;
#20 = DIRECTION ( 'NONE',  ( 0.000000000000000000, 0.000000000000000000, -1.000000000000000000 ) ) ;
#21 =( LENGTH_UNIT ( ) NAMED_UNIT ( * ) SI_UNIT ( $, .METRE. ) );
#22 = CARTESIAN_POINT ( 'NONE',  ( 0.000000000000000000, 2.000000000000000000, 0.000000000000000000 ) ) ;
#23 = CIRCLE ( 'NONE', #9, 0.3124999999999998335 ) ;
#24 = SURFACE_STYLE_USAGE ( .BOTH. , #19 ) ;
#25 = CIRCLE ( 'NONE', #89, 0.3125000000000000000 ) ;
#26 = CARTESIAN_POINT ( 'NONE',  ( -0.3124999999999998890, 4.000000000000000000, 0.000000000000000000 ) ) ;
#27 = EDGE_CURVE ( 'NONE', #106, #168, #80, .T. ) ;
#28 = FILL_AREA_STYLE_COLOUR ( '', #256 ) ;
#29 = SPHERICAL_SURFACE ( 'NONE', #232, 0.3125000000000000000 ) ;
#30 = EDGE_LOOP ( 'NONE', ( #202, #366, #339, #184, #305 ) ) ;
#31 = DIRECTION ( 'NONE',  ( 1.224646799147353207E-16, -0.000000000000000000, 1.000000000000000000 ) ) ;
#32 = ORIENTED_EDGE ( 'NONE', *, *, #363, .F. ) ;
#33 =( GEOMETRIC_REPRESENTATION_CONTEXT ( 3 ) GLOBAL_UNCERTAINTY_ASSIGNED_CONTEXT ( ( #290 ) ) GLOBAL_UNIT_ASSIGNED_CONTEXT ( ( #245, #188, #360 ) ) REPRESENTATION_CONTEXT ( 'NONE', 'WORKASPACE' ) );
#34 = UNCERTAINTY_MEASURE_WITH_UNIT (LENGTH_MEASURE( 1.000000000000000082E-05 ), #224, 'distance_accuracy_value', 'NONE');
#35 =( CONVERSION_BASED_UNIT ( 'INCH', #294 ) LENGTH_UNIT ( ) NAMED_UNIT ( #302 ) );
#36 = CARTESIAN_POINT ( 'NONE',  ( 0.000000000000000000, 0.3125000000000000555, 0.000000000000000000 ) ) ;
#37 = AXIS2_PLACEMENT_3D ( 'NONE', #257, #31, #237 ) ;
#38 = DIMENSIONAL_EXPONENTS ( 1.000000000000000000, 0.000000000000000000, 0.000000000000000000, 0.000000000000000000, 0.000000000000000000, 0.000000000000000000, 0.000000000000000000 ) ;
#39 = PRESENTATION_STYLE_ASSIGNMENT (( #246 ) ) ;
#40 = ORIENTED_EDGE ( 'NONE', *, *, #280, .F. ) ;
#41 = CIRCLE ( 'NONE', #92, 0.3125000000000000000 ) ;
#42 = EDGE_CURVE ( 'NONE', #337, #76, #275, .T. ) ;
#43 = STYLED_ITEM ( 'NONE', ( #354 ), #307 ) ;
#44 = PRODUCT ( '56602', '56602', '', ( #268 ) ) ;
#45 = CLOSED_SHELL ( 'NONE', ( #93, #176, #292, #71 ) ) ;
#46 = VECTOR ( 'NONE', #291, 39.37007874015748143 ) ;
#47 = SPHERICAL_SURFACE ( 'NONE', #277, 0.3125000000000000000 ) ;
#48 = FACE_OUTER_BOUND ( 'NONE', #30, .T. ) ;
#49 = DIRECTION ( 'NONE',  ( -1.224646799147352961E-16, 1.000000000000000000, -0.000000000000000000 ) ) ;
#50 = DIRECTION ( 'NONE',  ( 1.000000000000000000, 0.000000000000000000, 0.000000000000000000 ) ) ;
#51 = EDGE_CURVE ( 'NONE', #106, #83, #321, .T. ) ;
#52 = CARTESIAN_POINT ( 'NONE',  ( -6.123233995736764803E-17, 4.000000000000000000, 0.000000000000000000 ) ) ;
#53 = DIRECTION ( 'NONE',  ( -1.224646799147352961E-16, 1.000000000000000000, -0.000000000000000000 ) ) ;
#54 = VECTOR ( 'NONE', #82, 39.37007874015748143 ) ;
#55 = UNCERTAINTY_MEASURE_WITH_UNIT (LENGTH_MEASURE( 1.000000000000000082E-05 ), #35, 'distance_accuracy_value', 'NONE');
#56 = LENGTH_MEASURE_WITH_UNIT ( LENGTH_MEASURE( 0.02539999999999999897 ), #317 );
#57 = CIRCLE ( 'NONE', #121, 0.3125000000000000000 ) ;
#58 = ORIENTED_EDGE ( 'NONE', *, *, #27, .F. ) ;
#59 = COLOUR_RGB ( '',1.000000000000000000, 0.000000000000000000, 0.000000000000000000 ) ;
#60 =( NAMED_UNIT ( * ) SI_UNIT ( $, .STERADIAN. ) SOLID_ANGLE_UNIT ( ) );
#61 = VERTEX_POINT ( 'NONE', #288 ) ;
#62 = DIRECTION ( 'NONE',  ( 0.000000000000000000, 0.000000000000000000, -1.000000000000000000 ) ) ;
#63 = ORIENTED_EDGE ( 'NONE', *, *, #97, .T. ) ;
#64 = CARTESIAN_POINT ( 'NONE',  ( 3.827021247335476461E-17, 2.000000000000000000, 0.3124999999999997224 ) ) ;
#65 = LINE ( 'NONE', #177, #46 ) ;
#66 = STYLED_ITEM ( 'NONE', ( #18 ), #289 ) ;
#67 = DIRECTION ( 'NONE',  ( -0.000000000000000000, -1.000000000000000000, -0.000000000000000000 ) ) ;
#68 = CARTESIAN_POINT ( 'NONE',  ( 0.000000000000000000, 2.000000000000000000, 0.000000000000000000 ) ) ;
#69 = AXIS2_PLACEMENT_3D ( 'NONE', #142, #164, #1 ) ;
#70 = DIRECTION ( 'NONE',  ( 1.000000000000000000, 0.000000000000000000, 0.000000000000000000 ) ) ;
#71 = ADVANCED_FACE ( 'NONE', ( #318 ), #283, .F. ) ;
#72 = DIRECTION ( 'NONE',  ( -0.000000000000000000, -1.000000000000000000, -0.000000000000000000 ) ) ;
#73 = EDGE_LOOP ( 'NONE', ( #189, #324, #226, #255 ) ) ;
#74 = LENGTH_MEASURE_WITH_UNIT ( LENGTH_MEASURE( 0.02539999999999999897 ), #304 );
#75 = DIMENSIONAL_EXPONENTS ( 1.000000000000000000, 0.000000000000000000, 0.000000000000000000, 0.000000000000000000, 0.000000000000000000, 0.000000000000000000, 0.000000000000000000 ) ;
#76 = VERTEX_POINT ( 'NONE', #135 ) ;
#77 = ORIENTED_EDGE ( 'NONE', *, *, #367, .T. ) ;
#78 = CARTESIAN_POINT ( 'NONE',  ( 0.000000000000000000, 0.3125000000000000555, -0.3125000000000000000 ) ) ;
#79 = ORIENTED_EDGE ( 'NONE', *, *, #152, .F. ) ;
#80 = CIRCLE ( 'NONE', #213, 0.3124999999999995559 ) ;
#81 = CARTESIAN_POINT ( 'NONE',  ( -3.827021247335478926E-17, 0.3125000000000000000, 0.000000000000000000 ) ) ;
#82 = DIRECTION ( 'NONE',  ( -1.224646799147352961E-16, 1.000000000000000000, -0.000000000000000000 ) ) ;
#83 = VERTEX_POINT ( 'NONE', #26 ) ;
#84 = PRESENTATION_STYLE_ASSIGNMENT (( #24 ) ) ;
#85 = PRESENTATION_STYLE_ASSIGNMENT (( #157 ) ) ;
#86 = PLANE ( 'NONE',  #124 ) ;
#87 = PRESENTATION_LAYER_ASSIGNMENT (  '', '', ( #327 ) ) ;
#88 = SURFACE_SIDE_STYLE ('',( #91 ) ) ;
#89 = AXIS2_PLACEMENT_3D ( 'NONE', #218, #182, #248 ) ;
#90 = FILL_AREA_STYLE ('',( #205 ) ) ;
#91 = SURFACE_STYLE_FILL_AREA ( #11 ) ;
#92 = AXIS2_PLACEMENT_3D ( 'NONE', #230, #350, #120 ) ;
#93 = ADVANCED_FACE ( 'NONE', ( #198 ), #315, .T. ) ;
#94 =( GEOMETRIC_REPRESENTATION_CONTEXT ( 3 ) GLOBAL_UNCERTAINTY_ASSIGNED_CONTEXT ( ( #263 ) ) GLOBAL_UNIT_ASSIGNED_CONTEXT ( ( #333, #179, #151 ) ) REPRESENTATION_CONTEXT ( 'NONE', 'WORKASPACE' ) );
#95 =( GEOMETRIC_REPRESENTATION_CONTEXT ( 3 ) GLOBAL_UNCERTAINTY_ASSIGNED_CONTEXT ( ( #55 ) ) GLOBAL_UNIT_ASSIGNED_CONTEXT ( ( #35, #328, #146 ) ) REPRESENTATION_CONTEXT ( 'NONE', 'WORKASPACE' ) );
#96 = EDGE_CURVE ( 'NONE', #61, #83, #23, .T. ) ;
#97 = EDGE_CURVE ( 'NONE', #83, #61, #100, .T. ) ;
#98 = PRESENTATION_STYLE_ASSIGNMENT (( #338 ) ) ;
#99 = SURFACE_SIDE_STYLE ('',( #272 ) ) ;
#100 = CIRCLE ( 'NONE', #69, 0.3124999999999998335 ) ;
#101 = EDGE_LOOP ( 'NONE', ( #259, #129, #40, #14 ) ) ;
#102 = AXIS2_PLACEMENT_3D ( 'NONE', #22, #352, #323 ) ;
#103 = DIRECTION ( 'NONE',  ( 0.000000000000000000, 0.000000000000000000, -1.000000000000000000 ) ) ;
#104 = MECHANICAL_DESIGN_GEOMETRIC_PRESENTATION_REPRESENTATION (  '', ( #197 ), #269 ) ;
#105 = SURFACE_SIDE_STYLE ('',( #165 ) ) ;
#106 = VERTEX_POINT ( 'NONE', #115 ) ;
#107 = EDGE_CURVE ( 'NONE', #348, #117, #41, .T. ) ;
#108 =( LENGTH_UNIT ( ) NAMED_UNIT ( * ) SI_UNIT ( $, .METRE. ) );
#109 = EDGE_LOOP ( 'NONE', ( #58, #79 ) ) ;
#110 =( NAMED_UNIT ( * ) PLANE_ANGLE_UNIT ( ) SI_UNIT ( $, .RADIAN. ) );
#111 = LENGTH_MEASURE_WITH_UNIT ( LENGTH_MEASURE( 0.02539999999999999897 ), #108 );
#112 = ORIENTED_EDGE ( 'NONE', *, *, #173, .T. ) ;
#113 = DIRECTION ( 'NONE',  ( 0.000000000000000000, 0.000000000000000000, 1.000000000000000000 ) ) ;
#114 = CARTESIAN_POINT ( 'NONE',  ( 0.3124999999999997224, 2.000000000000000000, 3.827021247335475845E-17 ) ) ;
#115 = CARTESIAN_POINT ( 'NONE',  ( -0.3124999999999993339, 2.000000000000000000, 0.000000000000000000 ) ) ;
#116 = PRODUCT_DEFINITION ( 'UNKNOWN', '', #295, #162 ) ;
#117 = VERTEX_POINT ( 'NONE', #264 ) ;
#118 = DIRECTION ( 'NONE',  ( -1.224646799147352961E-16, 1.000000000000000000, -0.000000000000000000 ) ) ;
#119 = DIRECTION ( 'NONE',  ( 0.000000000000000000, 1.000000000000000000, 0.000000000000000000 ) ) ;
#120 = DIRECTION ( 'NONE',  ( 0.000000000000000000, 0.000000000000000000, -1.000000000000000000 ) ) ;
#121 = AXIS2_PLACEMENT_3D ( 'NONE', #163, #282, #137 ) ;
#122 = EDGE_CURVE ( 'NONE', #337, #117, #236, .T. ) ;
#123 =( CONVERSION_BASED_UNIT ( 'INCH', #125 ) LENGTH_UNIT ( ) NAMED_UNIT ( #181 ) );
#124 = AXIS2_PLACEMENT_3D ( 'NONE', #258, #279, #254 ) ;
#125 = LENGTH_MEASURE_WITH_UNIT ( LENGTH_MEASURE( 0.02539999999999999897 ), #8 );
#126 = COLOUR_RGB ( '',1.000000000000000000, 0.000000000000000000, 0.000000000000000000 ) ;
#127 = PRESENTATION_LAYER_ASSIGNMENT (  '', '', ( #197 ) ) ;
#128 = DIRECTION ( 'NONE',  ( 0.000000000000000000, 0.000000000000000000, 1.000000000000000000 ) ) ;
#129 = ORIENTED_EDGE ( 'NONE', *, *, #300, .T. ) ;
#130 = MECHANICAL_DESIGN_GEOMETRIC_PRESENTATION_REPRESENTATION (  '', ( #43 ), #331 ) ;
#131 = CYLINDRICAL_SURFACE ( 'NONE', #372, 0.3124999999999998890 ) ;
#132 = PRESENTATION_STYLE_ASSIGNMENT (( #371 ) ) ;
#133 = ADVANCED_FACE ( 'NONE', ( #183 ), #29, .T. ) ;
#134 = DIRECTION ( 'NONE',  ( 1.000000000000000000, 0.000000000000000000, 0.000000000000000000 ) ) ;
#135 = CARTESIAN_POINT ( 'NONE',  ( 0.000000000000000000, 2.000000000000000000, -0.3124999999999997224 ) ) ;
#136 =( LENGTH_UNIT ( ) NAMED_UNIT ( * ) SI_UNIT ( $, .METRE. ) );
#137 = DIRECTION ( 'NONE',  ( 0.000000000000000000, 0.000000000000000000, -1.000000000000000000 ) ) ;
#138 = ORIENTED_EDGE ( 'NONE', *, *, #51, .T. ) ;
#139 = DIRECTION ( 'NONE',  ( -1.000000000000000000, 0.000000000000000000, 0.000000000000000000 ) ) ;
#140 =( NAMED_UNIT ( * ) PLANE_ANGLE_UNIT ( ) SI_UNIT ( $, .RADIAN. ) );
#141 = DIRECTION ( 'NONE',  ( -1.000000000000000000, 0.000000000000000000, 0.000000000000000000 ) ) ;
#142 = CARTESIAN_POINT ( 'NONE',  ( -6.123233995736764803E-17, 4.000000000000000000, 0.000000000000000000 ) ) ;
#143 = EDGE_LOOP ( 'NONE', ( #186, #247 ) ) ;
#144 = LINE ( 'NONE', #266, #194 ) ;
#145 = AXIS2_PLACEMENT_3D ( 'NONE', #240, #211, #103 ) ;
#146 =( NAMED_UNIT ( * ) SI_UNIT ( $, .STERADIAN. ) SOLID_ANGLE_UNIT ( ) );
#147 = PRODUCT_RELATED_PRODUCT_CATEGORY ( 'part', '', ( #44 ) ) ;
#148 =( NAMED_UNIT ( * ) PLANE_ANGLE_UNIT ( ) SI_UNIT ( $, .RADIAN. ) );
#149 = DIRECTION ( 'NONE',  ( 0.000000000000000000, -0.000000000000000000, 1.000000000000000000 ) ) ;
#150 = PRESENTATION_LAYER_ASSIGNMENT (  '', '', ( #66 ) ) ;
#151 =( NAMED_UNIT ( * ) SI_UNIT ( $, .STERADIAN. ) SOLID_ANGLE_UNIT ( ) );
#152 = EDGE_CURVE ( 'NONE', #168, #106, #342, .T. ) ;
#153 = MANIFOLD_SOLID_BREP ( 'Revolve - Tool Body (Straight Shanked)', #45 ) ;
#154 = ORIENTED_EDGE ( 'NONE', *, *, #51, .F. ) ;
#155 = ORIENTED_EDGE ( 'NONE', *, *, #107, .F. ) ;
#156 = ORIENTED_EDGE ( 'NONE', *, *, #169, .F. ) ;
#157 = SURFACE_STYLE_USAGE ( .BOTH. , #191 ) ;
#158 = CIRCLE ( 'NONE', #6, 0.3125000000000000000 ) ;
#159 = DIRECTION ( 'NONE',  ( 0.000000000000000000, 0.000000000000000000, -1.000000000000000000 ) ) ;
#160 = DIRECTION ( 'NONE',  ( -1.000000000000000000, 0.000000000000000000, 0.000000000000000000 ) ) ;
#161 = FILL_AREA_STYLE_COLOUR ( '', #180 ) ;
#162 = PRODUCT_DEFINITION_CONTEXT ( 'detailed design', #15, 'design' ) ;
#163 = CARTESIAN_POINT ( 'NONE',  ( 0.000000000000000000, 0.3125000000000000555, 0.000000000000000000 ) ) ;
#164 = DIRECTION ( 'NONE',  ( -1.224646799147352961E-16, 1.000000000000000000, -0.000000000000000000 ) ) ;
#165 = SURFACE_STYLE_FILL_AREA ( #2 ) ;
#166 =( CONVERSION_BASED_UNIT ( 'INCH', #56 ) LENGTH_UNIT ( ) NAMED_UNIT ( #75 ) );
#167 =( GEOMETRIC_REPRESENTATION_CONTEXT ( 3 ) GLOBAL_UNCERTAINTY_ASSIGNED_CONTEXT ( ( #5 ) ) GLOBAL_UNIT_ASSIGNED_CONTEXT ( ( #166, #17, #287 ) ) REPRESENTATION_CONTEXT ( 'NONE', 'WORKASPACE' ) );
#168 = VERTEX_POINT ( 'NONE', #114 ) ;
#169 = EDGE_CURVE ( 'NONE', #285, #348, #57, .T. ) ;
#170 = CARTESIAN_POINT ( 'NONE',  ( 0.3125000000000000000, 0.3125000000000000555, 0.000000000000000000 ) ) ;
#171 = ORIENTED_EDGE ( 'NONE', *, *, #96, .F. ) ;
#172 = CARTESIAN_POINT ( 'NONE',  ( -0.3125000000000000000, 0.3125000000000000555, 3.827021247335477694E-17 ) ) ;
#173 = EDGE_CURVE ( 'NONE', #76, #337, #322, .T. ) ;
#174 = DIRECTION ( 'NONE',  ( -1.224646799147352961E-16, 1.000000000000000000, -0.000000000000000000 ) ) ;
#175 = AXIS2_PLACEMENT_3D ( 'NONE', #221, #159, #278 ) ;
#176 = ADVANCED_FACE ( 'NONE', ( #310 ), #86, .F. ) ;
#177 = CARTESIAN_POINT ( 'NONE',  ( 0.000000000000000000, 0.000000000000000000, -0.3124999999999998890 ) ) ;
#178 = SHAPE_DEFINITION_REPRESENTATION ( #306, #185 ) ;
#179 =( NAMED_UNIT ( * ) PLANE_ANGLE_UNIT ( ) SI_UNIT ( $, .RADIAN. ) );
#180 = COLOUR_RGB ( '',0.7921568627450980005, 0.8196078431372548767, 0.9333333333333333481 ) ;
#181 = DIMENSIONAL_EXPONENTS ( 1.000000000000000000, 0.000000000000000000, 0.000000000000000000, 0.000000000000000000, 0.000000000000000000, 0.000000000000000000, 0.000000000000000000 ) ;
#182 = DIRECTION ( 'NONE',  ( -0.000000000000000000, -1.000000000000000000, -0.000000000000000000 ) ) ;
#183 = FACE_OUTER_BOUND ( 'NONE', #101, .T. ) ;
#184 = ORIENTED_EDGE ( 'NONE', *, *, #212, .F. ) ;
#185 = ADVANCED_BREP_SHAPE_REPRESENTATION ( '56602', ( #289, #153, #235 ), #95 ) ;
#186 = ORIENTED_EDGE ( 'NONE', *, *, #173, .F. ) ;
#187 = MECHANICAL_DESIGN_GEOMETRIC_PRESENTATION_REPRESENTATION (  '', ( #336 ), #303 ) ;
#188 =( NAMED_UNIT ( * ) PLANE_ANGLE_UNIT ( ) SI_UNIT ( $, .RADIAN. ) );
#189 = ORIENTED_EDGE ( 'NONE', *, *, #300, .F. ) ;
#190 = ORIENTED_EDGE ( 'NONE', *, *, #96, .T. ) ;
#191 = SURFACE_SIDE_STYLE ('',( #349 ) ) ;
#192 = FILL_AREA_STYLE_COLOUR ( '', #332 ) ;
#193 = CARTESIAN_POINT ( 'NONE',  ( 0.3124999999999997224, 4.000000000000000000, 0.000000000000000000 ) ) ;
#194 = VECTOR ( 'NONE', #174, 39.37007874015748143 ) ;
#195 =( CONVERSION_BASED_UNIT ( 'INCH', #251 ) LENGTH_UNIT ( ) NAMED_UNIT ( #358 ) );
#196 = DIRECTION ( 'NONE',  ( 0.000000000000000000, 0.000000000000000000, 1.000000000000000000 ) ) ;
#197 = STYLED_ITEM ( 'NONE', ( #132 ), #153 ) ;
#198 = FACE_OUTER_BOUND ( 'NONE', #273, .T. ) ;
#199 = FACE_OUTER_BOUND ( 'NONE', #335, .T. ) ;
#200 = DIRECTION ( 'NONE',  ( -0.000000000000000000, -1.000000000000000000, -0.000000000000000000 ) ) ;
#201 = AXIS2_PLACEMENT_3D ( 'NONE', #345, #49, #160 ) ;
#202 = ORIENTED_EDGE ( 'NONE', *, *, #122, .F. ) ;
#203 = UNCERTAINTY_MEASURE_WITH_UNIT (LENGTH_MEASURE( 1.000000000000000082E-05 ), #340, 'distance_accuracy_value', 'NONE');
#204 = SURFACE_STYLE_USAGE ( .BOTH. , #88 ) ;
#205 = FILL_AREA_STYLE_COLOUR ( '', #353 ) ;
#206 = ORIENTED_EDGE ( 'NONE', *, *, #122, .T. ) ;
#207 = ADVANCED_FACE ( 'NONE', ( #48 ), #228, .T. ) ;
#208 = CARTESIAN_POINT ( 'NONE',  ( 0.000000000000000000, 0.000000000000000000, 0.000000000000000000 ) ) ;
#209 = AXIS2_PLACEMENT_3D ( 'NONE', #316, #53, #139 ) ;
#210 = FACE_OUTER_BOUND ( 'NONE', #73, .T. ) ;
#211 = DIRECTION ( 'NONE',  ( -0.000000000000000000, -1.000000000000000000, -0.000000000000000000 ) ) ;
#212 = EDGE_CURVE ( 'NONE', #373, #285, #25, .T. ) ;
#213 = AXIS2_PLACEMENT_3D ( 'NONE', #234, #118, #141 ) ;
#214 = ORIENTED_EDGE ( 'NONE', *, *, #367, .F. ) ;
#215 = FILL_AREA_STYLE_COLOUR ( '', #126 ) ;
#216 = CARTESIAN_POINT ( 'NONE',  ( 1.836970198721029194E-16, 2.000000000000000000, 0.000000000000000000 ) ) ;
#217 = PRESENTATION_LAYER_ASSIGNMENT (  '', '', ( #12 ) ) ;
#218 = CARTESIAN_POINT ( 'NONE',  ( 0.000000000000000000, 0.3125000000000000555, 0.000000000000000000 ) ) ;
#219 = CARTESIAN_POINT ( 'NONE',  ( 3.827021247335477078E-17, 0.000000000000000000, 0.3124999999999998890 ) ) ;
#220 = ADVANCED_FACE ( 'NONE', ( #210 ), #47, .T. ) ;
#221 = CARTESIAN_POINT ( 'NONE',  ( -3.827021247335478926E-17, 0.3125000000000000000, 0.000000000000000000 ) ) ;
#222 = EDGE_LOOP ( 'NONE', ( #112, #206, #155, #156, #32 ) ) ;
#223 =( NAMED_UNIT ( * ) PLANE_ANGLE_UNIT ( ) SI_UNIT ( $, .RADIAN. ) );
#224 =( CONVERSION_BASED_UNIT ( 'INCH', #111 ) LENGTH_UNIT ( ) NAMED_UNIT ( #329 ) );
#225 = APPLICATION_CONTEXT ( 'automotive_design' ) ;
#226 = ORIENTED_EDGE ( 'NONE', *, *, #169, .T. ) ;
#227 =( NAMED_UNIT ( * ) SI_UNIT ( $, .STERADIAN. ) SOLID_ANGLE_UNIT ( ) );
#228 = CYLINDRICAL_SURFACE ( 'NONE', #145, 0.3124999999999998890 ) ;
#229 = FILL_AREA_STYLE ('',( #28 ) ) ;
#230 = CARTESIAN_POINT ( 'NONE',  ( 0.000000000000000000, 0.3125000000000000555, 0.000000000000000000 ) ) ;
#231 = LENGTH_MEASURE_WITH_UNIT ( LENGTH_MEASURE( 0.02539999999999999897 ), #21 );
#232 = AXIS2_PLACEMENT_3D ( 'NONE', #81, #196, #134 ) ;
#233 = FILL_AREA_STYLE ('',( #192 ) ) ;
#234 = CARTESIAN_POINT ( 'NONE',  ( 1.836970198721029194E-16, 2.000000000000000000, 0.000000000000000000 ) ) ;
#235 = AXIS2_PLACEMENT_3D ( 'NONE', #208, #128, #70 ) ;
#236 = LINE ( 'NONE', #219, #260 ) ;
#237 = DIRECTION ( 'NONE',  ( 1.000000000000000000, 0.000000000000000000, -1.224646799147353207E-16 ) ) ;
#238 = FACE_OUTER_BOUND ( 'NONE', #143, .T. ) ;
#239 = MECHANICAL_DESIGN_GEOMETRIC_PRESENTATION_REPRESENTATION (  '', ( #12 ), #167 ) ;
#240 = CARTESIAN_POINT ( 'NONE',  ( 0.000000000000000000, 0.000000000000000000, 0.000000000000000000 ) ) ;
#241 = SURFACE_STYLE_FILL_AREA ( #242 ) ;
#242 = FILL_AREA_STYLE ('',( #215 ) ) ;
#243 = STYLED_ITEM ( 'NONE', ( #98 ), #220 ) ;
#244 = DIMENSIONAL_EXPONENTS ( 1.000000000000000000, 0.000000000000000000, 0.000000000000000000, 0.000000000000000000, 0.000000000000000000, 0.000000000000000000, 0.000000000000000000 ) ;
#245 =( CONVERSION_BASED_UNIT ( 'INCH', #74 ) LENGTH_UNIT ( ) NAMED_UNIT ( #244 ) );
#246 = SURFACE_STYLE_USAGE ( .BOTH. , #99 ) ;
#247 = ORIENTED_EDGE ( 'NONE', *, *, #42, .F. ) ;
#248 = DIRECTION ( 'NONE',  ( 0.000000000000000000, 0.000000000000000000, -1.000000000000000000 ) ) ;
#249 = ORIENTED_EDGE ( 'NONE', *, *, #27, .T. ) ;
#250 = COLOUR_RGB ( '',1.000000000000000000, 0.000000000000000000, 0.000000000000000000 ) ;
#251 = LENGTH_MEASURE_WITH_UNIT ( LENGTH_MEASURE( 0.02539999999999999897 ), #136 );
#252 = DIRECTION ( 'NONE',  ( -1.224646799147352961E-16, 1.000000000000000000, -0.000000000000000000 ) ) ;
#253 = CARTESIAN_POINT ( 'NONE',  ( 0.000000000000000000, 0.000000000000000000, 0.000000000000000000 ) ) ;
#254 = DIRECTION ( 'NONE',  ( -1.000000000000000000, -1.224646799147352961E-16, 0.000000000000000000 ) ) ;
#255 = ORIENTED_EDGE ( 'NONE', *, *, #280, .T. ) ;
#256 = COLOUR_RGB ( '',1.000000000000000000, 0.000000000000000000, 0.000000000000000000 ) ;
#257 = CARTESIAN_POINT ( 'NONE',  ( -3.827021247335478926E-17, 0.3125000000000000000, 0.000000000000000000 ) ) ;
#258 = CARTESIAN_POINT ( 'NONE',  ( 1.836970198721029441E-16, 2.000000000000000000, 0.000000000000000000 ) ) ;
#259 = ORIENTED_EDGE ( 'NONE', *, *, #309, .T. ) ;
#260 = VECTOR ( 'NONE', #72, 39.37007874015748143 ) ;
#261 = ADVANCED_FACE ( 'NONE', ( #299 ), #131, .T. ) ;
#262 = CARTESIAN_POINT ( 'NONE',  ( 0.000000000000000000, 2.000000000000000000, 0.000000000000000000 ) ) ;
#263 = UNCERTAINTY_MEASURE_WITH_UNIT (LENGTH_MEASURE( 1.000000000000000082E-05 ), #333, 'distance_accuracy_value', 'NONE');
#264 = CARTESIAN_POINT ( 'NONE',  ( 3.827021247335478926E-17, 0.3125000000000000555, 0.3125000000000000000 ) ) ;
#265 = PLANE ( 'NONE',  #361 ) ;
#266 = CARTESIAN_POINT ( 'NONE',  ( 0.3124999999999996114, 4.000000000000000000, 3.827021247335475229E-17 ) ) ;
#267 = MECHANICAL_DESIGN_GEOMETRIC_PRESENTATION_REPRESENTATION (  '', ( #66 ), #10 ) ;
#268 = PRODUCT_CONTEXT ( 'NONE', #225, 'mechanical' ) ;
#269 =( GEOMETRIC_REPRESENTATION_CONTEXT ( 3 ) GLOBAL_UNCERTAINTY_ASSIGNED_CONTEXT ( ( #34 ) ) GLOBAL_UNIT_ASSIGNED_CONTEXT ( ( #224, #140, #344 ) ) REPRESENTATION_CONTEXT ( 'NONE', 'WORKASPACE' ) );
#270 = APPLICATION_PROTOCOL_DEFINITION ( 'draft international standard', 'automotive_design', 1998, #15 ) ;
#271 = CIRCLE ( 'NONE', #37, 0.3125000000000000000 ) ;
#272 = SURFACE_STYLE_FILL_AREA ( #364 ) ;
#273 = EDGE_LOOP ( 'NONE', ( #249, #77, #293, #154 ) ) ;
#274 =( LENGTH_UNIT ( ) NAMED_UNIT ( * ) SI_UNIT ( $, .METRE. ) );
#275 = CIRCLE ( 'NONE', #359, 0.3124999999999997224 ) ;
#276 = AXIS2_PLACEMENT_3D ( 'NONE', #216, #3, #314 ) ;
#277 = AXIS2_PLACEMENT_3D ( 'NONE', #368, #113, #50 ) ;
#278 = DIRECTION ( 'NONE',  ( -1.000000000000000000, 0.000000000000000000, 0.000000000000000000 ) ) ;
#279 = DIRECTION ( 'NONE',  ( -1.224646799147352961E-16, 1.000000000000000000, 0.000000000000000000 ) ) ;
#280 = EDGE_CURVE ( 'NONE', #348, #301, #320, .T. ) ;
#281 = DIRECTION ( 'NONE',  ( 1.000000000000000000, 1.224646799147352961E-16, 0.000000000000000000 ) ) ;
#282 = DIRECTION ( 'NONE',  ( -0.000000000000000000, -1.000000000000000000, -0.000000000000000000 ) ) ;
#283 = PLANE ( 'NONE',  #330 ) ;
#284 = SURFACE_STYLE_FILL_AREA ( #233 ) ;
#285 = VERTEX_POINT ( 'NONE', #78 ) ;
#286 = PRESENTATION_LAYER_ASSIGNMENT (  '', '', ( #243 ) ) ;
#287 =( NAMED_UNIT ( * ) SI_UNIT ( $, .STERADIAN. ) SOLID_ANGLE_UNIT ( ) );
#288 = CARTESIAN_POINT ( 'NONE',  ( 0.3124999999999997224, 4.000000000000000000, 3.827021247335475845E-17 ) ) ;
#289 = MANIFOLD_SOLID_BREP ( 'Revolve - Cutting Edge', #7 ) ;
#290 = UNCERTAINTY_MEASURE_WITH_UNIT (LENGTH_MEASURE( 1.000000000000000082E-05 ), #245, 'distance_accuracy_value', 'NONE');
#291 = DIRECTION ( 'NONE',  ( -0.000000000000000000, -1.000000000000000000, -0.000000000000000000 ) ) ;
#292 = ADVANCED_FACE ( 'NONE', ( #199 ), #343, .T. ) ;
#293 = ORIENTED_EDGE ( 'NONE', *, *, #97, .F. ) ;
#294 = LENGTH_MEASURE_WITH_UNIT ( LENGTH_MEASURE( 0.02539999999999999897 ), #296 );
#295 = PRODUCT_DEFINITION_FORMATION_WITH_SPECIFIED_SOURCE ( 'ANY', '', #44, .NOT_KNOWN. ) ;
#296 =( LENGTH_UNIT ( ) NAMED_UNIT ( * ) SI_UNIT ( $, .METRE. ) );
#297 = DIMENSIONAL_EXPONENTS ( 1.000000000000000000, 0.000000000000000000, 0.000000000000000000, 0.000000000000000000, 0.000000000000000000, 0.000000000000000000, 0.000000000000000000 ) ;
#298 = PRESENTATION_LAYER_ASSIGNMENT (  '', '', ( #336 ) ) ;
#299 = FACE_OUTER_BOUND ( 'NONE', #222, .T. ) ;
#300 = EDGE_CURVE ( 'NONE', #373, #301, #271, .T. ) ;
#301 = VERTEX_POINT ( 'NONE', #325 ) ;
#302 = DIMENSIONAL_EXPONENTS ( 1.000000000000000000, 0.000000000000000000, 0.000000000000000000, 0.000000000000000000, 0.000000000000000000, 0.000000000000000000, 0.000000000000000000 ) ;
#303 =( GEOMETRIC_REPRESENTATION_CONTEXT ( 3 ) GLOBAL_UNCERTAINTY_ASSIGNED_CONTEXT ( ( #351 ) ) GLOBAL_UNIT_ASSIGNED_CONTEXT ( ( #195, #223, #60 ) ) REPRESENTATION_CONTEXT ( 'NONE', 'WORKASPACE' ) );
#304 =( LENGTH_UNIT ( ) NAMED_UNIT ( * ) SI_UNIT ( $, .METRE. ) );
#305 = ORIENTED_EDGE ( 'NONE', *, *, #309, .F. ) ;
#306 = PRODUCT_DEFINITION_SHAPE ( 'NONE', 'NONE',  #116 ) ;
#307 = ADVANCED_FACE ( 'NONE', ( #238 ), #265, .T. ) ;
#308 = EDGE_LOOP ( 'NONE', ( #63, #190 ) ) ;
#309 = EDGE_CURVE ( 'NONE', #117, #373, #158, .T. ) ;
#310 = FACE_OUTER_BOUND ( 'NONE', #109, .T. ) ;
#311 = MECHANICAL_DESIGN_GEOMETRIC_PRESENTATION_REPRESENTATION (  '', ( #243 ), #94 ) ;
#312 = DIRECTION ( 'NONE',  ( 1.224646799147352961E-16, -1.000000000000000000, 0.000000000000000000 ) ) ;
#313 = SURFACE_STYLE_USAGE ( .BOTH. , #105 ) ;
#314 = DIRECTION ( 'NONE',  ( -1.000000000000000000, 0.000000000000000000, 0.000000000000000000 ) ) ;
#315 = CYLINDRICAL_SURFACE ( 'NONE', #201, 0.3124999999999996669 ) ;
#316 = CARTESIAN_POINT ( 'NONE',  ( -6.123233995736766036E-17, 4.000000000000000000, 0.000000000000000000 ) ) ;
#317 =( LENGTH_UNIT ( ) NAMED_UNIT ( * ) SI_UNIT ( $, .METRE. ) );
#318 = FACE_OUTER_BOUND ( 'NONE', #308, .T. ) ;
#319 = MECHANICAL_DESIGN_GEOMETRIC_PRESENTATION_REPRESENTATION (  '', ( #327 ), #33 ) ;
#320 = CIRCLE ( 'NONE', #175, 0.3125000000000000000 ) ;
#321 = LINE ( 'NONE', #341, #54 ) ;
#322 = CIRCLE ( 'NONE', #102, 0.3124999999999997224 ) ;
#323 = DIRECTION ( 'NONE',  ( 0.000000000000000000, 0.000000000000000000, -1.000000000000000000 ) ) ;
#324 = ORIENTED_EDGE ( 'NONE', *, *, #212, .T. ) ;
#325 = CARTESIAN_POINT ( 'NONE',  ( -1.913510623667739463E-17, 0.000000000000000000, 0.000000000000000000 ) ) ;
#326 =( NAMED_UNIT ( * ) SI_UNIT ( $, .STERADIAN. ) SOLID_ANGLE_UNIT ( ) );
#327 = STYLED_ITEM ( 'NONE', ( #39 ), #133 ) ;
#328 =( NAMED_UNIT ( * ) PLANE_ANGLE_UNIT ( ) SI_UNIT ( $, .RADIAN. ) );
#329 = DIMENSIONAL_EXPONENTS ( 1.000000000000000000, 0.000000000000000000, 0.000000000000000000, 0.000000000000000000, 0.000000000000000000, 0.000000000000000000, 0.000000000000000000 ) ;
#330 = AXIS2_PLACEMENT_3D ( 'NONE', #193, #312, #281 ) ;
#331 =( GEOMETRIC_REPRESENTATION_CONTEXT ( 3 ) GLOBAL_UNCERTAINTY_ASSIGNED_CONTEXT ( ( #346 ) ) GLOBAL_UNIT_ASSIGNED_CONTEXT ( ( #123, #148, #326 ) ) REPRESENTATION_CONTEXT ( 'NONE', 'WORKASPACE' ) );
#332 = COLOUR_RGB ( '',0.7921568627450980005, 0.8196078431372548767, 0.9333333333333333481 ) ;
#333 =( CONVERSION_BASED_UNIT ( 'INCH', #13 ) LENGTH_UNIT ( ) NAMED_UNIT ( #297 ) );
#334 = FILL_AREA_STYLE_COLOUR ( '', #59 ) ;
#335 = EDGE_LOOP ( 'NONE', ( #214, #4, #138, #171 ) ) ;
#336 = STYLED_ITEM ( 'NONE', ( #85 ), #261 ) ;
#337 = VERTEX_POINT ( 'NONE', #64 ) ;
#338 = SURFACE_STYLE_USAGE ( .BOTH. , #362 ) ;
#339 = ORIENTED_EDGE ( 'NONE', *, *, #363, .T. ) ;
#340 =( CONVERSION_BASED_UNIT ( 'INCH', #231 ) LENGTH_UNIT ( ) NAMED_UNIT ( #38 ) );
#341 = CARTESIAN_POINT ( 'NONE',  ( -0.3124999999999997224, 4.000000000000000000, 0.000000000000000000 ) ) ;
#342 = CIRCLE ( 'NONE', #276, 0.3124999999999995559 ) ;
#343 = CYLINDRICAL_SURFACE ( 'NONE', #209, 0.3124999999999996669 ) ;
#344 =( NAMED_UNIT ( * ) SI_UNIT ( $, .STERADIAN. ) SOLID_ANGLE_UNIT ( ) );
#345 = CARTESIAN_POINT ( 'NONE',  ( -6.123233995736766036E-17, 4.000000000000000000, 0.000000000000000000 ) ) ;
#346 = UNCERTAINTY_MEASURE_WITH_UNIT (LENGTH_MEASURE( 1.000000000000000082E-05 ), #123, 'distance_accuracy_value', 'NONE');
#347 = SURFACE_STYLE_FILL_AREA ( #90 ) ;
#348 = VERTEX_POINT ( 'NONE', #170 ) ;
#349 = SURFACE_STYLE_FILL_AREA ( #229 ) ;
#350 = DIRECTION ( 'NONE',  ( -0.000000000000000000, -1.000000000000000000, -0.000000000000000000 ) ) ;
#351 = UNCERTAINTY_MEASURE_WITH_UNIT (LENGTH_MEASURE( 1.000000000000000082E-05 ), #195, 'distance_accuracy_value', 'NONE');
#352 = DIRECTION ( 'NONE',  ( -0.000000000000000000, -1.000000000000000000, -0.000000000000000000 ) ) ;
#353 = COLOUR_RGB ( '',1.000000000000000000, 0.000000000000000000, 0.000000000000000000 ) ;
#354 = PRESENTATION_STYLE_ASSIGNMENT (( #204 ) ) ;
#355 = APPLICATION_PROTOCOL_DEFINITION ( 'draft international standard', 'automotive_design', 1998, #225 ) ;
#356 = PRESENTATION_LAYER_ASSIGNMENT (  '', '', ( #43 ) ) ;
#357 = FILL_AREA_STYLE_COLOUR ( '', #250 ) ;
#358 = DIMENSIONAL_EXPONENTS ( 1.000000000000000000, 0.000000000000000000, 0.000000000000000000, 0.000000000000000000, 0.000000000000000000, 0.000000000000000000, 0.000000000000000000 ) ;
#359 = AXIS2_PLACEMENT_3D ( 'NONE', #262, #200, #20 ) ;
#360 =( NAMED_UNIT ( * ) SI_UNIT ( $, .STERADIAN. ) SOLID_ANGLE_UNIT ( ) );
#361 = AXIS2_PLACEMENT_3D ( 'NONE', #68, #119, #149 ) ;
#362 = SURFACE_SIDE_STYLE ('',( #241 ) ) ;
#363 = EDGE_CURVE ( 'NONE', #76, #285, #65, .T. ) ;
#364 = FILL_AREA_STYLE ('',( #334 ) ) ;
#365 = DIRECTION ( 'NONE',  ( -0.000000000000000000, -1.000000000000000000, -0.000000000000000000 ) ) ;
#366 = ORIENTED_EDGE ( 'NONE', *, *, #42, .T. ) ;
#367 = EDGE_CURVE ( 'NONE', #168, #61, #144, .T. ) ;
#368 = CARTESIAN_POINT ( 'NONE',  ( -3.827021247335478926E-17, 0.3125000000000000000, 0.000000000000000000 ) ) ;
#369 = SURFACE_SIDE_STYLE ('',( #284 ) ) ;
#370 = DIRECTION ( 'NONE',  ( -1.000000000000000000, 0.000000000000000000, 0.000000000000000000 ) ) ;
#371 = SURFACE_STYLE_USAGE ( .BOTH. , #369 ) ;
#372 = AXIS2_PLACEMENT_3D ( 'NONE', #253, #365, #16 ) ;
#373 = VERTEX_POINT ( 'NONE', #172 ) ;
ENDSEC;
END-ISO-10303-21;
