ISO-10303-21;
HEADER;
FILE_DESCRIPTION (( 'STEP AP214' ),
    '1' );
FILE_NAME ('30497W.STEP',
    '2023-06-22T18:33:04',
    ( '' ),
    ( '' ),
    'SwSTEP 2.0',
    'SolidWorks 2023',
    '' );
FILE_SCHEMA (( 'AUTOMOTIVE_DESIGN' ));
ENDSEC;

DATA;
#1 =( NAMED_UNIT ( * ) SI_UNIT ( $, .STERADIAN. ) SOLID_ANGLE_UNIT ( ) );
#2 = FILL_AREA_STYLE ('',( #190 ) ) ;
#3 = CARTESIAN_POINT ( 'NONE',  ( 1.224646799147353207E-16, 2.500000000000000000, 0.000000000000000000 ) ) ;
#4 = AXIS2_PLACEMENT_3D ( 'NONE', #301, #199, #8 ) ;
#5 = DIRECTION ( 'NONE',  ( -1.000000000000000000, 0.000000000000000000, 0.000000000000000000 ) ) ;
#6 = CARTESIAN_POINT ( 'NONE',  ( 0.000000000000000000, 0.000000000000000000, 0.000000000000000000 ) ) ;
#7 = PRODUCT_DEFINITION ( 'UNKNOWN', '', #293, #115 ) ;
#8 = DIRECTION ( 'NONE',  ( 0.000000000000000000, 0.000000000000000000, -1.000000000000000000 ) ) ;
#9 = AXIS2_PLACEMENT_3D ( 'NONE', #205, #273, #229 ) ;
#10 = FACE_OUTER_BOUND ( 'NONE', #289, .T. ) ;
#11 =( LENGTH_UNIT ( ) NAMED_UNIT ( * ) SI_UNIT ( $, .METRE. ) );
#12 = EDGE_CURVE ( 'NONE', #250, #26, #188, .T. ) ;
#13 = MECHANICAL_DESIGN_GEOMETRIC_PRESENTATION_REPRESENTATION (  '', ( #145 ), #167 ) ;
#14 =( GEOMETRIC_REPRESENTATION_CONTEXT ( 3 ) GLOBAL_UNCERTAINTY_ASSIGNED_CONTEXT ( ( #133 ) ) GLOBAL_UNIT_ASSIGNED_CONTEXT ( ( #187, #263, #156 ) ) REPRESENTATION_CONTEXT ( 'NONE', 'WORKASPACE' ) );
#15 =( CONVERSION_BASED_UNIT ( 'INCH', #73 ) LENGTH_UNIT ( ) NAMED_UNIT ( #191 ) );
#16 = DIRECTION ( 'NONE',  ( 6.531449595452550356E-17, 1.000000000000000000, -0.000000000000000000 ) ) ;
#17 = DIRECTION ( 'NONE',  ( 6.531449595452550356E-17, 1.000000000000000000, -0.000000000000000000 ) ) ;
#18 = ADVANCED_FACE ( 'NONE', ( #285 ), #55, .T. ) ;
#19 = SURFACE_STYLE_FILL_AREA ( #247 ) ;
#20 = SURFACE_STYLE_USAGE ( .BOTH. , #49 ) ;
#21 = MECHANICAL_DESIGN_GEOMETRIC_PRESENTATION_REPRESENTATION (  '', ( #124 ), #271 ) ;
#22 = VECTOR ( 'NONE', #197, 39.37007874015748143 ) ;
#23 =( LENGTH_UNIT ( ) NAMED_UNIT ( * ) SI_UNIT ( $, .METRE. ) );
#24 = EDGE_LOOP ( 'NONE', ( #249, #155 ) ) ;
#25 =( CONVERSION_BASED_UNIT ( 'INCH', #153 ) LENGTH_UNIT ( ) NAMED_UNIT ( #93 ) );
#26 = VERTEX_POINT ( 'NONE', #240 ) ;
#27 = ORIENTED_EDGE ( 'NONE', *, *, #52, .F. ) ;
#28 = ORIENTED_EDGE ( 'NONE', *, *, #309, .T. ) ;
#29 = APPLICATION_PROTOCOL_DEFINITION ( 'draft international standard', 'automotive_design', 1998, #60 ) ;
#30 = ADVANCED_FACE ( 'NONE', ( #32 ), #218, .T. ) ;
#31 = CIRCLE ( 'NONE', #105, 0.2499999999999998612 ) ;
#32 = FACE_OUTER_BOUND ( 'NONE', #74, .T. ) ;
#33 = PRODUCT_DEFINITION_SHAPE ( 'NONE', 'NONE',  #7 ) ;
#34 = CARTESIAN_POINT ( 'NONE',  ( 0.000000000000000000, 0.000000000000000000, 0.000000000000000000 ) ) ;
#35 = PRESENTATION_STYLE_ASSIGNMENT (( #174 ) ) ;
#36 = DIRECTION ( 'NONE',  ( -0.000000000000000000, -1.000000000000000000, -0.000000000000000000 ) ) ;
#37 = ADVANCED_FACE ( 'NONE', ( #111 ), #225, .T. ) ;
#38 = ORIENTED_EDGE ( 'NONE', *, *, #142, .T. ) ;
#39 = COLOUR_RGB ( '',1.000000000000000000, 0.000000000000000000, 0.000000000000000000 ) ;
#40 = LENGTH_MEASURE_WITH_UNIT ( LENGTH_MEASURE( 0.02539999999999999897 ), #79 );
#41 = CARTESIAN_POINT ( 'NONE',  ( 1.224646799147353207E-16, 2.500000000000000000, 0.000000000000000000 ) ) ;
#42 = AXIS2_PLACEMENT_3D ( 'NONE', #70, #17, #164 ) ;
#43 = CARTESIAN_POINT ( 'NONE',  ( 3.061616997868383018E-17, 0.6250000000000000000, 0.2500000000000000000 ) ) ;
#44 = SURFACE_STYLE_USAGE ( .BOTH. , #143 ) ;
#45 = COLOUR_RGB ( '',0.7921568627450980005, 0.8196078431372548767, 0.9333333333333333481 ) ;
#46 = FILL_AREA_STYLE ('',( #132 ) ) ;
#47 = PRESENTATION_STYLE_ASSIGNMENT (( #117 ) ) ;
#48 = ADVANCED_FACE ( 'NONE', ( #10 ), #222, .T. ) ;
#49 = SURFACE_SIDE_STYLE ('',( #275 ) ) ;
#50 = LENGTH_MEASURE_WITH_UNIT ( LENGTH_MEASURE( 0.02539999999999999897 ), #308 );
#51 = PRESENTATION_STYLE_ASSIGNMENT (( #44 ) ) ;
#52 = EDGE_CURVE ( 'NONE', #88, #185, #299, .T. ) ;
#53 = DIRECTION ( 'NONE',  ( 0.000000000000000000, 0.000000000000000000, 1.000000000000000000 ) ) ;
#54 = FILL_AREA_STYLE_COLOUR ( '', #61 ) ;
#55 = PLANE ( 'NONE',  #57 ) ;
#56 = VERTEX_POINT ( 'NONE', #43 ) ;
#57 = AXIS2_PLACEMENT_3D ( 'NONE', #189, #236, #126 ) ;
#58 = ORIENTED_EDGE ( 'NONE', *, *, #266, .F. ) ;
#59 = PLANE ( 'NONE',  #227 ) ;
#60 = APPLICATION_CONTEXT ( 'automotive_design' ) ;
#61 = COLOUR_RGB ( '',1.000000000000000000, 0.000000000000000000, 0.000000000000000000 ) ;
#62 = FACE_OUTER_BOUND ( 'NONE', #103, .T. ) ;
#63 = AXIS2_PLACEMENT_3D ( 'NONE', #94, #163, #140 ) ;
#64 = VECTOR ( 'NONE', #36, 39.37007874015748143 ) ;
#65 =( CONVERSION_BASED_UNIT ( 'INCH', #265 ) LENGTH_UNIT ( ) NAMED_UNIT ( #181 ) );
#66 =( LENGTH_UNIT ( ) NAMED_UNIT ( * ) SI_UNIT ( $, .METRE. ) );
#67 = DIRECTION ( 'NONE',  ( 6.531449595452550356E-17, 1.000000000000000000, -0.000000000000000000 ) ) ;
#68 = PRESENTATION_LAYER_ASSIGNMENT (  '', '', ( #242 ) ) ;
#69 = ADVANCED_FACE ( 'NONE', ( #62 ), #297, .F. ) ;
#70 = CARTESIAN_POINT ( 'NONE',  ( 0.000000000000000000, 0.6250000000000000000, 0.000000000000000000 ) ) ;
#71 = PRESENTATION_LAYER_ASSIGNMENT (  '', '', ( #160 ) ) ;
#72 =( CONVERSION_BASED_UNIT ( 'INCH', #204 ) LENGTH_UNIT ( ) NAMED_UNIT ( #107 ) );
#73 = LENGTH_MEASURE_WITH_UNIT ( LENGTH_MEASURE( 0.02539999999999999897 ), #23 );
#74 = EDGE_LOOP ( 'NONE', ( #277, #147, #28, #214 ) ) ;
#75 = COLOUR_RGB ( '',1.000000000000000000, 0.000000000000000000, 0.000000000000000000 ) ;
#76 = ORIENTED_EDGE ( 'NONE', *, *, #309, .F. ) ;
#77 = UNCERTAINTY_MEASURE_WITH_UNIT (LENGTH_MEASURE( 1.000000000000000082E-05 ), #15, 'distance_accuracy_value', 'NONE');
#78 = MANIFOLD_SOLID_BREP ( 'Revolve - Tool Body (Straight Shanked)', #92 ) ;
#79 =( LENGTH_UNIT ( ) NAMED_UNIT ( * ) SI_UNIT ( $, .METRE. ) );
#80 = ADVANCED_FACE ( 'NONE', ( #180 ), #272, .T. ) ;
#81 = CARTESIAN_POINT ( 'NONE',  ( -0.2500000000000000000, 0.6250000000000000000, 0.000000000000000000 ) ) ;
#82 =( NAMED_UNIT ( * ) PLANE_ANGLE_UNIT ( ) SI_UNIT ( $, .RADIAN. ) );
#83 =( NAMED_UNIT ( * ) SI_UNIT ( $, .STERADIAN. ) SOLID_ANGLE_UNIT ( ) );
#84 = VECTOR ( 'NONE', #170, 39.37007874015748143 ) ;
#85 =( LENGTH_UNIT ( ) NAMED_UNIT ( * ) SI_UNIT ( $, .METRE. ) );
#86 = CIRCLE ( 'NONE', #63, 0.2500000000000000000 ) ;
#87 = AXIS2_PLACEMENT_3D ( 'NONE', #259, #89, #141 ) ;
#88 = VERTEX_POINT ( 'NONE', #148 ) ;
#89 = DIRECTION ( 'NONE',  ( -6.531449595452550356E-17, -1.000000000000000000, 0.000000000000000000 ) ) ;
#90 = EDGE_LOOP ( 'NONE', ( #237, #168 ) ) ;
#91 = EDGE_CURVE ( 'NONE', #234, #56, #292, .T. ) ;
#92 = CLOSED_SHELL ( 'NONE', ( #48, #69, #30, #245 ) ) ;
#93 = DIMENSIONAL_EXPONENTS ( 1.000000000000000000, 0.000000000000000000, 0.000000000000000000, 0.000000000000000000, 0.000000000000000000, 0.000000000000000000, 0.000000000000000000 ) ;
#94 = CARTESIAN_POINT ( 'NONE',  ( 0.000000000000000000, 0.6250000000000000000, 0.000000000000000000 ) ) ;
#95 = SURFACE_SIDE_STYLE ('',( #19 ) ) ;
#96 = ORIENTED_EDGE ( 'NONE', *, *, #266, .T. ) ;
#97 = CIRCLE ( 'NONE', #42, 0.2500000000000000000 ) ;
#98 =( NAMED_UNIT ( * ) PLANE_ANGLE_UNIT ( ) SI_UNIT ( $, .RADIAN. ) );
#99 = EDGE_LOOP ( 'NONE', ( #144, #38 ) ) ;
#100 = DIRECTION ( 'NONE',  ( -0.000000000000000000, -1.000000000000000000, -0.000000000000000000 ) ) ;
#101 = ORIENTED_EDGE ( 'NONE', *, *, #108, .T. ) ;
#102 = DIRECTION ( 'NONE',  ( 0.000000000000000000, 0.000000000000000000, -1.000000000000000000 ) ) ;
#103 = EDGE_LOOP ( 'NONE', ( #231, #212 ) ) ;
#104 =( NAMED_UNIT ( * ) SI_UNIT ( $, .STERADIAN. ) SOLID_ANGLE_UNIT ( ) );
#105 = AXIS2_PLACEMENT_3D ( 'NONE', #221, #279, #118 ) ;
#106 = ORIENTED_EDGE ( 'NONE', *, *, #286, .F. ) ;
#107 = DIMENSIONAL_EXPONENTS ( 1.000000000000000000, 0.000000000000000000, 0.000000000000000000, 0.000000000000000000, 0.000000000000000000, 0.000000000000000000, 0.000000000000000000 ) ;
#108 = EDGE_CURVE ( 'NONE', #56, #234, #210, .T. ) ;
#109 = FILL_AREA_STYLE ('',( #54 ) ) ;
#110 = EDGE_CURVE ( 'NONE', #26, #262, #307, .T. ) ;
#111 = FACE_OUTER_BOUND ( 'NONE', #146, .T. ) ;
#112 = AXIS2_PLACEMENT_3D ( 'NONE', #138, #100, #183 ) ;
#113 =( NAMED_UNIT ( * ) SI_UNIT ( $, .STERADIAN. ) SOLID_ANGLE_UNIT ( ) );
#114 = EDGE_CURVE ( 'NONE', #250, #255, #86, .T. ) ;
#115 = PRODUCT_DEFINITION_CONTEXT ( 'detailed design', #154, 'design' ) ;
#116 = MECHANICAL_DESIGN_GEOMETRIC_PRESENTATION_REPRESENTATION (  '', ( #242 ), #161 ) ;
#117 = SURFACE_STYLE_USAGE ( .BOTH. , #95 ) ;
#118 = DIRECTION ( 'NONE',  ( -1.000000000000000000, 0.000000000000000000, 0.000000000000000000 ) ) ;
#119 = ADVANCED_FACE ( 'NONE', ( #121 ), #59, .T. ) ;
#120 = UNCERTAINTY_MEASURE_WITH_UNIT (LENGTH_MEASURE( 1.000000000000000082E-05 ), #65, 'distance_accuracy_value', 'NONE');
#121 = FACE_OUTER_BOUND ( 'NONE', #90, .T. ) ;
#122 = PRESENTATION_STYLE_ASSIGNMENT (( #20 ) ) ;
#123 = PRESENTATION_LAYER_ASSIGNMENT (  '', '', ( #124 ) ) ;
#124 = STYLED_ITEM ( 'NONE', ( #122 ), #171 ) ;
#125 = EDGE_CURVE ( 'NONE', #262, #26, #31, .T. ) ;
#126 = DIRECTION ( 'NONE',  ( 0.000000000000000000, 0.000000000000000000, -1.000000000000000000 ) ) ;
#127 = DIMENSIONAL_EXPONENTS ( 1.000000000000000000, 0.000000000000000000, 0.000000000000000000, 0.000000000000000000, 0.000000000000000000, 0.000000000000000000, 0.000000000000000000 ) ;
#128 = CARTESIAN_POINT ( 'NONE',  ( 0.2500000000000000555, 2.500000000000000000, 3.061616997868382402E-17 ) ) ;
#129 = SURFACE_SIDE_STYLE ('',( #220 ) ) ;
#130 =( GEOMETRIC_REPRESENTATION_CONTEXT ( 3 ) GLOBAL_UNCERTAINTY_ASSIGNED_CONTEXT ( ( #207 ) ) GLOBAL_UNIT_ASSIGNED_CONTEXT ( ( #254, #290, #194 ) ) REPRESENTATION_CONTEXT ( 'NONE', 'WORKASPACE' ) );
#131 = DIRECTION ( 'NONE',  ( -1.000000000000000000, 0.000000000000000000, 0.000000000000000000 ) ) ;
#132 = FILL_AREA_STYLE_COLOUR ( '', #39 ) ;
#133 = UNCERTAINTY_MEASURE_WITH_UNIT (LENGTH_MEASURE( 1.000000000000000082E-05 ), #187, 'distance_accuracy_value', 'NONE');
#134 = CARTESIAN_POINT ( 'NONE',  ( 0.000000000000000000, 0.000000000000000000, 0.000000000000000000 ) ) ;
#135 = PRESENTATION_LAYER_ASSIGNMENT (  '', '', ( #223 ) ) ;
#136 = FILL_AREA_STYLE ('',( #201 ) ) ;
#137 = COLOUR_RGB ( '',1.000000000000000000, 0.000000000000000000, 0.000000000000000000 ) ;
#138 = CARTESIAN_POINT ( 'NONE',  ( 0.000000000000000000, 0.6250000000000000000, 0.000000000000000000 ) ) ;
#139 =( NAMED_UNIT ( * ) PLANE_ANGLE_UNIT ( ) SI_UNIT ( $, .RADIAN. ) );
#140 = DIRECTION ( 'NONE',  ( -1.000000000000000000, 0.000000000000000000, 0.000000000000000000 ) ) ;
#141 = DIRECTION ( 'NONE',  ( 1.000000000000000000, -6.531449595452550356E-17, 0.000000000000000000 ) ) ;
#142 = EDGE_CURVE ( 'NONE', #185, #88, #244, .T. ) ;
#143 = SURFACE_SIDE_STYLE ('',( #206 ) ) ;
#144 = ORIENTED_EDGE ( 'NONE', *, *, #52, .T. ) ;
#145 = STYLED_ITEM ( 'NONE', ( #47 ), #80 ) ;
#146 = EDGE_LOOP ( 'NONE', ( #106, #101, #96, #228 ) ) ;
#147 = ORIENTED_EDGE ( 'NONE', *, *, #114, .T. ) ;
#148 = CARTESIAN_POINT ( 'NONE',  ( 0.000000000000000000, 0.000000000000000000, -0.2500000000000000000 ) ) ;
#149 =( CONVERSION_BASED_UNIT ( 'INCH', #50 ) LENGTH_UNIT ( ) NAMED_UNIT ( #127 ) );
#150 = PLANE ( 'NONE',  #87 ) ;
#151 = ORIENTED_EDGE ( 'NONE', *, *, #91, .T. ) ;
#152 = AXIS2_PLACEMENT_3D ( 'NONE', #282, #16, #208 ) ;
#153 = LENGTH_MEASURE_WITH_UNIT ( LENGTH_MEASURE( 0.02539999999999999897 ), #280 );
#154 = APPLICATION_CONTEXT ( 'automotive_design' ) ;
#155 = ORIENTED_EDGE ( 'NONE', *, *, #110, .T. ) ;
#156 =( NAMED_UNIT ( * ) SI_UNIT ( $, .STERADIAN. ) SOLID_ANGLE_UNIT ( ) );
#157 = AXIS2_PLACEMENT_3D ( 'NONE', #41, #67, #5 ) ;
#158 = DIRECTION ( 'NONE',  ( 0.000000000000000000, 0.000000000000000000, -1.000000000000000000 ) ) ;
#159 = EDGE_CURVE ( 'NONE', #255, #250, #97, .T. ) ;
#160 = STYLED_ITEM ( 'NONE', ( #184 ), #18 ) ;
#161 =( GEOMETRIC_REPRESENTATION_CONTEXT ( 3 ) GLOBAL_UNCERTAINTY_ASSIGNED_CONTEXT ( ( #120 ) ) GLOBAL_UNIT_ASSIGNED_CONTEXT ( ( #65, #224, #113 ) ) REPRESENTATION_CONTEXT ( 'NONE', 'WORKASPACE' ) );
#162 = FILL_AREA_STYLE_COLOUR ( '', #75 ) ;
#163 = DIRECTION ( 'NONE',  ( 6.531449595452550356E-17, 1.000000000000000000, -0.000000000000000000 ) ) ;
#164 = DIRECTION ( 'NONE',  ( -1.000000000000000000, 0.000000000000000000, 0.000000000000000000 ) ) ;
#165 = DIRECTION ( 'NONE',  ( -0.000000000000000000, -1.000000000000000000, -0.000000000000000000 ) ) ;
#166 = VECTOR ( 'NONE', #169, 39.37007874015748143 ) ;
#167 =( GEOMETRIC_REPRESENTATION_CONTEXT ( 3 ) GLOBAL_UNCERTAINTY_ASSIGNED_CONTEXT ( ( #226 ) ) GLOBAL_UNIT_ASSIGNED_CONTEXT ( ( #72, #139, #104 ) ) REPRESENTATION_CONTEXT ( 'NONE', 'WORKASPACE' ) );
#168 = ORIENTED_EDGE ( 'NONE', *, *, #108, .F. ) ;
#169 = DIRECTION ( 'NONE',  ( 6.531449595452550356E-17, 1.000000000000000000, -0.000000000000000000 ) ) ;
#170 = DIRECTION ( 'NONE',  ( -0.000000000000000000, -1.000000000000000000, -0.000000000000000000 ) ) ;
#171 = MANIFOLD_SOLID_BREP ( 'Revolve - Cutting Edge', #291 ) ;
#172 = DIRECTION ( 'NONE',  ( 1.000000000000000000, 0.000000000000000000, 0.000000000000000000 ) ) ;
#173 = PRODUCT_RELATED_PRODUCT_CATEGORY ( 'part', '', ( #256 ) ) ;
#174 = SURFACE_STYLE_USAGE ( .BOTH. , #129 ) ;
#175 = CARTESIAN_POINT ( 'NONE',  ( -0.2499999999999997224, 2.500000000000000000, 0.000000000000000000 ) ) ;
#176 = PRESENTATION_STYLE_ASSIGNMENT (( #243 ) ) ;
#177 = CARTESIAN_POINT ( 'NONE',  ( 5.332479227242161011E-34, 0.6250000000000000000, 0.000000000000000000 ) ) ;
#178 = DIRECTION ( 'NONE',  ( 6.531449595452550356E-17, 1.000000000000000000, -0.000000000000000000 ) ) ;
#179 = PRESENTATION_LAYER_ASSIGNMENT (  '', '', ( #145 ) ) ;
#180 = FACE_OUTER_BOUND ( 'NONE', #284, .T. ) ;
#181 = DIMENSIONAL_EXPONENTS ( 1.000000000000000000, 0.000000000000000000, 0.000000000000000000, 0.000000000000000000, 0.000000000000000000, 0.000000000000000000, 0.000000000000000000 ) ;
#182 = AXIS2_PLACEMENT_3D ( 'NONE', #34, #53, #172 ) ;
#183 = DIRECTION ( 'NONE',  ( 0.000000000000000000, 0.000000000000000000, -1.000000000000000000 ) ) ;
#184 = PRESENTATION_STYLE_ASSIGNMENT (( #216 ) ) ;
#185 = VERTEX_POINT ( 'NONE', #294 ) ;
#186 = ORIENTED_EDGE ( 'NONE', *, *, #286, .T. ) ;
#187 =( CONVERSION_BASED_UNIT ( 'INCH', #298 ) LENGTH_UNIT ( ) NAMED_UNIT ( #270 ) );
#188 = LINE ( 'NONE', #128, #166 ) ;
#189 = CARTESIAN_POINT ( 'NONE',  ( 0.000000000000000000, 0.000000000000000000, 0.000000000000000000 ) ) ;
#190 = FILL_AREA_STYLE_COLOUR ( '', #137 ) ;
#191 = DIMENSIONAL_EXPONENTS ( 1.000000000000000000, 0.000000000000000000, 0.000000000000000000, 0.000000000000000000, 0.000000000000000000, 0.000000000000000000, 0.000000000000000000 ) ;
#192 = PRODUCT_CONTEXT ( 'NONE', #60, 'mechanical' ) ;
#193 = DIRECTION ( 'NONE',  ( 6.531449595452550356E-17, 1.000000000000000000, -0.000000000000000000 ) ) ;
#194 =( NAMED_UNIT ( * ) SI_UNIT ( $, .STERADIAN. ) SOLID_ANGLE_UNIT ( ) );
#195 = MECHANICAL_DESIGN_GEOMETRIC_PRESENTATION_REPRESENTATION (  '', ( #160 ), #215 ) ;
#196 =( GEOMETRIC_REPRESENTATION_CONTEXT ( 3 ) GLOBAL_UNCERTAINTY_ASSIGNED_CONTEXT ( ( #77 ) ) GLOBAL_UNIT_ASSIGNED_CONTEXT ( ( #15, #98, #83 ) ) REPRESENTATION_CONTEXT ( 'NONE', 'WORKASPACE' ) );
#197 = DIRECTION ( 'NONE',  ( 6.531449595452550356E-17, 1.000000000000000000, -0.000000000000000000 ) ) ;
#198 = DIMENSIONAL_EXPONENTS ( 1.000000000000000000, 0.000000000000000000, 0.000000000000000000, 0.000000000000000000, 0.000000000000000000, 0.000000000000000000, 0.000000000000000000 ) ;
#199 = DIRECTION ( 'NONE',  ( -0.000000000000000000, -1.000000000000000000, -0.000000000000000000 ) ) ;
#200 = LINE ( 'NONE', #296, #84 ) ;
#201 = FILL_AREA_STYLE_COLOUR ( '', #45 ) ;
#202 = MECHANICAL_DESIGN_GEOMETRIC_PRESENTATION_REPRESENTATION (  '', ( #223 ), #130 ) ;
#203 = AXIS2_PLACEMENT_3D ( 'NONE', #134, #267, #158 ) ;
#204 = LENGTH_MEASURE_WITH_UNIT ( LENGTH_MEASURE( 0.02539999999999999897 ), #11 );
#205 = CARTESIAN_POINT ( 'NONE',  ( 0.000000000000000000, 0.000000000000000000, 0.000000000000000000 ) ) ;
#206 = SURFACE_STYLE_FILL_AREA ( #46 ) ;
#207 = UNCERTAINTY_MEASURE_WITH_UNIT (LENGTH_MEASURE( 1.000000000000000082E-05 ), #254, 'distance_accuracy_value', 'NONE');
#208 = DIRECTION ( 'NONE',  ( -1.000000000000000000, 0.000000000000000000, 0.000000000000000000 ) ) ;
#209 = CARTESIAN_POINT ( 'NONE',  ( 0.2500000000000000555, 0.6250000000000000000, 3.061616997868383018E-17 ) ) ;
#210 = CIRCLE ( 'NONE', #251, 0.2500000000000000000 ) ;
#211 = DIRECTION ( 'NONE',  ( 0.000000000000000000, 0.000000000000000000, -1.000000000000000000 ) ) ;
#212 = ORIENTED_EDGE ( 'NONE', *, *, #114, .F. ) ;
#213 =( NAMED_UNIT ( * ) PLANE_ANGLE_UNIT ( ) SI_UNIT ( $, .RADIAN. ) );
#214 = ORIENTED_EDGE ( 'NONE', *, *, #110, .F. ) ;
#215 =( GEOMETRIC_REPRESENTATION_CONTEXT ( 3 ) GLOBAL_UNCERTAINTY_ASSIGNED_CONTEXT ( ( #232 ) ) GLOBAL_UNIT_ASSIGNED_CONTEXT ( ( #25, #213, #252 ) ) REPRESENTATION_CONTEXT ( 'NONE', 'WORKASPACE' ) );
#216 = SURFACE_STYLE_USAGE ( .BOTH. , #288 ) ;
#217 = APPLICATION_PROTOCOL_DEFINITION ( 'draft international standard', 'automotive_design', 1998, #154 ) ;
#218 = CYLINDRICAL_SURFACE ( 'NONE', #257, 0.2499999999999999167 ) ;
#219 = CARTESIAN_POINT ( 'NONE',  ( -0.2499999999999998057, 2.500000000000000000, 0.000000000000000000 ) ) ;
#220 = SURFACE_STYLE_FILL_AREA ( #2 ) ;
#221 = CARTESIAN_POINT ( 'NONE',  ( 1.224646799147353207E-16, 2.500000000000000000, 0.000000000000000000 ) ) ;
#222 = CYLINDRICAL_SURFACE ( 'NONE', #157, 0.2499999999999999167 ) ;
#223 = STYLED_ITEM ( 'NONE', ( #35 ), #119 ) ;
#224 =( NAMED_UNIT ( * ) PLANE_ANGLE_UNIT ( ) SI_UNIT ( $, .RADIAN. ) );
#225 = CYLINDRICAL_SURFACE ( 'NONE', #203, 0.2500000000000000000 ) ;
#226 = UNCERTAINTY_MEASURE_WITH_UNIT (LENGTH_MEASURE( 1.000000000000000082E-05 ), #72, 'distance_accuracy_value', 'NONE');
#227 = AXIS2_PLACEMENT_3D ( 'NONE', #268, #303, #264 ) ;
#228 = ORIENTED_EDGE ( 'NONE', *, *, #142, .F. ) ;
#229 = DIRECTION ( 'NONE',  ( 0.000000000000000000, 0.000000000000000000, -1.000000000000000000 ) ) ;
#230 = MECHANICAL_DESIGN_GEOMETRIC_PRESENTATION_REPRESENTATION (  '', ( #269 ), #196 ) ;
#231 = ORIENTED_EDGE ( 'NONE', *, *, #159, .F. ) ;
#232 = UNCERTAINTY_MEASURE_WITH_UNIT (LENGTH_MEASURE( 1.000000000000000082E-05 ), #25, 'distance_accuracy_value', 'NONE');
#233 = ORIENTED_EDGE ( 'NONE', *, *, #159, .T. ) ;
#234 = VERTEX_POINT ( 'NONE', #261 ) ;
#235 = SURFACE_STYLE_FILL_AREA ( #109 ) ;
#236 = DIRECTION ( 'NONE',  ( 0.000000000000000000, -1.000000000000000000, -0.000000000000000000 ) ) ;
#237 = ORIENTED_EDGE ( 'NONE', *, *, #91, .F. ) ;
#238 = AXIS2_PLACEMENT_3D ( 'NONE', #6, #306, #211 ) ;
#239 = ORIENTED_EDGE ( 'NONE', *, *, #12, .T. ) ;
#240 = CARTESIAN_POINT ( 'NONE',  ( 0.2500000000000000555, 2.500000000000000000, 3.061616997868383018E-17 ) ) ;
#241 = CARTESIAN_POINT ( 'NONE',  ( 3.061616997868383018E-17, 0.000000000000000000, 0.2500000000000000000 ) ) ;
#242 = STYLED_ITEM ( 'NONE', ( #176 ), #78 ) ;
#243 = SURFACE_STYLE_USAGE ( .BOTH. , #302 ) ;
#244 = CIRCLE ( 'NONE', #9, 0.2500000000000000000 ) ;
#245 = ADVANCED_FACE ( 'NONE', ( #253 ), #150, .F. ) ;
#246 = COLOUR_RGB ( '',0.7921568627450980005, 0.8196078431372548767, 0.9333333333333333481 ) ;
#247 = FILL_AREA_STYLE ('',( #162 ) ) ;
#248 = FILL_AREA_STYLE ('',( #304 ) ) ;
#249 = ORIENTED_EDGE ( 'NONE', *, *, #125, .T. ) ;
#250 = VERTEX_POINT ( 'NONE', #209 ) ;
#251 = AXIS2_PLACEMENT_3D ( 'NONE', #278, #165, #102 ) ;
#252 =( NAMED_UNIT ( * ) SI_UNIT ( $, .STERADIAN. ) SOLID_ANGLE_UNIT ( ) );
#253 = FACE_OUTER_BOUND ( 'NONE', #24, .T. ) ;
#254 =( CONVERSION_BASED_UNIT ( 'INCH', #40 ) LENGTH_UNIT ( ) NAMED_UNIT ( #198 ) );
#255 = VERTEX_POINT ( 'NONE', #81 ) ;
#256 = PRODUCT ( '30497W', '30497W', '', ( #192 ) ) ;
#257 = AXIS2_PLACEMENT_3D ( 'NONE', #3, #193, #131 ) ;
#258 = LINE ( 'NONE', #241, #64 ) ;
#259 = CARTESIAN_POINT ( 'NONE',  ( 0.2500000000000000000, 2.500000000000000000, 0.000000000000000000 ) ) ;
#260 = LINE ( 'NONE', #219, #22 ) ;
#261 = CARTESIAN_POINT ( 'NONE',  ( 0.000000000000000000, 0.6250000000000000000, -0.2500000000000000000 ) ) ;
#262 = VERTEX_POINT ( 'NONE', #175 ) ;
#263 =( NAMED_UNIT ( * ) PLANE_ANGLE_UNIT ( ) SI_UNIT ( $, .RADIAN. ) );
#264 = DIRECTION ( 'NONE',  ( 0.000000000000000000, -0.000000000000000000, 1.000000000000000000 ) ) ;
#265 = LENGTH_MEASURE_WITH_UNIT ( LENGTH_MEASURE( 0.02539999999999999897 ), #85 );
#266 = EDGE_CURVE ( 'NONE', #234, #88, #200, .T. ) ;
#267 = DIRECTION ( 'NONE',  ( -0.000000000000000000, -1.000000000000000000, -0.000000000000000000 ) ) ;
#268 = CARTESIAN_POINT ( 'NONE',  ( 0.000000000000000000, 0.6250000000000000000, 0.000000000000000000 ) ) ;
#269 = STYLED_ITEM ( 'NONE', ( #51 ), #37 ) ;
#270 = DIMENSIONAL_EXPONENTS ( 1.000000000000000000, 0.000000000000000000, 0.000000000000000000, 0.000000000000000000, 0.000000000000000000, 0.000000000000000000, 0.000000000000000000 ) ;
#271 =( GEOMETRIC_REPRESENTATION_CONTEXT ( 3 ) GLOBAL_UNCERTAINTY_ASSIGNED_CONTEXT ( ( #305 ) ) GLOBAL_UNIT_ASSIGNED_CONTEXT ( ( #149, #82, #1 ) ) REPRESENTATION_CONTEXT ( 'NONE', 'WORKASPACE' ) );
#272 = CYLINDRICAL_SURFACE ( 'NONE', #238, 0.2500000000000000000 ) ;
#273 = DIRECTION ( 'NONE',  ( -0.000000000000000000, -1.000000000000000000, -0.000000000000000000 ) ) ;
#274 = AXIS2_PLACEMENT_3D ( 'NONE', #177, #178, #300 ) ;
#275 = SURFACE_STYLE_FILL_AREA ( #248 ) ;
#276 = ADVANCED_BREP_SHAPE_REPRESENTATION ( '30497W', ( #171, #78, #182 ), #14 ) ;
#277 = ORIENTED_EDGE ( 'NONE', *, *, #12, .F. ) ;
#278 = CARTESIAN_POINT ( 'NONE',  ( 0.000000000000000000, 0.6250000000000000000, 0.000000000000000000 ) ) ;
#279 = DIRECTION ( 'NONE',  ( 6.531449595452550356E-17, 1.000000000000000000, -0.000000000000000000 ) ) ;
#280 =( LENGTH_UNIT ( ) NAMED_UNIT ( * ) SI_UNIT ( $, .METRE. ) );
#281 = ORIENTED_EDGE ( 'NONE', *, *, #125, .F. ) ;
#282 = CARTESIAN_POINT ( 'NONE',  ( 1.224646799147353207E-16, 2.500000000000000000, 0.000000000000000000 ) ) ;
#283 = PRESENTATION_LAYER_ASSIGNMENT (  '', '', ( #269 ) ) ;
#284 = EDGE_LOOP ( 'NONE', ( #151, #186, #27, #58 ) ) ;
#285 = FACE_OUTER_BOUND ( 'NONE', #99, .T. ) ;
#286 = EDGE_CURVE ( 'NONE', #56, #185, #258, .T. ) ;
#287 = SHAPE_DEFINITION_REPRESENTATION ( #33, #276 ) ;
#288 = SURFACE_SIDE_STYLE ('',( #235 ) ) ;
#289 = EDGE_LOOP ( 'NONE', ( #233, #239, #281, #76 ) ) ;
#290 =( NAMED_UNIT ( * ) PLANE_ANGLE_UNIT ( ) SI_UNIT ( $, .RADIAN. ) );
#291 = CLOSED_SHELL ( 'NONE', ( #80, #119, #37, #18 ) ) ;
#292 = CIRCLE ( 'NONE', #112, 0.2500000000000000000 ) ;
#293 = PRODUCT_DEFINITION_FORMATION_WITH_SPECIFIED_SOURCE ( 'ANY', '', #256, .NOT_KNOWN. ) ;
#294 = CARTESIAN_POINT ( 'NONE',  ( 3.061616997868383018E-17, 0.000000000000000000, 0.2500000000000000000 ) ) ;
#295 = SURFACE_STYLE_FILL_AREA ( #136 ) ;
#296 = CARTESIAN_POINT ( 'NONE',  ( 0.000000000000000000, 0.000000000000000000, -0.2500000000000000000 ) ) ;
#297 = PLANE ( 'NONE',  #274 ) ;
#298 = LENGTH_MEASURE_WITH_UNIT ( LENGTH_MEASURE( 0.02539999999999999897 ), #66 );
#299 = CIRCLE ( 'NONE', #4, 0.2500000000000000000 ) ;
#300 = DIRECTION ( 'NONE',  ( -1.000000000000000000, 6.531449595452550356E-17, 0.000000000000000000 ) ) ;
#301 = CARTESIAN_POINT ( 'NONE',  ( 0.000000000000000000, 0.000000000000000000, 0.000000000000000000 ) ) ;
#302 = SURFACE_SIDE_STYLE ('',( #295 ) ) ;
#303 = DIRECTION ( 'NONE',  ( 0.000000000000000000, 1.000000000000000000, 0.000000000000000000 ) ) ;
#304 = FILL_AREA_STYLE_COLOUR ( '', #246 ) ;
#305 = UNCERTAINTY_MEASURE_WITH_UNIT (LENGTH_MEASURE( 1.000000000000000082E-05 ), #149, 'distance_accuracy_value', 'NONE');
#306 = DIRECTION ( 'NONE',  ( -0.000000000000000000, -1.000000000000000000, -0.000000000000000000 ) ) ;
#307 = CIRCLE ( 'NONE', #152, 0.2499999999999998612 ) ;
#308 =( LENGTH_UNIT ( ) NAMED_UNIT ( * ) SI_UNIT ( $, .METRE. ) );
#309 = EDGE_CURVE ( 'NONE', #255, #262, #260, .T. ) ;
ENDSEC;
END-ISO-10303-21;
