ISO-10303-21;
HEADER;
FILE_DESCRIPTION (( 'STEP AP214' ),
    '1' );
FILE_NAME ('Micro_SEM-109-02.STEP',
    '2021-09-02T01:15:16',
    ( '' ),
    ( '' ),
    'SwSTEP 2.0',
    'SolidWorks 2020',
    '' );
FILE_SCHEMA (( 'AUTOMOTIVE_DESIGN' ));
ENDSEC;

DATA;
#1 = DIRECTION ( 'NONE',  ( 1.000000000000000000, 0.0000000000000000000, 0.0000000000000000000 ) ) ;
#2 = PLANE ( 'NONE',  #130 ) ;
#3 = FILL_AREA_STYLE_COLOUR ( '', #197 ) ;
#4 = ORIENTED_EDGE ( 'NONE', *, *, #231, .T. ) ;
#5 = CYLINDRICAL_SURFACE ( 'NONE', #83, 0.05464530000000000776 ) ;
#6 = ADVANCED_FACE ( 'NONE', ( #178 ), #139, .T. ) ;
#7 = DIRECTION ( 'NONE',  ( 0.0000000000000000000, 0.0000000000000000000, 1.000000000000000000 ) ) ;
#8 = ORIENTED_EDGE ( 'NONE', *, *, #136, .F. ) ;
#9 = ORIENTED_EDGE ( 'NONE', *, *, #82, .T. ) ;
#10 = EDGE_CURVE ( 'NONE', #85, #195, #226, .T. ) ;
#11 = CLOSED_SHELL ( 'NONE', ( #191, #237, #143, #6, #219, #109, #69, #124, #294, #177 ) ) ;
#12 = DIRECTION ( 'NONE',  ( -1.000000000000000000, 0.0000000000000000000, 0.0000000000000000000 ) ) ;
#13 = AXIS2_PLACEMENT_3D ( 'NONE', #90, #14, #159 ) ;
#14 = DIRECTION ( 'NONE',  ( -1.224646799147353454E-16, -0.0000000000000000000, -1.000000000000000000 ) ) ;
#15 = DIRECTION ( 'NONE',  ( -1.224646799147353454E-16, -0.0000000000000000000, -1.000000000000000000 ) ) ;
#16 = FACE_OUTER_BOUND ( 'NONE', #182, .T. ) ;
#17 = PRESENTATION_LAYER_ASSIGNMENT (  '', '', ( #140 ) ) ;
#18 = PRODUCT_DEFINITION ( 'UNKNOWN', '', #187, #78 ) ;
#19 = CARTESIAN_POINT ( 'NONE',  ( 2.302335982397024786E-17, 0.0000000000000000000, 0.1880000000000000282 ) ) ;
#20 = DIRECTION ( 'NONE',  ( -1.000000000000000000, 0.0000000000000000000, 0.0000000000000000000 ) ) ;
#21 = FACE_OUTER_BOUND ( 'NONE', #158, .T. ) ;
#22 = VECTOR ( 'NONE', #272, 39.37007874015748143 ) ;
#23 = SURFACE_STYLE_FILL_AREA ( #210 ) ;
#24 = UNCERTAINTY_MEASURE_WITH_UNIT (LENGTH_MEASURE( 1.000000000000000082E-05 ), #211, 'distance_accuracy_value', 'NONE');
#25 = FACE_OUTER_BOUND ( 'NONE', #291, .T. ) ;
#26 = PRODUCT_DEFINITION_SHAPE ( 'NONE', 'NONE',  #18 ) ;
#27 = CARTESIAN_POINT ( 'NONE',  ( 0.0000000000000000000, 0.0000000000000000000, 0.0000000000000000000 ) ) ;
#28 = CIRCLE ( 'NONE', #200, 0.05464530000000000776 ) ;
#29 = VECTOR ( 'NONE', #230, 39.37007874015748143 ) ;
#30 = SURFACE_STYLE_USAGE ( .BOTH. , #152 ) ;
#31 = ORIENTED_EDGE ( 'NONE', *, *, #47, .F. ) ;
#32 =( LENGTH_UNIT ( ) NAMED_UNIT ( * ) SI_UNIT ( $, .METRE. ) );
#33 = EDGE_LOOP ( 'NONE', ( #183, #35 ) ) ;
#34 = CARTESIAN_POINT ( 'NONE',  ( 0.05464529999999999388, 6.692119173344685866E-18, 9.478001694819074349E-34 ) ) ;
#35 = ORIENTED_EDGE ( 'NONE', *, *, #240, .T. ) ;
#36 = PRODUCT_RELATED_PRODUCT_CATEGORY ( 'part', '', ( #233 ) ) ;
#37 = PRESENTATION_STYLE_ASSIGNMENT (( #30 ) ) ;
#38 = ORIENTED_EDGE ( 'NONE', *, *, #172, .T. ) ;
#39 = DIMENSIONAL_EXPONENTS ( 1.000000000000000000, 0.0000000000000000000, 0.0000000000000000000, 0.0000000000000000000, 0.0000000000000000000, 0.0000000000000000000, 0.0000000000000000000 ) ;
#40 = CARTESIAN_POINT ( 'NONE',  ( -0.06249999999999997224, 0.0000000000000000000, 0.2325462173085509621 ) ) ;
#41 = VECTOR ( 'NONE', #116, 39.37007874015748143 ) ;
#42 = CARTESIAN_POINT ( 'NONE',  ( 0.0000000000000000000, 0.0000000000000000000, 1.500000000000000222 ) ) ;
#43 = CARTESIAN_POINT ( 'NONE',  ( 0.0000000000000000000, 0.0000000000000000000, 1.485000000000000764 ) ) ;
#44 = CARTESIAN_POINT ( 'NONE',  ( 0.0000000000000000000, 0.0000000000000000000, 1.500000000000000222 ) ) ;
#45 = EDGE_LOOP ( 'NONE', ( #284, #108, #87, #31 ) ) ;
#46 = VECTOR ( 'NONE', #121, 39.37007874015747433 ) ;
#47 = EDGE_CURVE ( 'NONE', #195, #218, #119, .T. ) ;
#48 =( NAMED_UNIT ( * ) SI_UNIT ( $, .STERADIAN. ) SOLID_ANGLE_UNIT ( ) );
#49 = PRESENTATION_LAYER_ASSIGNMENT (  '', '', ( #244 ) ) ;
#50 = CARTESIAN_POINT ( 'NONE',  ( 8.195482325149204388E-34, 0.0000000000000000000, 6.692119173344687407E-18 ) ) ;
#51 = EDGE_CURVE ( 'NONE', #192, #137, #65, .T. ) ;
#52 = ORIENTED_EDGE ( 'NONE', *, *, #172, .F. ) ;
#53 = VECTOR ( 'NONE', #251, 39.37007874015748143 ) ;
#54 = DIRECTION ( 'NONE',  ( -1.000000000000000000, 0.0000000000000000000, 1.224646799147353454E-16 ) ) ;
#55 = ORIENTED_EDGE ( 'NONE', *, *, #165, .F. ) ;
#56 = LENGTH_MEASURE_WITH_UNIT ( LENGTH_MEASURE( 0.02539999999999999897 ), #32 );
#57 = DIRECTION ( 'NONE',  ( -1.224646799147353454E-16, -0.0000000000000000000, -1.000000000000000000 ) ) ;
#58 = ORIENTED_EDGE ( 'NONE', *, *, #132, .F. ) ;
#59 = AXIS2_PLACEMENT_3D ( 'NONE', #43, #179, #88 ) ;
#60 = EDGE_LOOP ( 'NONE', ( #8, #174, #129, #52 ) ) ;
#61 = DIRECTION ( 'NONE',  ( 0.0000000000000000000, 0.0000000000000000000, 1.000000000000000000 ) ) ;
#62 = FACE_OUTER_BOUND ( 'NONE', #247, .T. ) ;
#63 = MECHANICAL_DESIGN_GEOMETRIC_PRESENTATION_REPRESENTATION (  '', ( #140 ), #273 ) ;
#64 = LINE ( 'NONE', #253, #53 ) ;
#65 = LINE ( 'NONE', #138, #22 ) ;
#66 = DIRECTION ( 'NONE',  ( 1.224646799147353454E-16, 0.0000000000000000000, 1.000000000000000000 ) ) ;
#67 = FACE_OUTER_BOUND ( 'NONE', #60, .T. ) ;
#68 = CIRCLE ( 'NONE', #185, 0.04750000000000064587 ) ;
#69 = ADVANCED_FACE ( 'NONE', ( #134 ), #206, .T. ) ;
#70 = CARTESIAN_POINT ( 'NONE',  ( -0.05464530000000000776, 0.0000000000000000000, 6.692119173344688177E-18 ) ) ;
#71 = APPLICATION_CONTEXT ( 'automotive_design' ) ;
#72 = LINE ( 'NONE', #232, #41 ) ;
#73 = CYLINDRICAL_SURFACE ( 'NONE', #154, 0.06250000000000000000 ) ;
#74 = ADVANCED_BREP_SHAPE_REPRESENTATION ( 'Micro_SEM-109-02', ( #170, #277 ), #181 ) ;
#75 = VECTOR ( 'NONE', #270, 39.37007874015748143 ) ;
#76 = AXIS2_PLACEMENT_3D ( 'NONE', #19, #258, #145 ) ;
#77 = DIRECTION ( 'NONE',  ( -1.224646799147353454E-16, -0.0000000000000000000, -1.000000000000000000 ) ) ;
#78 = PRODUCT_DEFINITION_CONTEXT ( 'detailed design', #71, 'design' ) ;
#79 = ORIENTED_EDGE ( 'NONE', *, *, #167, .F. ) ;
#80 = SHAPE_DEFINITION_REPRESENTATION ( #26, #74 ) ;
#81 = ORIENTED_EDGE ( 'NONE', *, *, #100, .F. ) ;
#82 = EDGE_CURVE ( 'NONE', #157, #85, #243, .T. ) ;
#83 = AXIS2_PLACEMENT_3D ( 'NONE', #27, #57, #54 ) ;
#84 =( NAMED_UNIT ( * ) SI_UNIT ( $, .STERADIAN. ) SOLID_ANGLE_UNIT ( ) );
#85 = VERTEX_POINT ( 'NONE', #228 ) ;
#86 =( CONVERSION_BASED_UNIT ( 'INCH', #56 ) LENGTH_UNIT ( ) NAMED_UNIT ( #245 ) );
#87 = ORIENTED_EDGE ( 'NONE', *, *, #167, .T. ) ;
#88 = DIRECTION ( 'NONE',  ( 1.000000000000000000, 0.0000000000000000000, 0.0000000000000000000 ) ) ;
#89 = EDGE_CURVE ( 'NONE', #264, #246, #215, .T. ) ;
#90 = CARTESIAN_POINT ( 'NONE',  ( 8.195482325149204388E-34, 0.0000000000000000000, 6.692119173344687407E-18 ) ) ;
#91 = PLANE ( 'NONE',  #288 ) ;
#92 = AXIS2_PLACEMENT_3D ( 'NONE', #234, #95, #213 ) ;
#93 = DIRECTION ( 'NONE',  ( 0.0000000000000000000, 0.0000000000000000000, -1.000000000000000000 ) ) ;
#94 = CARTESIAN_POINT ( 'NONE',  ( 2.302335982397024786E-17, 0.0000000000000000000, 0.1880000000000000282 ) ) ;
#95 = DIRECTION ( 'NONE',  ( -1.224646799147353454E-16, -0.0000000000000000000, -1.000000000000000000 ) ) ;
#96 = DIRECTION ( 'NONE',  ( 1.000000000000000000, 0.0000000000000000000, -0.0000000000000000000 ) ) ;
#97 = CIRCLE ( 'NONE', #220, 0.05464530000000000776 ) ;
#98 = VECTOR ( 'NONE', #263, 39.37007874015748143 ) ;
#99 = CARTESIAN_POINT ( 'NONE',  ( 0.0000000000000000000, 0.0000000000000000000, 0.0000000000000000000 ) ) ;
#100 = EDGE_CURVE ( 'NONE', #192, #268, #28, .T. ) ;
#101 = SURFACE_SIDE_STYLE ('',( #23 ) ) ;
#102 = PRODUCT_CONTEXT ( 'NONE', #261, 'mechanical' ) ;
#103 = ORIENTED_EDGE ( 'NONE', *, *, #231, .F. ) ;
#104 = FACE_OUTER_BOUND ( 'NONE', #155, .T. ) ;
#105 = ORIENTED_EDGE ( 'NONE', *, *, #132, .T. ) ;
#106 = ORIENTED_EDGE ( 'NONE', *, *, #136, .T. ) ;
#107 = CARTESIAN_POINT ( 'NONE',  ( -0.05464529999999999388, 0.0000000000000000000, 1.338423834668937481E-17 ) ) ;
#108 = ORIENTED_EDGE ( 'NONE', *, *, #82, .F. ) ;
#109 = ADVANCED_FACE ( 'NONE', ( #16 ), #91, .T. ) ;
#110 = CARTESIAN_POINT ( 'NONE',  ( 0.0000000000000000000, 0.0000000000000000000, 1.500000000000000222 ) ) ;
#111 = DIRECTION ( 'NONE',  ( -1.224646799147353454E-16, -0.0000000000000000000, -1.000000000000000000 ) ) ;
#112 = DIRECTION ( 'NONE',  ( -1.000000000000000000, 0.0000000000000000000, 0.0000000000000000000 ) ) ;
#113 = EDGE_CURVE ( 'NONE', #85, #157, #68, .T. ) ;
#114 = DIRECTION ( 'NONE',  ( 1.000000000000000000, 0.0000000000000000000, -0.0000000000000000000 ) ) ;
#115 = ORIENTED_EDGE ( 'NONE', *, *, #51, .T. ) ;
#116 = DIRECTION ( 'NONE',  ( -0.7071067811865456854, 0.0000000000000000000, -0.7071067811865493491 ) ) ;
#117 = CARTESIAN_POINT ( 'NONE',  ( 0.05464530000000000776, 6.692119173344686636E-18, -6.692119173344688177E-18 ) ) ;
#118 = PRESENTATION_STYLE_ASSIGNMENT (( #236 ) ) ;
#119 = CIRCLE ( 'NONE', #180, 0.06250000000000000000 ) ;
#120 = LENGTH_MEASURE_WITH_UNIT ( LENGTH_MEASURE( 0.02539999999999999897 ), #151 );
#121 = DIRECTION ( 'NONE',  ( -0.1736481776669312194, 2.126576849575783625E-17, 0.9848077530122080203 ) ) ;
#122 = CARTESIAN_POINT ( 'NONE',  ( -0.05464529999999998000, 7.173080834007822861E-18, 0.1880000000000000282 ) ) ;
#123 = AXIS2_PLACEMENT_3D ( 'NONE', #42, #275, #292 ) ;
#124 = ADVANCED_FACE ( 'NONE', ( #62 ), #281, .T. ) ;
#125 = DIRECTION ( 'NONE',  ( -1.000000000000000000, 0.0000000000000000000, 1.224646799147353700E-16 ) ) ;
#126 = ORIENTED_EDGE ( 'NONE', *, *, #285, .F. ) ;
#127 = VERTEX_POINT ( 'NONE', #40 ) ;
#128 =( NAMED_UNIT ( * ) SI_UNIT ( $, .STERADIAN. ) SOLID_ANGLE_UNIT ( ) );
#129 = ORIENTED_EDGE ( 'NONE', *, *, #285, .T. ) ;
#130 = AXIS2_PLACEMENT_3D ( 'NONE', #146, #186, #96 ) ;
#131 = ORIENTED_EDGE ( 'NONE', *, *, #10, .T. ) ;
#132 = EDGE_CURVE ( 'NONE', #218, #195, #225, .T. ) ;
#133 = ORIENTED_EDGE ( 'NONE', *, *, #223, .T. ) ;
#134 = FACE_OUTER_BOUND ( 'NONE', #45, .T. ) ;
#135 = CIRCLE ( 'NONE', #92, 0.06250000000000000000 ) ;
#136 = EDGE_CURVE ( 'NONE', #195, #137, #64, .T. ) ;
#137 = VERTEX_POINT ( 'NONE', #199 ) ;
#138 = CARTESIAN_POINT ( 'NONE',  ( 0.05464530000000002857, 0.0000000000000000000, 0.1880000000000000282 ) ) ;
#139 = CYLINDRICAL_SURFACE ( 'NONE', #249, 0.06250000000000000000 ) ;
#140 = STYLED_ITEM ( 'NONE', ( #118 ), #170 ) ;
#141 = ORIENTED_EDGE ( 'NONE', *, *, #51, .F. ) ;
#142 = CIRCLE ( 'NONE', #297, 0.05464529999999999388 ) ;
#143 = ADVANCED_FACE ( 'NONE', ( #176 ), #269, .T. ) ;
#144 = DIRECTION ( 'NONE',  ( -1.224646799147353454E-16, -0.0000000000000000000, -1.000000000000000000 ) ) ;
#145 = DIRECTION ( 'NONE',  ( 1.000000000000000000, 0.0000000000000000000, 0.0000000000000000000 ) ) ;
#146 = CARTESIAN_POINT ( 'NONE',  ( 0.0000000000000000000, 0.0000000000000000000, 0.0000000000000000000 ) ) ;
#147 = EDGE_CURVE ( 'NONE', #268, #192, #97, .T. ) ;
#148 = CIRCLE ( 'NONE', #189, 0.06250000000000000000 ) ;
#149 = UNCERTAINTY_MEASURE_WITH_UNIT (LENGTH_MEASURE( 1.000000000000000082E-05 ), #290, 'distance_accuracy_value', 'NONE');
#150 = CONICAL_SURFACE ( 'NONE', #76, 0.05464530000000000776, 0.1745329251994339192 ) ;
#151 =( LENGTH_UNIT ( ) NAMED_UNIT ( * ) SI_UNIT ( $, .METRE. ) );
#152 = SURFACE_SIDE_STYLE ('',( #173 ) ) ;
#153 = ORIENTED_EDGE ( 'NONE', *, *, #165, .T. ) ;
#154 = AXIS2_PLACEMENT_3D ( 'NONE', #169, #278, #20 ) ;
#155 = EDGE_LOOP ( 'NONE', ( #265, #287, #4, #156 ) ) ;
#156 = ORIENTED_EDGE ( 'NONE', *, *, #240, .F. ) ;
#157 = VERTEX_POINT ( 'NONE', #248 ) ;
#158 = EDGE_LOOP ( 'NONE', ( #171, #260, #153, #141 ) ) ;
#159 = DIRECTION ( 'NONE',  ( -1.000000000000000000, 0.0000000000000000000, 1.224646799147353700E-16 ) ) ;
#160 = CARTESIAN_POINT ( 'NONE',  ( 2.302335982397024786E-17, 0.0000000000000000000, 0.1880000000000000282 ) ) ;
#161 = COLOUR_RGB ( '',0.7921568627450980005, 0.8196078431372548767, 0.9333333333333333481 ) ;
#162 = CARTESIAN_POINT ( 'NONE',  ( 2.302335982397024786E-17, 0.0000000000000000000, 0.1880000000000000282 ) ) ;
#163 = DIRECTION ( 'NONE',  ( 0.0000000000000000000, 0.0000000000000000000, -1.000000000000000000 ) ) ;
#164 = DIRECTION ( 'NONE',  ( 1.000000000000000000, 0.0000000000000000000, 0.0000000000000000000 ) ) ;
#165 = EDGE_CURVE ( 'NONE', #127, #137, #135, .T. ) ;
#166 = FACE_OUTER_BOUND ( 'NONE', #33, .T. ) ;
#167 = EDGE_CURVE ( 'NONE', #157, #218, #72, .T. ) ;
#168 = LINE ( 'NONE', #184, #46 ) ;
#169 = CARTESIAN_POINT ( 'NONE',  ( 0.0000000000000000000, 0.0000000000000000000, 1.500000000000000222 ) ) ;
#170 = MANIFOLD_SOLID_BREP ( 'Cut-Revolve1', #11 ) ;
#171 = ORIENTED_EDGE ( 'NONE', *, *, #147, .F. ) ;
#172 = EDGE_CURVE ( 'NONE', #137, #127, #148, .T. ) ;
#173 = SURFACE_STYLE_FILL_AREA ( #190 ) ;
#174 = ORIENTED_EDGE ( 'NONE', *, *, #47, .T. ) ;
#175 = ORIENTED_EDGE ( 'NONE', *, *, #113, .F. ) ;
#176 = FACE_OUTER_BOUND ( 'NONE', #194, .T. ) ;
#177 = ADVANCED_FACE ( 'NONE', ( #166 ), #2, .F. ) ;
#178 = FACE_OUTER_BOUND ( 'NONE', #222, .T. ) ;
#179 = DIRECTION ( 'NONE',  ( 0.0000000000000000000, 0.0000000000000000000, -1.000000000000000000 ) ) ;
#180 = AXIS2_PLACEMENT_3D ( 'NONE', #295, #93, #298 ) ;
#181 =( GEOMETRIC_REPRESENTATION_CONTEXT ( 3 ) GLOBAL_UNCERTAINTY_ASSIGNED_CONTEXT ( ( #149 ) ) GLOBAL_UNIT_ASSIGNED_CONTEXT ( ( #290, #242, #84 ) ) REPRESENTATION_CONTEXT ( 'NONE', 'WORKASPACE' ) );
#182 = EDGE_LOOP ( 'NONE', ( #9, #217 ) ) ;
#183 = ORIENTED_EDGE ( 'NONE', *, *, #89, .T. ) ;
#184 = CARTESIAN_POINT ( 'NONE',  ( -0.05464529999999998000, 6.692119173344686636E-18, 0.1880000000000000282 ) ) ;
#185 = AXIS2_PLACEMENT_3D ( 'NONE', #110, #271, #203 ) ;
#186 = DIRECTION ( 'NONE',  ( 0.0000000000000000000, 0.0000000000000000000, 1.000000000000000000 ) ) ;
#187 = PRODUCT_DEFINITION_FORMATION_WITH_SPECIFIED_SOURCE ( 'ANY', '', #233, .NOT_KNOWN. ) ;
#188 = DIRECTION ( 'NONE',  ( -1.000000000000000000, 0.0000000000000000000, 1.224646799147353454E-16 ) ) ;
#189 = AXIS2_PLACEMENT_3D ( 'NONE', #259, #144, #1 ) ;
#190 = FILL_AREA_STYLE ('',( #3 ) ) ;
#191 = ADVANCED_FACE ( 'NONE', ( #25 ), #279, .T. ) ;
#192 = VERTEX_POINT ( 'NONE', #235 ) ;
#193 = LENGTH_MEASURE_WITH_UNIT ( LENGTH_MEASURE( 0.02539999999999999897 ), #283 );
#194 = EDGE_LOOP ( 'NONE', ( #175, #131, #58, #79 ) ) ;
#195 = VERTEX_POINT ( 'NONE', #299 ) ;
#196 = AXIS2_PLACEMENT_3D ( 'NONE', #202, #163, #252 ) ;
#197 = COLOUR_RGB ( '',0.7921568627450980005, 0.8196078431372548767, 0.9333333333333333481 ) ;
#198 = DIRECTION ( 'NONE',  ( 1.000000000000000000, 0.0000000000000000000, 0.0000000000000000000 ) ) ;
#199 = CARTESIAN_POINT ( 'NONE',  ( 0.06250000000000002776, 7.654042494670959086E-18, 0.2325462173085509621 ) ) ;
#200 = AXIS2_PLACEMENT_3D ( 'NONE', #162, #15, #112 ) ;
#201 =( GEOMETRIC_REPRESENTATION_CONTEXT ( 3 ) GLOBAL_UNCERTAINTY_ASSIGNED_CONTEXT ( ( #212 ) ) GLOBAL_UNIT_ASSIGNED_CONTEXT ( ( #86, #267, #128 ) ) REPRESENTATION_CONTEXT ( 'NONE', 'WORKASPACE' ) );
#202 = CARTESIAN_POINT ( 'NONE',  ( 0.0000000000000000000, 0.0000000000000000000, 1.500000000000000222 ) ) ;
#203 = DIRECTION ( 'NONE',  ( 1.000000000000000000, 0.0000000000000000000, 0.0000000000000000000 ) ) ;
#204 = DIRECTION ( 'NONE',  ( -0.0000000000000000000, -0.0000000000000000000, -1.000000000000000000 ) ) ;
#205 = EDGE_CURVE ( 'NONE', #268, #127, #168, .T. ) ;
#206 = CONICAL_SURFACE ( 'NONE', #196, 0.04750000000000064587, 0.7853981633974457255 ) ;
#207 = VECTOR ( 'NONE', #255, 39.37007874015748143 ) ;
#208 = CARTESIAN_POINT ( 'NONE',  ( 0.0000000000000000000, 0.0000000000000000000, 1.500000000000000222 ) ) ;
#209 = FILL_AREA_STYLE_COLOUR ( '', #161 ) ;
#210 = FILL_AREA_STYLE ('',( #209 ) ) ;
#211 =( CONVERSION_BASED_UNIT ( 'INCH', #120 ) LENGTH_UNIT ( ) NAMED_UNIT ( #39 ) );
#212 = UNCERTAINTY_MEASURE_WITH_UNIT (LENGTH_MEASURE( 1.000000000000000082E-05 ), #86, 'distance_accuracy_value', 'NONE');
#213 = DIRECTION ( 'NONE',  ( 1.000000000000000000, 0.0000000000000000000, 0.0000000000000000000 ) ) ;
#214 = LINE ( 'NONE', #216, #98 ) ;
#215 = CIRCLE ( 'NONE', #13, 0.05464529999999999388 ) ;
#216 = CARTESIAN_POINT ( 'NONE',  ( -0.06250000000000000000, 0.0000000000000000000, 1.500000000000000222 ) ) ;
#217 = ORIENTED_EDGE ( 'NONE', *, *, #113, .T. ) ;
#218 = VERTEX_POINT ( 'NONE', #280 ) ;
#219 = ADVANCED_FACE ( 'NONE', ( #67 ), #73, .T. ) ;
#220 = AXIS2_PLACEMENT_3D ( 'NONE', #160, #111, #293 ) ;
#221 = CARTESIAN_POINT ( 'NONE',  ( 0.0000000000000000000, 0.0000000000000000000, 0.0000000000000000000 ) ) ;
#222 = EDGE_LOOP ( 'NONE', ( #105, #106, #55, #126 ) ) ;
#223 = EDGE_CURVE ( 'NONE', #192, #246, #254, .T. ) ;
#224 = CARTESIAN_POINT ( 'NONE',  ( 0.0000000000000000000, 0.0000000000000000000, 1.500000000000000222 ) ) ;
#225 = CIRCLE ( 'NONE', #59, 0.06250000000000000000 ) ;
#226 = LINE ( 'NONE', #274, #75 ) ;
#227 = DIRECTION ( 'NONE',  ( 0.0000000000000000000, 0.0000000000000000000, -1.000000000000000000 ) ) ;
#228 = CARTESIAN_POINT ( 'NONE',  ( 0.04750000000000064587, 6.735557395310482421E-18, 1.500000000000000222 ) ) ;
#229 = AXIS2_PLACEMENT_3D ( 'NONE', #99, #276, #188 ) ;
#230 = DIRECTION ( 'NONE',  ( -1.224646799147353454E-16, -0.0000000000000000000, -1.000000000000000000 ) ) ;
#231 = EDGE_CURVE ( 'NONE', #268, #264, #282, .T. ) ;
#232 = CARTESIAN_POINT ( 'NONE',  ( -0.04750000000000064587, 0.0000000000000000000, 1.500000000000000222 ) ) ;
#233 = PRODUCT ( 'Micro_SEM-109-02', 'Micro_SEM-109-02', '', ( #102 ) ) ;
#234 = CARTESIAN_POINT ( 'NONE',  ( 2.847869806807417895E-17, 0.0000000000000000000, 0.2325462173085509621 ) ) ;
#235 = CARTESIAN_POINT ( 'NONE',  ( 0.05464530000000002857, 0.0000000000000000000, 0.1880000000000000282 ) ) ;
#236 = SURFACE_STYLE_USAGE ( .BOTH. , #101 ) ;
#237 = ADVANCED_FACE ( 'NONE', ( #21 ), #150, .T. ) ;
#238 = APPLICATION_PROTOCOL_DEFINITION ( 'draft international standard', 'automotive_design', 1998, #261 ) ;
#239 = ORIENTED_EDGE ( 'NONE', *, *, #147, .T. ) ;
#240 = EDGE_CURVE ( 'NONE', #246, #264, #142, .T. ) ;
#241 = ORIENTED_EDGE ( 'NONE', *, *, #89, .F. ) ;
#242 =( NAMED_UNIT ( * ) PLANE_ANGLE_UNIT ( ) SI_UNIT ( $, .RADIAN. ) );
#243 = CIRCLE ( 'NONE', #123, 0.04750000000000064587 ) ;
#244 = STYLED_ITEM ( 'NONE', ( #37 ), #74 ) ;
#245 = DIMENSIONAL_EXPONENTS ( 1.000000000000000000, 0.0000000000000000000, 0.0000000000000000000, 0.0000000000000000000, 0.0000000000000000000, 0.0000000000000000000, 0.0000000000000000000 ) ;
#246 = VERTEX_POINT ( 'NONE', #34 ) ;
#247 = EDGE_LOOP ( 'NONE', ( #289, #81, #115, #38 ) ) ;
#248 = CARTESIAN_POINT ( 'NONE',  ( -0.04750000000000064587, 0.0000000000000000000, 1.500000000000000222 ) ) ;
#249 = AXIS2_PLACEMENT_3D ( 'NONE', #44, #204, #296 ) ;
#250 = MECHANICAL_DESIGN_GEOMETRIC_PRESENTATION_REPRESENTATION (  '', ( #244 ), #201 ) ;
#251 = DIRECTION ( 'NONE',  ( -0.0000000000000000000, -0.0000000000000000000, -1.000000000000000000 ) ) ;
#252 = DIRECTION ( 'NONE',  ( -1.000000000000000000, 0.0000000000000000000, 0.0000000000000000000 ) ) ;
#253 = CARTESIAN_POINT ( 'NONE',  ( 0.06250000000000000000, 7.654042494670956004E-18, 1.500000000000000222 ) ) ;
#254 = LINE ( 'NONE', #117, #29 ) ;
#255 = DIRECTION ( 'NONE',  ( -1.224646799147353454E-16, -0.0000000000000000000, -1.000000000000000000 ) ) ;
#256 =( NAMED_UNIT ( * ) PLANE_ANGLE_UNIT ( ) SI_UNIT ( $, .RADIAN. ) );
#257 = AXIS2_PLACEMENT_3D ( 'NONE', #94, #66, #164 ) ;
#258 = DIRECTION ( 'NONE',  ( 1.224646799147353454E-16, 0.0000000000000000000, 1.000000000000000000 ) ) ;
#259 = CARTESIAN_POINT ( 'NONE',  ( 2.847869806807417895E-17, 0.0000000000000000000, 0.2325462173085509621 ) ) ;
#260 = ORIENTED_EDGE ( 'NONE', *, *, #205, .T. ) ;
#261 = APPLICATION_CONTEXT ( 'automotive_design' ) ;
#262 = AXIS2_PLACEMENT_3D ( 'NONE', #224, #227, #12 ) ;
#263 = DIRECTION ( 'NONE',  ( -0.0000000000000000000, -0.0000000000000000000, -1.000000000000000000 ) ) ;
#264 = VERTEX_POINT ( 'NONE', #107 ) ;
#265 = ORIENTED_EDGE ( 'NONE', *, *, #223, .F. ) ;
#266 = DIMENSIONAL_EXPONENTS ( 1.000000000000000000, 0.0000000000000000000, 0.0000000000000000000, 0.0000000000000000000, 0.0000000000000000000, 0.0000000000000000000, 0.0000000000000000000 ) ;
#267 =( NAMED_UNIT ( * ) PLANE_ANGLE_UNIT ( ) SI_UNIT ( $, .RADIAN. ) );
#268 = VERTEX_POINT ( 'NONE', #122 ) ;
#269 = CONICAL_SURFACE ( 'NONE', #262, 0.04750000000000064587, 0.7853981633974457255 ) ;
#270 = DIRECTION ( 'NONE',  ( 0.7071067811865456854, 8.659560562354911904E-17, -0.7071067811865493491 ) ) ;
#271 = DIRECTION ( 'NONE',  ( 0.0000000000000000000, 0.0000000000000000000, 1.000000000000000000 ) ) ;
#272 = DIRECTION ( 'NONE',  ( 0.1736481776669314137, 0.0000000000000000000, 0.9848077530122077983 ) ) ;
#273 =( GEOMETRIC_REPRESENTATION_CONTEXT ( 3 ) GLOBAL_UNCERTAINTY_ASSIGNED_CONTEXT ( ( #24 ) ) GLOBAL_UNIT_ASSIGNED_CONTEXT ( ( #211, #256, #48 ) ) REPRESENTATION_CONTEXT ( 'NONE', 'WORKASPACE' ) );
#274 = CARTESIAN_POINT ( 'NONE',  ( 0.04750000000000064587, 5.817072295950006528E-18, 1.500000000000000222 ) ) ;
#275 = DIRECTION ( 'NONE',  ( 0.0000000000000000000, 0.0000000000000000000, 1.000000000000000000 ) ) ;
#276 = DIRECTION ( 'NONE',  ( -1.224646799147353454E-16, -0.0000000000000000000, -1.000000000000000000 ) ) ;
#277 = AXIS2_PLACEMENT_3D ( 'NONE', #221, #7, #198 ) ;
#278 = DIRECTION ( 'NONE',  ( -0.0000000000000000000, -0.0000000000000000000, -1.000000000000000000 ) ) ;
#279 = CYLINDRICAL_SURFACE ( 'NONE', #229, 0.05464530000000000776 ) ;
#280 = CARTESIAN_POINT ( 'NONE',  ( -0.06250000000000000000, 0.0000000000000000000, 1.485000000000000764 ) ) ;
#281 = CONICAL_SURFACE ( 'NONE', #257, 0.05464530000000000776, 0.1745329251994339192 ) ;
#282 = LINE ( 'NONE', #70, #207 ) ;
#283 =( LENGTH_UNIT ( ) NAMED_UNIT ( * ) SI_UNIT ( $, .METRE. ) );
#284 = ORIENTED_EDGE ( 'NONE', *, *, #10, .F. ) ;
#285 = EDGE_CURVE ( 'NONE', #218, #127, #214, .T. ) ;
#286 = APPLICATION_PROTOCOL_DEFINITION ( 'draft international standard', 'automotive_design', 1998, #71 ) ;
#287 = ORIENTED_EDGE ( 'NONE', *, *, #100, .T. ) ;
#288 = AXIS2_PLACEMENT_3D ( 'NONE', #208, #61, #114 ) ;
#289 = ORIENTED_EDGE ( 'NONE', *, *, #205, .F. ) ;
#290 =( CONVERSION_BASED_UNIT ( 'INCH', #193 ) LENGTH_UNIT ( ) NAMED_UNIT ( #266 ) );
#291 = EDGE_LOOP ( 'NONE', ( #239, #133, #241, #103 ) ) ;
#292 = DIRECTION ( 'NONE',  ( 1.000000000000000000, 0.0000000000000000000, 0.0000000000000000000 ) ) ;
#293 = DIRECTION ( 'NONE',  ( -1.000000000000000000, 0.0000000000000000000, 0.0000000000000000000 ) ) ;
#294 = ADVANCED_FACE ( 'NONE', ( #104 ), #5, .T. ) ;
#295 = CARTESIAN_POINT ( 'NONE',  ( 0.0000000000000000000, 0.0000000000000000000, 1.485000000000000764 ) ) ;
#296 = DIRECTION ( 'NONE',  ( -1.000000000000000000, 0.0000000000000000000, 0.0000000000000000000 ) ) ;
#297 = AXIS2_PLACEMENT_3D ( 'NONE', #50, #77, #125 ) ;
#298 = DIRECTION ( 'NONE',  ( 1.000000000000000000, 0.0000000000000000000, 0.0000000000000000000 ) ) ;
#299 = CARTESIAN_POINT ( 'NONE',  ( 0.06250000000000000000, 7.654042494670956004E-18, 1.485000000000000764 ) ) ;
ENDSEC;
END-ISO-10303-21;
