ISO-10303-21;
HEADER;
FILE_DESCRIPTION (( 'STEP AP214' ),
    '1' );
FILE_NAME ('83195.STEP',
    '2023-06-23T08:18:30',
    ( '' ),
    ( '' ),
    'SwSTEP 2.0',
    'SolidWorks 2023',
    '' );
FILE_SCHEMA (( 'AUTOMOTIVE_DESIGN' ));
ENDSEC;

DATA;
#1 = PRODUCT_DEFINITION_CONTEXT ( 'detailed design', #169, 'design' ) ;
#2 = AXIS2_PLACEMENT_3D ( 'NONE', #215, #51, #170 ) ;
#3 = EDGE_CURVE ( 'NONE', #250, #56, #205, .T. ) ;
#4 = PRESENTATION_LAYER_ASSIGNMENT (  '', '', ( #166 ) ) ;
#5 =( GEOMETRIC_REPRESENTATION_CONTEXT ( 3 ) GLOBAL_UNCERTAINTY_ASSIGNED_CONTEXT ( ( #115 ) ) GLOBAL_UNIT_ASSIGNED_CONTEXT ( ( #261, #192, #43 ) ) REPRESENTATION_CONTEXT ( 'NONE', 'WORKASPACE' ) );
#6 = CARTESIAN_POINT ( 'NONE',  ( 0.1250000000000000278, 3.000000000000000444, 1.530808498934192125E-17 ) ) ;
#7 = ORIENTED_EDGE ( 'NONE', *, *, #3, .T. ) ;
#8 = SURFACE_SIDE_STYLE ('',( #57 ) ) ;
#9 = ADVANCED_FACE ( 'NONE', ( #294 ), #281, .T. ) ;
#10 = DIRECTION ( 'NONE',  ( 0.000000000000000000, 0.000000000000000000, 1.000000000000000000 ) ) ;
#11 = AXIS2_PLACEMENT_3D ( 'NONE', #105, #125, #132 ) ;
#12 = ORIENTED_EDGE ( 'NONE', *, *, #143, .T. ) ;
#13 = DIRECTION ( 'NONE',  ( -3.498990854706726443E-17, 1.000000000000000000, -0.000000000000000000 ) ) ;
#14 = FILL_AREA_STYLE_COLOUR ( '', #243 ) ;
#15 = EDGE_LOOP ( 'NONE', ( #254, #58, #173, #106 ) ) ;
#16 =( NAMED_UNIT ( * ) PLANE_ANGLE_UNIT ( ) SI_UNIT ( $, .RADIAN. ) );
#17 = ADVANCED_FACE ( 'NONE', ( #273 ), #237, .T. ) ;
#18 = FACE_OUTER_BOUND ( 'NONE', #150, .T. ) ;
#19 = CARTESIAN_POINT ( 'NONE',  ( 1.530808498934191509E-17, 0.000000000000000000, 0.1250000000000000000 ) ) ;
#20 = CARTESIAN_POINT ( 'NONE',  ( 7.651835625825817976E-35, 1.250000000000000000, 0.000000000000000000 ) ) ;
#21 = UNCERTAINTY_MEASURE_WITH_UNIT (LENGTH_MEASURE( 1.000000000000000082E-05 ), #238, 'distance_accuracy_value', 'NONE');
#22 = MANIFOLD_SOLID_BREP ( 'Revolve - Tool Body (Straight Shanked)', #217 ) ;
#23 = ADVANCED_FACE ( 'NONE', ( #135 ), #234, .F. ) ;
#24 = SURFACE_STYLE_FILL_AREA ( #160 ) ;
#25 = PRODUCT ( '83195', '83195', '', ( #113 ) ) ;
#26 = FACE_OUTER_BOUND ( 'NONE', #201, .T. ) ;
#27 = AXIS2_PLACEMENT_3D ( 'NONE', #102, #28, #292 ) ;
#28 = DIRECTION ( 'NONE',  ( -0.000000000000000000, -1.000000000000000000, -0.000000000000000000 ) ) ;
#29 = CARTESIAN_POINT ( 'NONE',  ( 0.000000000000000000, 1.250000000000000000, -0.1250000000000000000 ) ) ;
#30 = CARTESIAN_POINT ( 'NONE',  ( 1.530808498934191509E-17, 0.000000000000000000, 0.1250000000000000000 ) ) ;
#31 =( LENGTH_UNIT ( ) NAMED_UNIT ( * ) SI_UNIT ( $, .METRE. ) );
#32 = DIRECTION ( 'NONE',  ( -1.000000000000000000, 0.000000000000000000, 0.000000000000000000 ) ) ;
#33 = VERTEX_POINT ( 'NONE', #209 ) ;
#34 = ADVANCED_FACE ( 'NONE', ( #18 ), #114, .T. ) ;
#35 = FACE_OUTER_BOUND ( 'NONE', #36, .T. ) ;
#36 = EDGE_LOOP ( 'NONE', ( #78, #253 ) ) ;
#37 =( GEOMETRIC_REPRESENTATION_CONTEXT ( 3 ) GLOBAL_UNCERTAINTY_ASSIGNED_CONTEXT ( ( #21 ) ) GLOBAL_UNIT_ASSIGNED_CONTEXT ( ( #238, #89, #187 ) ) REPRESENTATION_CONTEXT ( 'NONE', 'WORKASPACE' ) );
#38 = CARTESIAN_POINT ( 'NONE',  ( -0.1250000000000001388, 3.000000000000000444, 0.000000000000000000 ) ) ;
#39 = VECTOR ( 'NONE', #123, 39.37007874015748143 ) ;
#40 = EDGE_LOOP ( 'NONE', ( #296, #177 ) ) ;
#41 = ORIENTED_EDGE ( 'NONE', *, *, #3, .F. ) ;
#42 = PLANE ( 'NONE',  #191 ) ;
#43 =( NAMED_UNIT ( * ) SI_UNIT ( $, .STERADIAN. ) SOLID_ANGLE_UNIT ( ) );
#44 = SURFACE_STYLE_FILL_AREA ( #163 ) ;
#45 = DIRECTION ( 'NONE',  ( -1.000000000000000000, 0.000000000000000000, 0.000000000000000000 ) ) ;
#46 =( LENGTH_UNIT ( ) NAMED_UNIT ( * ) SI_UNIT ( $, .METRE. ) );
#47 = FILL_AREA_STYLE ('',( #137 ) ) ;
#48 =( GEOMETRIC_REPRESENTATION_CONTEXT ( 3 ) GLOBAL_UNCERTAINTY_ASSIGNED_CONTEXT ( ( #193 ) ) GLOBAL_UNIT_ASSIGNED_CONTEXT ( ( #69, #190, #265 ) ) REPRESENTATION_CONTEXT ( 'NONE', 'WORKASPACE' ) );
#49 = STYLED_ITEM ( 'NONE', ( #208 ), #22 ) ;
#50 = EDGE_CURVE ( 'NONE', #250, #33, #80, .T. ) ;
#51 = DIRECTION ( 'NONE',  ( -0.000000000000000000, -1.000000000000000000, -0.000000000000000000 ) ) ;
#52 = LINE ( 'NONE', #149, #214 ) ;
#53 = SURFACE_SIDE_STYLE ('',( #221 ) ) ;
#54 = ORIENTED_EDGE ( 'NONE', *, *, #293, .T. ) ;
#55 =( NAMED_UNIT ( * ) SI_UNIT ( $, .STERADIAN. ) SOLID_ANGLE_UNIT ( ) );
#56 = VERTEX_POINT ( 'NONE', #224 ) ;
#57 = SURFACE_STYLE_FILL_AREA ( #59 ) ;
#58 = ORIENTED_EDGE ( 'NONE', *, *, #241, .T. ) ;
#59 = FILL_AREA_STYLE ('',( #134 ) ) ;
#60 = DIRECTION ( 'NONE',  ( -0.000000000000000000, -1.000000000000000000, -0.000000000000000000 ) ) ;
#61 = PRODUCT_DEFINITION ( 'UNKNOWN', '', #174, #1 ) ;
#62 = VERTEX_POINT ( 'NONE', #38 ) ;
#63 = LENGTH_MEASURE_WITH_UNIT ( LENGTH_MEASURE( 0.02539999999999999897 ), #100 );
#64 = DIRECTION ( 'NONE',  ( 0.000000000000000000, 1.000000000000000000, 0.000000000000000000 ) ) ;
#65 = LENGTH_MEASURE_WITH_UNIT ( LENGTH_MEASURE( 0.02539999999999999897 ), #287 );
#66 = DIRECTION ( 'NONE',  ( -1.000000000000000000, -3.498990854706726443E-17, 0.000000000000000000 ) ) ;
#67 = ADVANCED_FACE ( 'NONE', ( #220 ), #282, .T. ) ;
#68 = FILL_AREA_STYLE_COLOUR ( '', #119 ) ;
#69 =( CONVERSION_BASED_UNIT ( 'INCH', #65 ) LENGTH_UNIT ( ) NAMED_UNIT ( #223 ) );
#70 = CARTESIAN_POINT ( 'NONE',  ( 0.000000000000000000, 1.250000000000000000, 0.000000000000000000 ) ) ;
#71 = CIRCLE ( 'NONE', #144, 0.1250000000000000555 ) ;
#72 = DIRECTION ( 'NONE',  ( -0.000000000000000000, -1.000000000000000000, -0.000000000000000000 ) ) ;
#73 = ADVANCED_BREP_SHAPE_REPRESENTATION ( '83195', ( #218, #22, #76 ), #92 ) ;
#74 = SURFACE_STYLE_USAGE ( .BOTH. , #53 ) ;
#75 = PRESENTATION_LAYER_ASSIGNMENT (  '', '', ( #213 ) ) ;
#76 = AXIS2_PLACEMENT_3D ( 'NONE', #182, #10, #306 ) ;
#77 = DIRECTION ( 'NONE',  ( -3.498990854706726443E-17, 1.000000000000000000, -0.000000000000000000 ) ) ;
#78 = ORIENTED_EDGE ( 'NONE', *, *, #50, .F. ) ;
#79 = AXIS2_PLACEMENT_3D ( 'NONE', #70, #64, #158 ) ;
#80 = CIRCLE ( 'NONE', #88, 0.1250000000000000000 ) ;
#81 = CARTESIAN_POINT ( 'NONE',  ( 0.1250000000000000000, 3.000000000000000444, 0.000000000000000000 ) ) ;
#82 = DIMENSIONAL_EXPONENTS ( 1.000000000000000000, 0.000000000000000000, 0.000000000000000000, 0.000000000000000000, 0.000000000000000000, 0.000000000000000000, 0.000000000000000000 ) ;
#83 = DIRECTION ( 'NONE',  ( -0.000000000000000000, -1.000000000000000000, -0.000000000000000000 ) ) ;
#84 = EDGE_CURVE ( 'NONE', #98, #103, #145, .T. ) ;
#85 =( CONVERSION_BASED_UNIT ( 'INCH', #302 ) LENGTH_UNIT ( ) NAMED_UNIT ( #228 ) );
#86 = CARTESIAN_POINT ( 'NONE',  ( -6.123233995736772199E-17, 3.000000000000000444, 0.000000000000000000 ) ) ;
#87 = CARTESIAN_POINT ( 'NONE',  ( -0.1250000000000000000, 1.250000000000000000, 0.000000000000000000 ) ) ;
#88 = AXIS2_PLACEMENT_3D ( 'NONE', #297, #181, #284 ) ;
#89 =( NAMED_UNIT ( * ) PLANE_ANGLE_UNIT ( ) SI_UNIT ( $, .RADIAN. ) );
#90 = SURFACE_SIDE_STYLE ('',( #24 ) ) ;
#91 = ADVANCED_FACE ( 'NONE', ( #108 ), #42, .F. ) ;
#92 =( GEOMETRIC_REPRESENTATION_CONTEXT ( 3 ) GLOBAL_UNCERTAINTY_ASSIGNED_CONTEXT ( ( #118 ) ) GLOBAL_UNIT_ASSIGNED_CONTEXT ( ( #233, #283, #159 ) ) REPRESENTATION_CONTEXT ( 'NONE', 'WORKASPACE' ) );
#93 = SURFACE_SIDE_STYLE ('',( #286 ) ) ;
#94 = STYLED_ITEM ( 'NONE', ( #138 ), #34 ) ;
#95 = UNCERTAINTY_MEASURE_WITH_UNIT (LENGTH_MEASURE( 1.000000000000000082E-05 ), #85, 'distance_accuracy_value', 'NONE');
#96 = CIRCLE ( 'NONE', #2, 0.1250000000000000000 ) ;
#97 = MECHANICAL_DESIGN_GEOMETRIC_PRESENTATION_REPRESENTATION (  '', ( #166 ), #270 ) ;
#98 = VERTEX_POINT ( 'NONE', #110 ) ;
#99 = CARTESIAN_POINT ( 'NONE',  ( 0.000000000000000000, 1.250000000000000000, 0.000000000000000000 ) ) ;
#100 =( LENGTH_UNIT ( ) NAMED_UNIT ( * ) SI_UNIT ( $, .METRE. ) );
#101 = ORIENTED_EDGE ( 'NONE', *, *, #84, .F. ) ;
#102 = CARTESIAN_POINT ( 'NONE',  ( 0.000000000000000000, 0.000000000000000000, 0.000000000000000000 ) ) ;
#103 = VERTEX_POINT ( 'NONE', #87 ) ;
#104 = COLOUR_RGB ( '',0.7921568627450980005, 0.8196078431372548767, 0.9333333333333333481 ) ;
#105 = CARTESIAN_POINT ( 'NONE',  ( 0.000000000000000000, 1.250000000000000000, 0.000000000000000000 ) ) ;
#106 = ORIENTED_EDGE ( 'NONE', *, *, #143, .F. ) ;
#107 = ADVANCED_FACE ( 'NONE', ( #35 ), #232, .T. ) ;
#108 = FACE_OUTER_BOUND ( 'NONE', #40, .T. ) ;
#109 = ORIENTED_EDGE ( 'NONE', *, *, #178, .F. ) ;
#110 = CARTESIAN_POINT ( 'NONE',  ( 0.1250000000000000278, 1.250000000000000000, 1.530808498934192125E-17 ) ) ;
#111 = APPLICATION_PROTOCOL_DEFINITION ( 'draft international standard', 'automotive_design', 1998, #169 ) ;
#112 = LENGTH_MEASURE_WITH_UNIT ( LENGTH_MEASURE( 0.02539999999999999897 ), #46 );
#113 = PRODUCT_CONTEXT ( 'NONE', #157, 'mechanical' ) ;
#114 = CYLINDRICAL_SURFACE ( 'NONE', #164, 0.1250000000000000000 ) ;
#115 = UNCERTAINTY_MEASURE_WITH_UNIT (LENGTH_MEASURE( 1.000000000000000082E-05 ), #261, 'distance_accuracy_value', 'NONE');
#116 = FILL_AREA_STYLE_COLOUR ( '', #155 ) ;
#117 = DIRECTION ( 'NONE',  ( -3.498990854706726443E-17, 1.000000000000000000, 0.000000000000000000 ) ) ;
#118 = UNCERTAINTY_MEASURE_WITH_UNIT (LENGTH_MEASURE( 1.000000000000000082E-05 ), #233, 'distance_accuracy_value', 'NONE');
#119 = COLOUR_RGB ( '',0.7921568627450980005, 0.8196078431372548767, 0.9333333333333333481 ) ;
#120 = MECHANICAL_DESIGN_GEOMETRIC_PRESENTATION_REPRESENTATION (  '', ( #49 ), #5 ) ;
#121 = STYLED_ITEM ( 'NONE', ( #210 ), #167 ) ;
#122 = VECTOR ( 'NONE', #239, 39.37007874015748143 ) ;
#123 = DIRECTION ( 'NONE',  ( -0.000000000000000000, -1.000000000000000000, -0.000000000000000000 ) ) ;
#124 = LENGTH_MEASURE_WITH_UNIT ( LENGTH_MEASURE( 0.02539999999999999897 ), #31 );
#125 = DIRECTION ( 'NONE',  ( -3.498990854706726443E-17, 1.000000000000000000, -0.000000000000000000 ) ) ;
#126 =( CONVERSION_BASED_UNIT ( 'INCH', #124 ) LENGTH_UNIT ( ) NAMED_UNIT ( #251 ) );
#127 = EDGE_LOOP ( 'NONE', ( #54, #304 ) ) ;
#128 = APPLICATION_PROTOCOL_DEFINITION ( 'draft international standard', 'automotive_design', 1998, #157 ) ;
#129 = VERTEX_POINT ( 'NONE', #19 ) ;
#130 = MECHANICAL_DESIGN_GEOMETRIC_PRESENTATION_REPRESENTATION (  '', ( #121 ), #48 ) ;
#131 = PRESENTATION_LAYER_ASSIGNMENT (  '', '', ( #94 ) ) ;
#132 = DIRECTION ( 'NONE',  ( -1.000000000000000000, 0.000000000000000000, 0.000000000000000000 ) ) ;
#133 = LINE ( 'NONE', #30, #39 ) ;
#134 = FILL_AREA_STYLE_COLOUR ( '', #271 ) ;
#135 = FACE_OUTER_BOUND ( 'NONE', #301, .T. ) ;
#136 = CARTESIAN_POINT ( 'NONE',  ( -0.1250000000000001110, 3.000000000000000444, 0.000000000000000000 ) ) ;
#137 = FILL_AREA_STYLE_COLOUR ( '', #268 ) ;
#138 = PRESENTATION_STYLE_ASSIGNMENT (( #162 ) ) ;
#139 = MECHANICAL_DESIGN_GEOMETRIC_PRESENTATION_REPRESENTATION (  '', ( #288 ), #184 ) ;
#140 = AXIS2_PLACEMENT_3D ( 'NONE', #290, #308, #231 ) ;
#141 = SURFACE_STYLE_USAGE ( .BOTH. , #267 ) ;
#142 = CARTESIAN_POINT ( 'NONE',  ( -6.123233995736772199E-17, 3.000000000000000444, 0.000000000000000000 ) ) ;
#143 = EDGE_CURVE ( 'NONE', #103, #62, #236, .T. ) ;
#144 = AXIS2_PLACEMENT_3D ( 'NONE', #242, #13, #179 ) ;
#145 = CIRCLE ( 'NONE', #11, 0.1250000000000000000 ) ;
#146 = DIRECTION ( 'NONE',  ( -3.498990854706726443E-17, 1.000000000000000000, -0.000000000000000000 ) ) ;
#147 = PRESENTATION_LAYER_ASSIGNMENT (  '', '', ( #121 ) ) ;
#148 = DIRECTION ( 'NONE',  ( 1.000000000000000000, 3.498990854706726443E-17, 0.000000000000000000 ) ) ;
#149 = CARTESIAN_POINT ( 'NONE',  ( 0.1249999999999999584, 3.000000000000000444, 1.530808498934191817E-17 ) ) ;
#150 = EDGE_LOOP ( 'NONE', ( #298, #153, #222, #41 ) ) ;
#151 = DIMENSIONAL_EXPONENTS ( 1.000000000000000000, 0.000000000000000000, 0.000000000000000000, 0.000000000000000000, 0.000000000000000000, 0.000000000000000000, 0.000000000000000000 ) ;
#152 = SURFACE_STYLE_USAGE ( .BOTH. , #8 ) ;
#153 = ORIENTED_EDGE ( 'NONE', *, *, #186, .T. ) ;
#154 = MECHANICAL_DESIGN_GEOMETRIC_PRESENTATION_REPRESENTATION (  '', ( #94 ), #37 ) ;
#155 = COLOUR_RGB ( '',1.000000000000000000, 0.000000000000000000, 0.000000000000000000 ) ;
#156 = AXIS2_PLACEMENT_3D ( 'NONE', #258, #202, #252 ) ;
#157 = APPLICATION_CONTEXT ( 'automotive_design' ) ;
#158 = DIRECTION ( 'NONE',  ( 0.000000000000000000, -0.000000000000000000, 1.000000000000000000 ) ) ;
#159 =( NAMED_UNIT ( * ) SI_UNIT ( $, .STERADIAN. ) SOLID_ANGLE_UNIT ( ) );
#160 = FILL_AREA_STYLE ('',( #68 ) ) ;
#161 = PRESENTATION_LAYER_ASSIGNMENT (  '', '', ( #49 ) ) ;
#162 = SURFACE_STYLE_USAGE ( .BOTH. , #93 ) ;
#163 = FILL_AREA_STYLE ('',( #116 ) ) ;
#164 = AXIS2_PLACEMENT_3D ( 'NONE', #175, #60, #248 ) ;
#165 = DIRECTION ( 'NONE',  ( -0.000000000000000000, -1.000000000000000000, -0.000000000000000000 ) ) ;
#166 = STYLED_ITEM ( 'NONE', ( #300 ), #107 ) ;
#167 = ADVANCED_FACE ( 'NONE', ( #26 ), #260, .T. ) ;
#168 =( LENGTH_UNIT ( ) NAMED_UNIT ( * ) SI_UNIT ( $, .METRE. ) );
#169 = APPLICATION_CONTEXT ( 'automotive_design' ) ;
#170 = DIRECTION ( 'NONE',  ( 0.000000000000000000, 0.000000000000000000, -1.000000000000000000 ) ) ;
#171 = DIRECTION ( 'NONE',  ( -1.000000000000000000, 0.000000000000000000, 0.000000000000000000 ) ) ;
#172 = SURFACE_STYLE_FILL_AREA ( #185 ) ;
#173 = ORIENTED_EDGE ( 'NONE', *, *, #203, .F. ) ;
#174 = PRODUCT_DEFINITION_FORMATION_WITH_SPECIFIED_SOURCE ( 'ANY', '', #25, .NOT_KNOWN. ) ;
#175 = CARTESIAN_POINT ( 'NONE',  ( 0.000000000000000000, 0.000000000000000000, 0.000000000000000000 ) ) ;
#176 = LENGTH_MEASURE_WITH_UNIT ( LENGTH_MEASURE( 0.02539999999999999897 ), #168 );
#177 = ORIENTED_EDGE ( 'NONE', *, *, #178, .T. ) ;
#178 = EDGE_CURVE ( 'NONE', #280, #62, #71, .T. ) ;
#179 = DIRECTION ( 'NONE',  ( -1.000000000000000000, 0.000000000000000000, 0.000000000000000000 ) ) ;
#180 =( LENGTH_UNIT ( ) NAMED_UNIT ( * ) SI_UNIT ( $, .METRE. ) );
#181 = DIRECTION ( 'NONE',  ( -0.000000000000000000, -1.000000000000000000, -0.000000000000000000 ) ) ;
#182 = CARTESIAN_POINT ( 'NONE',  ( 0.000000000000000000, 0.000000000000000000, 0.000000000000000000 ) ) ;
#183 = DIRECTION ( 'NONE',  ( -3.498990854706726443E-17, 1.000000000000000000, -0.000000000000000000 ) ) ;
#184 =( GEOMETRIC_REPRESENTATION_CONTEXT ( 3 ) GLOBAL_UNCERTAINTY_ASSIGNED_CONTEXT ( ( #189 ) ) GLOBAL_UNIT_ASSIGNED_CONTEXT ( ( #126, #199, #219 ) ) REPRESENTATION_CONTEXT ( 'NONE', 'WORKASPACE' ) );
#185 = FILL_AREA_STYLE ('',( #14 ) ) ;
#186 = EDGE_CURVE ( 'NONE', #33, #129, #133, .T. ) ;
#187 =( NAMED_UNIT ( * ) SI_UNIT ( $, .STERADIAN. ) SOLID_ANGLE_UNIT ( ) );
#188 =( NAMED_UNIT ( * ) PLANE_ANGLE_UNIT ( ) SI_UNIT ( $, .RADIAN. ) );
#189 = UNCERTAINTY_MEASURE_WITH_UNIT (LENGTH_MEASURE( 1.000000000000000082E-05 ), #126, 'distance_accuracy_value', 'NONE');
#190 =( NAMED_UNIT ( * ) PLANE_ANGLE_UNIT ( ) SI_UNIT ( $, .RADIAN. ) );
#191 = AXIS2_PLACEMENT_3D ( 'NONE', #81, #278, #148 ) ;
#192 =( NAMED_UNIT ( * ) PLANE_ANGLE_UNIT ( ) SI_UNIT ( $, .RADIAN. ) );
#193 = UNCERTAINTY_MEASURE_WITH_UNIT (LENGTH_MEASURE( 1.000000000000000082E-05 ), #69, 'distance_accuracy_value', 'NONE');
#194 = DIRECTION ( 'NONE',  ( 0.000000000000000000, 0.000000000000000000, -1.000000000000000000 ) ) ;
#195 = AXIS2_PLACEMENT_3D ( 'NONE', #142, #77, #32 ) ;
#196 = EDGE_CURVE ( 'NONE', #103, #98, #226, .T. ) ;
#197 = CARTESIAN_POINT ( 'NONE',  ( 0.000000000000000000, 0.000000000000000000, 0.000000000000000000 ) ) ;
#198 = AXIS2_PLACEMENT_3D ( 'NONE', #197, #72, #194 ) ;
#199 =( NAMED_UNIT ( * ) PLANE_ANGLE_UNIT ( ) SI_UNIT ( $, .RADIAN. ) );
#200 = ORIENTED_EDGE ( 'NONE', *, *, #241, .F. ) ;
#201 = EDGE_LOOP ( 'NONE', ( #257, #247, #7, #216 ) ) ;
#202 = DIRECTION ( 'NONE',  ( 0.000000000000000000, -1.000000000000000000, -0.000000000000000000 ) ) ;
#203 = EDGE_CURVE ( 'NONE', #62, #280, #246, .T. ) ;
#204 = CARTESIAN_POINT ( 'NONE',  ( 0.000000000000000000, 0.000000000000000000, -0.1250000000000000000 ) ) ;
#205 = LINE ( 'NONE', #204, #240 ) ;
#206 = PRODUCT_RELATED_PRODUCT_CATEGORY ( 'part', '', ( #25 ) ) ;
#207 = SURFACE_STYLE_USAGE ( .BOTH. , #229 ) ;
#208 = PRESENTATION_STYLE_ASSIGNMENT (( #211 ) ) ;
#209 = CARTESIAN_POINT ( 'NONE',  ( 1.530808498934191509E-17, 1.250000000000000000, 0.1250000000000000000 ) ) ;
#210 = PRESENTATION_STYLE_ASSIGNMENT (( #141 ) ) ;
#211 = SURFACE_STYLE_USAGE ( .BOTH. , #90 ) ;
#212 = EDGE_CURVE ( 'NONE', #33, #250, #96, .T. ) ;
#213 = STYLED_ITEM ( 'NONE', ( #295 ), #67 ) ;
#214 = VECTOR ( 'NONE', #146, 39.37007874015748143 ) ;
#215 = CARTESIAN_POINT ( 'NONE',  ( 0.000000000000000000, 1.250000000000000000, 0.000000000000000000 ) ) ;
#216 = ORIENTED_EDGE ( 'NONE', *, *, #299, .F. ) ;
#217 = CLOSED_SHELL ( 'NONE', ( #17, #23, #9, #91 ) ) ;
#218 = MANIFOLD_SOLID_BREP ( 'Revolve - Cutting Edge', #276 ) ;
#219 =( NAMED_UNIT ( * ) SI_UNIT ( $, .STERADIAN. ) SOLID_ANGLE_UNIT ( ) );
#220 = FACE_OUTER_BOUND ( 'NONE', #127, .T. ) ;
#221 = SURFACE_STYLE_FILL_AREA ( #244 ) ;
#222 = ORIENTED_EDGE ( 'NONE', *, *, #293, .F. ) ;
#223 = DIMENSIONAL_EXPONENTS ( 1.000000000000000000, 0.000000000000000000, 0.000000000000000000, 0.000000000000000000, 0.000000000000000000, 0.000000000000000000, 0.000000000000000000 ) ;
#224 = CARTESIAN_POINT ( 'NONE',  ( 0.000000000000000000, 0.000000000000000000, -0.1250000000000000000 ) ) ;
#225 = ORIENTED_EDGE ( 'NONE', *, *, #196, .F. ) ;
#226 = CIRCLE ( 'NONE', #255, 0.1250000000000000000 ) ;
#227 = AXIS2_PLACEMENT_3D ( 'NONE', #20, #117, #66 ) ;
#228 = DIMENSIONAL_EXPONENTS ( 1.000000000000000000, 0.000000000000000000, 0.000000000000000000, 0.000000000000000000, 0.000000000000000000, 0.000000000000000000, 0.000000000000000000 ) ;
#229 = SURFACE_SIDE_STYLE ('',( #172 ) ) ;
#230 = EDGE_LOOP ( 'NONE', ( #200, #277, #12, #109 ) ) ;
#231 = DIRECTION ( 'NONE',  ( -1.000000000000000000, 0.000000000000000000, 0.000000000000000000 ) ) ;
#232 = PLANE ( 'NONE',  #79 ) ;
#233 =( CONVERSION_BASED_UNIT ( 'INCH', #176 ) LENGTH_UNIT ( ) NAMED_UNIT ( #279 ) );
#234 = PLANE ( 'NONE',  #227 ) ;
#235 = AXIS2_PLACEMENT_3D ( 'NONE', #249, #165, #269 ) ;
#236 = LINE ( 'NONE', #136, #122 ) ;
#237 = CYLINDRICAL_SURFACE ( 'NONE', #140, 0.1250000000000000278 ) ;
#238 =( CONVERSION_BASED_UNIT ( 'INCH', #112 ) LENGTH_UNIT ( ) NAMED_UNIT ( #266 ) );
#239 = DIRECTION ( 'NONE',  ( -3.498990854706726443E-17, 1.000000000000000000, -0.000000000000000000 ) ) ;
#240 = VECTOR ( 'NONE', #83, 39.37007874015748143 ) ;
#241 = EDGE_CURVE ( 'NONE', #98, #280, #52, .T. ) ;
#242 = CARTESIAN_POINT ( 'NONE',  ( -6.123233995736772199E-17, 3.000000000000000444, 0.000000000000000000 ) ) ;
#243 = COLOUR_RGB ( '',1.000000000000000000, 0.000000000000000000, 0.000000000000000000 ) ;
#244 = FILL_AREA_STYLE ('',( #272 ) ) ;
#245 = PRESENTATION_STYLE_ASSIGNMENT (( #74 ) ) ;
#246 = CIRCLE ( 'NONE', #195, 0.1250000000000000555 ) ;
#247 = ORIENTED_EDGE ( 'NONE', *, *, #212, .T. ) ;
#248 = DIRECTION ( 'NONE',  ( 0.000000000000000000, 0.000000000000000000, -1.000000000000000000 ) ) ;
#249 = CARTESIAN_POINT ( 'NONE',  ( 0.000000000000000000, 0.000000000000000000, 0.000000000000000000 ) ) ;
#250 = VERTEX_POINT ( 'NONE', #29 ) ;
#251 = DIMENSIONAL_EXPONENTS ( 1.000000000000000000, 0.000000000000000000, 0.000000000000000000, 0.000000000000000000, 0.000000000000000000, 0.000000000000000000, 0.000000000000000000 ) ;
#252 = DIRECTION ( 'NONE',  ( 0.000000000000000000, 0.000000000000000000, -1.000000000000000000 ) ) ;
#253 = ORIENTED_EDGE ( 'NONE', *, *, #212, .F. ) ;
#254 = ORIENTED_EDGE ( 'NONE', *, *, #196, .T. ) ;
#255 = AXIS2_PLACEMENT_3D ( 'NONE', #99, #262, #45 ) ;
#256 = AXIS2_PLACEMENT_3D ( 'NONE', #86, #183, #171 ) ;
#257 = ORIENTED_EDGE ( 'NONE', *, *, #186, .F. ) ;
#258 = CARTESIAN_POINT ( 'NONE',  ( 0.000000000000000000, 0.000000000000000000, 0.000000000000000000 ) ) ;
#259 =( LENGTH_UNIT ( ) NAMED_UNIT ( * ) SI_UNIT ( $, .METRE. ) );
#260 = CYLINDRICAL_SURFACE ( 'NONE', #198, 0.1250000000000000000 ) ;
#261 =( CONVERSION_BASED_UNIT ( 'INCH', #264 ) LENGTH_UNIT ( ) NAMED_UNIT ( #82 ) );
#262 = DIRECTION ( 'NONE',  ( -3.498990854706726443E-17, 1.000000000000000000, -0.000000000000000000 ) ) ;
#263 = MECHANICAL_DESIGN_GEOMETRIC_PRESENTATION_REPRESENTATION (  '', ( #213 ), #289 ) ;
#264 = LENGTH_MEASURE_WITH_UNIT ( LENGTH_MEASURE( 0.02539999999999999897 ), #259 );
#265 =( NAMED_UNIT ( * ) SI_UNIT ( $, .STERADIAN. ) SOLID_ANGLE_UNIT ( ) );
#266 = DIMENSIONAL_EXPONENTS ( 1.000000000000000000, 0.000000000000000000, 0.000000000000000000, 0.000000000000000000, 0.000000000000000000, 0.000000000000000000, 0.000000000000000000 ) ;
#267 = SURFACE_SIDE_STYLE ('',( #44 ) ) ;
#268 = COLOUR_RGB ( '',1.000000000000000000, 0.000000000000000000, 0.000000000000000000 ) ;
#269 = DIRECTION ( 'NONE',  ( 0.000000000000000000, 0.000000000000000000, -1.000000000000000000 ) ) ;
#270 =( GEOMETRIC_REPRESENTATION_CONTEXT ( 3 ) GLOBAL_UNCERTAINTY_ASSIGNED_CONTEXT ( ( #95 ) ) GLOBAL_UNIT_ASSIGNED_CONTEXT ( ( #85, #188, #285 ) ) REPRESENTATION_CONTEXT ( 'NONE', 'WORKASPACE' ) );
#271 = COLOUR_RGB ( '',1.000000000000000000, 0.000000000000000000, 0.000000000000000000 ) ;
#272 = FILL_AREA_STYLE_COLOUR ( '', #104 ) ;
#273 = FACE_OUTER_BOUND ( 'NONE', #15, .T. ) ;
#274 =( CONVERSION_BASED_UNIT ( 'INCH', #63 ) LENGTH_UNIT ( ) NAMED_UNIT ( #151 ) );
#275 = CIRCLE ( 'NONE', #27, 0.1250000000000000000 ) ;
#276 = CLOSED_SHELL ( 'NONE', ( #34, #107, #167, #67 ) ) ;
#277 = ORIENTED_EDGE ( 'NONE', *, *, #84, .T. ) ;
#278 = DIRECTION ( 'NONE',  ( 3.498990854706726443E-17, -1.000000000000000000, 0.000000000000000000 ) ) ;
#279 = DIMENSIONAL_EXPONENTS ( 1.000000000000000000, 0.000000000000000000, 0.000000000000000000, 0.000000000000000000, 0.000000000000000000, 0.000000000000000000, 0.000000000000000000 ) ;
#280 = VERTEX_POINT ( 'NONE', #6 ) ;
#281 = CYLINDRICAL_SURFACE ( 'NONE', #256, 0.1250000000000000278 ) ;
#282 = PLANE ( 'NONE',  #156 ) ;
#283 =( NAMED_UNIT ( * ) PLANE_ANGLE_UNIT ( ) SI_UNIT ( $, .RADIAN. ) );
#284 = DIRECTION ( 'NONE',  ( 0.000000000000000000, 0.000000000000000000, -1.000000000000000000 ) ) ;
#285 =( NAMED_UNIT ( * ) SI_UNIT ( $, .STERADIAN. ) SOLID_ANGLE_UNIT ( ) );
#286 = SURFACE_STYLE_FILL_AREA ( #47 ) ;
#287 =( LENGTH_UNIT ( ) NAMED_UNIT ( * ) SI_UNIT ( $, .METRE. ) );
#288 = STYLED_ITEM ( 'NONE', ( #245 ), #218 ) ;
#289 =( GEOMETRIC_REPRESENTATION_CONTEXT ( 3 ) GLOBAL_UNCERTAINTY_ASSIGNED_CONTEXT ( ( #307 ) ) GLOBAL_UNIT_ASSIGNED_CONTEXT ( ( #274, #16, #55 ) ) REPRESENTATION_CONTEXT ( 'NONE', 'WORKASPACE' ) );
#290 = CARTESIAN_POINT ( 'NONE',  ( -6.123233995736772199E-17, 3.000000000000000444, 0.000000000000000000 ) ) ;
#291 = PRESENTATION_LAYER_ASSIGNMENT (  '', '', ( #288 ) ) ;
#292 = DIRECTION ( 'NONE',  ( 0.000000000000000000, 0.000000000000000000, -1.000000000000000000 ) ) ;
#293 = EDGE_CURVE ( 'NONE', #56, #129, #275, .T. ) ;
#294 = FACE_OUTER_BOUND ( 'NONE', #230, .T. ) ;
#295 = PRESENTATION_STYLE_ASSIGNMENT (( #207 ) ) ;
#296 = ORIENTED_EDGE ( 'NONE', *, *, #203, .T. ) ;
#297 = CARTESIAN_POINT ( 'NONE',  ( 0.000000000000000000, 1.250000000000000000, 0.000000000000000000 ) ) ;
#298 = ORIENTED_EDGE ( 'NONE', *, *, #50, .T. ) ;
#299 = EDGE_CURVE ( 'NONE', #129, #56, #305, .T. ) ;
#300 = PRESENTATION_STYLE_ASSIGNMENT (( #152 ) ) ;
#301 = EDGE_LOOP ( 'NONE', ( #225, #101 ) ) ;
#302 = LENGTH_MEASURE_WITH_UNIT ( LENGTH_MEASURE( 0.02539999999999999897 ), #180 );
#303 = SHAPE_DEFINITION_REPRESENTATION ( #309, #73 ) ;
#304 = ORIENTED_EDGE ( 'NONE', *, *, #299, .T. ) ;
#305 = CIRCLE ( 'NONE', #235, 0.1250000000000000000 ) ;
#306 = DIRECTION ( 'NONE',  ( 1.000000000000000000, 0.000000000000000000, 0.000000000000000000 ) ) ;
#307 = UNCERTAINTY_MEASURE_WITH_UNIT (LENGTH_MEASURE( 1.000000000000000082E-05 ), #274, 'distance_accuracy_value', 'NONE');
#308 = DIRECTION ( 'NONE',  ( -3.498990854706726443E-17, 1.000000000000000000, -0.000000000000000000 ) ) ;
#309 = PRODUCT_DEFINITION_SHAPE ( 'NONE', 'NONE',  #61 ) ;
ENDSEC;
END-ISO-10303-21;
