ISO-10303-21;
HEADER;
FILE_DESCRIPTION (( 'STEP AP214' ),
    '1' );
FILE_NAME ('Micro_RME-027-2.STEP',
    '2021-09-01T23:01:14',
    ( '' ),
    ( '' ),
    'SwSTEP 2.0',
    'SolidWorks 2020',
    '' );
FILE_SCHEMA (( 'AUTOMOTIVE_DESIGN' ));
ENDSEC;

DATA;
#1 = SURFACE_STYLE_USAGE ( .BOTH. , #25 ) ;
#2 = ORIENTED_EDGE ( 'NONE', *, *, #249, .F. ) ;
#3 = FACE_OUTER_BOUND ( 'NONE', #259, .T. ) ;
#4 = VECTOR ( 'NONE', #86, 39.37007874015748143 ) ;
#5 =( CONVERSION_BASED_UNIT ( 'INCH', #168 ) LENGTH_UNIT ( ) NAMED_UNIT ( #119 ) );
#6 = EDGE_CURVE ( 'NONE', #88, #189, #70, .T. ) ;
#7 = DIRECTION ( 'NONE',  ( 0.0000000000000000000, 0.0000000000000000000, -1.000000000000000000 ) ) ;
#8 = CARTESIAN_POINT ( 'NONE',  ( 9.919639073093563665E-18, 0.0000000000000000000, 0.08100000000000000255 ) ) ;
#9 = CARTESIAN_POINT ( 'NONE',  ( 0.01348650000000000369, 1.651619905670078319E-18, -1.651619905670078705E-18 ) ) ;
#10 = AXIS2_PLACEMENT_3D ( 'NONE', #32, #221, #266 ) ;
#11 = ORIENTED_EDGE ( 'NONE', *, *, #219, .F. ) ;
#12 = DIRECTION ( 'NONE',  ( 1.000000000000000000, 0.0000000000000000000, 0.0000000000000000000 ) ) ;
#13 = CARTESIAN_POINT ( 'NONE',  ( -0.04750000000000064587, 0.0000000000000000000, 1.500000000000000222 ) ) ;
#14 = DIMENSIONAL_EXPONENTS ( 1.000000000000000000, 0.0000000000000000000, 0.0000000000000000000, 0.0000000000000000000, 0.0000000000000000000, 0.0000000000000000000, 0.0000000000000000000 ) ;
#15 = DIRECTION ( 'NONE',  ( 0.1736481776669314137, 0.0000000000000000000, 0.9848077530122077983 ) ) ;
#16 = LINE ( 'NONE', #155, #4 ) ;
#17 = STYLED_ITEM ( 'NONE', ( #178 ), #265 ) ;
#18 = CARTESIAN_POINT ( 'NONE',  ( 0.06250000000000002776, 7.654042494670959086E-18, 1.500000000000000222 ) ) ;
#19 = CARTESIAN_POINT ( 'NONE',  ( 0.01348650000000001237, 0.0000000000000000000, 0.08100000000000000255 ) ) ;
#20 = DIRECTION ( 'NONE',  ( -1.224646799147353454E-16, -0.0000000000000000000, -1.000000000000000000 ) ) ;
#21 = UNCERTAINTY_MEASURE_WITH_UNIT (LENGTH_MEASURE( 1.000000000000000082E-05 ), #247, 'distance_accuracy_value', 'NONE');
#22 = CARTESIAN_POINT ( 'NONE',  ( 0.01348650000000000369, 1.651619905670078319E-18, 0.0000000000000000000 ) ) ;
#23 = EDGE_LOOP ( 'NONE', ( #147, #28 ) ) ;
#24 = DIRECTION ( 'NONE',  ( 0.0000000000000000000, 0.0000000000000000000, -1.000000000000000000 ) ) ;
#25 = SURFACE_SIDE_STYLE ('',( #203 ) ) ;
#26 = EDGE_CURVE ( 'NONE', #88, #46, #205, .T. ) ;
#27 = CARTESIAN_POINT ( 'NONE',  ( 9.919639073093563665E-18, 0.0000000000000000000, 0.08100000000000000255 ) ) ;
#28 = ORIENTED_EDGE ( 'NONE', *, *, #111, .T. ) ;
#29 = EDGE_LOOP ( 'NONE', ( #11, #239, #162, #204 ) ) ;
#30 = AXIS2_PLACEMENT_3D ( 'NONE', #134, #36, #131 ) ;
#31 = FACE_OUTER_BOUND ( 'NONE', #29, .T. ) ;
#32 = CARTESIAN_POINT ( 'NONE',  ( 2.022651030886915881E-34, 0.0000000000000000000, 1.651619905670078705E-18 ) ) ;
#33 = ADVANCED_FACE ( 'NONE', ( #31 ), #52, .T. ) ;
#34 =( NAMED_UNIT ( * ) PLANE_ANGLE_UNIT ( ) SI_UNIT ( $, .RADIAN. ) );
#35 = CARTESIAN_POINT ( 'NONE',  ( 0.0000000000000000000, 0.0000000000000000000, 1.500000000000000222 ) ) ;
#36 = DIRECTION ( 'NONE',  ( -1.224646799147353454E-16, -0.0000000000000000000, -1.000000000000000000 ) ) ;
#37 = EDGE_CURVE ( 'NONE', #207, #234, #215, .T. ) ;
#38 = CARTESIAN_POINT ( 'NONE',  ( 0.0000000000000000000, 0.0000000000000000000, 1.500000000000000222 ) ) ;
#39 = CIRCLE ( 'NONE', #10, 0.01348650000000000369 ) ;
#40 = CARTESIAN_POINT ( 'NONE',  ( 0.06250000000000002776, 7.654042494670959086E-18, 1.485000000000000764 ) ) ;
#41 = ORIENTED_EDGE ( 'NONE', *, *, #184, .T. ) ;
#42 = DIRECTION ( 'NONE',  ( 1.224646799147353454E-16, 0.0000000000000000000, 1.000000000000000000 ) ) ;
#43 = DIRECTION ( 'NONE',  ( 0.0000000000000000000, 0.0000000000000000000, 1.000000000000000000 ) ) ;
#44 = CARTESIAN_POINT ( 'NONE',  ( 0.0000000000000000000, 0.0000000000000000000, 1.500000000000000222 ) ) ;
#45 = PRODUCT_DEFINITION_SHAPE ( 'NONE', 'NONE',  #163 ) ;
#46 = VERTEX_POINT ( 'NONE', #117 ) ;
#47 = DIRECTION ( 'NONE',  ( 0.0000000000000000000, 0.0000000000000000000, 1.000000000000000000 ) ) ;
#48 = AXIS2_PLACEMENT_3D ( 'NONE', #8, #218, #76 ) ;
#49 = ORIENTED_EDGE ( 'NONE', *, *, #152, .F. ) ;
#50 = DIRECTION ( 'NONE',  ( -1.000000000000000000, 0.0000000000000000000, 0.0000000000000000000 ) ) ;
#51 = ORIENTED_EDGE ( 'NONE', *, *, #89, .F. ) ;
#52 = CONICAL_SURFACE ( 'NONE', #232, 0.04750000000000064587, 0.7853981633974466137 ) ;
#53 = ORIENTED_EDGE ( 'NONE', *, *, #296, .T. ) ;
#54 = CARTESIAN_POINT ( 'NONE',  ( -0.01348650000000000369, 0.0000000000000000000, 1.651619905670078705E-18 ) ) ;
#55 = AXIS2_PLACEMENT_3D ( 'NONE', #151, #148, #288 ) ;
#56 = FILL_AREA_STYLE_COLOUR ( '', #248 ) ;
#57 = MECHANICAL_DESIGN_GEOMETRIC_PRESENTATION_REPRESENTATION (  '', ( #17 ), #126 ) ;
#58 = LENGTH_MEASURE_WITH_UNIT ( LENGTH_MEASURE( 0.02539999999999999897 ), #105 );
#59 = VECTOR ( 'NONE', #104, 39.37007874015748854 ) ;
#60 =( NAMED_UNIT ( * ) SI_UNIT ( $, .STERADIAN. ) SOLID_ANGLE_UNIT ( ) );
#61 = CIRCLE ( 'NONE', #269, 0.01348650000000000196 ) ;
#62 = ORIENTED_EDGE ( 'NONE', *, *, #144, .F. ) ;
#63 = CIRCLE ( 'NONE', #146, 0.06250000000000002776 ) ;
#64 = DIRECTION ( 'NONE',  ( 1.000000000000000000, 0.0000000000000000000, -0.0000000000000000000 ) ) ;
#65 = ORIENTED_EDGE ( 'NONE', *, *, #149, .F. ) ;
#66 = DIRECTION ( 'NONE',  ( 1.000000000000000000, 0.0000000000000000000, 0.0000000000000000000 ) ) ;
#67 = CARTESIAN_POINT ( 'NONE',  ( 0.06250000000000006939, 7.654042494670963708E-18, 0.3589693714658311330 ) ) ;
#68 = DIRECTION ( 'NONE',  ( 0.0000000000000000000, 0.0000000000000000000, -1.000000000000000000 ) ) ;
#69 = ORIENTED_EDGE ( 'NONE', *, *, #92, .F. ) ;
#70 = LINE ( 'NONE', #103, #59 ) ;
#71 =( NAMED_UNIT ( * ) SI_UNIT ( $, .STERADIAN. ) SOLID_ANGLE_UNIT ( ) );
#72 = ORIENTED_EDGE ( 'NONE', *, *, #136, .F. ) ;
#73 = AXIS2_PLACEMENT_3D ( 'NONE', #287, #75, #169 ) ;
#74 =( GEOMETRIC_REPRESENTATION_CONTEXT ( 3 ) GLOBAL_UNCERTAINTY_ASSIGNED_CONTEXT ( ( #21 ) ) GLOBAL_UNIT_ASSIGNED_CONTEXT ( ( #247, #34, #60 ) ) REPRESENTATION_CONTEXT ( 'NONE', 'WORKASPACE' ) );
#75 = DIRECTION ( 'NONE',  ( -1.224646799147353454E-16, -0.0000000000000000000, -1.000000000000000000 ) ) ;
#76 = DIRECTION ( 'NONE',  ( 1.000000000000000000, 0.0000000000000000000, 0.0000000000000000000 ) ) ;
#77 = CARTESIAN_POINT ( 'NONE',  ( 0.0000000000000000000, 0.0000000000000000000, 1.485000000000000764 ) ) ;
#78 = ADVANCED_FACE ( 'NONE', ( #128 ), #197, .T. ) ;
#79 = AXIS2_PLACEMENT_3D ( 'NONE', #110, #199, #176 ) ;
#80 = CARTESIAN_POINT ( 'NONE',  ( -0.06250000000000002776, 0.0000000000000000000, 1.485000000000000764 ) ) ;
#81 = PLANE ( 'NONE',  #101 ) ;
#82 = FACE_OUTER_BOUND ( 'NONE', #150, .T. ) ;
#83 = EDGE_CURVE ( 'NONE', #207, #258, #61, .T. ) ;
#84 = CIRCLE ( 'NONE', #96, 0.04750000000000064587 ) ;
#85 = CYLINDRICAL_SURFACE ( 'NONE', #137, 0.06250000000000002776 ) ;
#86 = DIRECTION ( 'NONE',  ( -0.0000000000000000000, -0.0000000000000000000, -1.000000000000000000 ) ) ;
#87 = FACE_OUTER_BOUND ( 'NONE', #165, .T. ) ;
#88 = VERTEX_POINT ( 'NONE', #13 ) ;
#89 = EDGE_CURVE ( 'NONE', #263, #285, #227, .T. ) ;
#90 = DIRECTION ( 'NONE',  ( -1.000000000000000000, 0.0000000000000000000, 0.0000000000000000000 ) ) ;
#91 =( CONVERSION_BASED_UNIT ( 'INCH', #159 ) LENGTH_UNIT ( ) NAMED_UNIT ( #14 ) );
#92 = EDGE_CURVE ( 'NONE', #258, #207, #276, .T. ) ;
#93 = CLOSED_SHELL ( 'NONE', ( #196, #78, #237, #175, #120, #242, #33, #273, #267, #209 ) ) ;
#94 = FACE_OUTER_BOUND ( 'NONE', #23, .T. ) ;
#95 = LINE ( 'NONE', #183, #282 ) ;
#96 = AXIS2_PLACEMENT_3D ( 'NONE', #255, #47, #214 ) ;
#97 = ORIENTED_EDGE ( 'NONE', *, *, #92, .T. ) ;
#98 = ORIENTED_EDGE ( 'NONE', *, *, #219, .T. ) ;
#99 = EDGE_CURVE ( 'NONE', #231, #189, #139, .T. ) ;
#100 = ORIENTED_EDGE ( 'NONE', *, *, #136, .T. ) ;
#101 = AXIS2_PLACEMENT_3D ( 'NONE', #153, #233, #252 ) ;
#102 = PRODUCT_CONTEXT ( 'NONE', #129, 'mechanical' ) ;
#103 = CARTESIAN_POINT ( 'NONE',  ( -0.04750000000000064587, 0.0000000000000000000, 1.500000000000000222 ) ) ;
#104 = DIRECTION ( 'NONE',  ( -0.7071067811865462405, 0.0000000000000000000, -0.7071067811865486830 ) ) ;
#105 =( LENGTH_UNIT ( ) NAMED_UNIT ( * ) SI_UNIT ( $, .METRE. ) );
#106 = CIRCLE ( 'NONE', #140, 0.06250000000000002776 ) ;
#107 = DIRECTION ( 'NONE',  ( -1.000000000000000000, 0.0000000000000000000, 0.0000000000000000000 ) ) ;
#108 = PRESENTATION_STYLE_ASSIGNMENT (( #198 ) ) ;
#109 = FILL_AREA_STYLE ('',( #56 ) ) ;
#110 = CARTESIAN_POINT ( 'NONE',  ( 0.0000000000000000000, 0.0000000000000000000, 0.0000000000000000000 ) ) ;
#111 = EDGE_CURVE ( 'NONE', #46, #88, #84, .T. ) ;
#112 = VERTEX_POINT ( 'NONE', #172 ) ;
#113 = PLANE ( 'NONE',  #186 ) ;
#114 = AXIS2_PLACEMENT_3D ( 'NONE', #138, #115, #158 ) ;
#115 = DIRECTION ( 'NONE',  ( -1.224646799147353454E-16, -0.0000000000000000000, -1.000000000000000000 ) ) ;
#116 = EDGE_CURVE ( 'NONE', #112, #234, #39, .T. ) ;
#117 = CARTESIAN_POINT ( 'NONE',  ( 0.04750000000000064587, 6.735557395310483192E-18, 1.500000000000000222 ) ) ;
#118 = PRESENTATION_LAYER_ASSIGNMENT (  '', '', ( #211 ) ) ;
#119 = DIMENSIONAL_EXPONENTS ( 1.000000000000000000, 0.0000000000000000000, 0.0000000000000000000, 0.0000000000000000000, 0.0000000000000000000, 0.0000000000000000000, 0.0000000000000000000 ) ;
#120 = ADVANCED_FACE ( 'NONE', ( #195 ), #293, .T. ) ;
#121 = CARTESIAN_POINT ( 'NONE',  ( 9.919639073093563665E-18, 0.0000000000000000000, 0.08100000000000000255 ) ) ;
#122 = APPLICATION_PROTOCOL_DEFINITION ( 'draft international standard', 'automotive_design', 1998, #142 ) ;
#123 = DIRECTION ( 'NONE',  ( 0.0000000000000000000, 0.0000000000000000000, -1.000000000000000000 ) ) ;
#124 = ORIENTED_EDGE ( 'NONE', *, *, #99, .T. ) ;
#125 = VECTOR ( 'NONE', #15, 39.37007874015748143 ) ;
#126 =( GEOMETRIC_REPRESENTATION_CONTEXT ( 3 ) GLOBAL_UNCERTAINTY_ASSIGNED_CONTEXT ( ( #271 ) ) GLOBAL_UNIT_ASSIGNED_CONTEXT ( ( #5, #188, #71 ) ) REPRESENTATION_CONTEXT ( 'NONE', 'WORKASPACE' ) );
#127 = DIRECTION ( 'NONE',  ( 0.0000000000000000000, 0.0000000000000000000, 1.000000000000000000 ) ) ;
#128 = FACE_OUTER_BOUND ( 'NONE', #284, .T. ) ;
#129 = APPLICATION_CONTEXT ( 'automotive_design' ) ;
#130 = SURFACE_STYLE_FILL_AREA ( #109 ) ;
#131 = DIRECTION ( 'NONE',  ( -1.000000000000000000, 0.0000000000000000000, 1.224646799147353454E-16 ) ) ;
#132 = LINE ( 'NONE', #18, #200 ) ;
#133 = PRODUCT_RELATED_PRODUCT_CATEGORY ( 'part', '', ( #190 ) ) ;
#134 = CARTESIAN_POINT ( 'NONE',  ( 2.022651030886915881E-34, 0.0000000000000000000, 1.651619905670078705E-18 ) ) ;
#135 = CARTESIAN_POINT ( 'NONE',  ( -0.01348649999999999155, 1.651619905670078127E-18, 0.08100000000000000255 ) ) ;
#136 = EDGE_CURVE ( 'NONE', #207, #263, #246, .T. ) ;
#137 = AXIS2_PLACEMENT_3D ( 'NONE', #35, #173, #107 ) ;
#138 = CARTESIAN_POINT ( 'NONE',  ( 0.0000000000000000000, 0.0000000000000000000, 0.0000000000000000000 ) ) ;
#139 = CIRCLE ( 'NONE', #222, 0.06250000000000002776 ) ;
#140 = AXIS2_PLACEMENT_3D ( 'NONE', #274, #20, #157 ) ;
#141 = FILL_AREA_STYLE_COLOUR ( '', #212 ) ;
#142 = APPLICATION_CONTEXT ( 'automotive_design' ) ;
#143 = ORIENTED_EDGE ( 'NONE', *, *, #83, .F. ) ;
#144 = EDGE_CURVE ( 'NONE', #258, #112, #268, .T. ) ;
#145 = ORIENTED_EDGE ( 'NONE', *, *, #89, .T. ) ;
#146 = AXIS2_PLACEMENT_3D ( 'NONE', #253, #24, #66 ) ;
#147 = ORIENTED_EDGE ( 'NONE', *, *, #26, .T. ) ;
#148 = DIRECTION ( 'NONE',  ( 0.0000000000000000000, 0.0000000000000000000, 1.000000000000000000 ) ) ;
#149 = EDGE_CURVE ( 'NONE', #234, #112, #161, .T. ) ;
#150 = EDGE_LOOP ( 'NONE', ( #216, #254 ) ) ;
#151 = CARTESIAN_POINT ( 'NONE',  ( 0.0000000000000000000, 0.0000000000000000000, 1.500000000000000222 ) ) ;
#152 = EDGE_CURVE ( 'NONE', #231, #263, #132, .T. ) ;
#153 = CARTESIAN_POINT ( 'NONE',  ( 0.0000000000000000000, 0.0000000000000000000, 0.0000000000000000000 ) ) ;
#154 = DIRECTION ( 'NONE',  ( -1.224646799147353454E-16, -0.0000000000000000000, -1.000000000000000000 ) ) ;
#155 = CARTESIAN_POINT ( 'NONE',  ( -0.06250000000000002776, 0.0000000000000000000, 1.500000000000000222 ) ) ;
#156 = PRODUCT_DEFINITION_CONTEXT ( 'detailed design', #142, 'design' ) ;
#157 = DIRECTION ( 'NONE',  ( 1.000000000000000000, 0.0000000000000000000, 0.0000000000000000000 ) ) ;
#158 = DIRECTION ( 'NONE',  ( -1.000000000000000000, 0.0000000000000000000, 1.224646799147353454E-16 ) ) ;
#159 = LENGTH_MEASURE_WITH_UNIT ( LENGTH_MEASURE( 0.02539999999999999897 ), #160 );
#160 =( LENGTH_UNIT ( ) NAMED_UNIT ( * ) SI_UNIT ( $, .METRE. ) );
#161 = CIRCLE ( 'NONE', #30, 0.01348650000000000369 ) ;
#162 = ORIENTED_EDGE ( 'NONE', *, *, #6, .T. ) ;
#163 = PRODUCT_DEFINITION ( 'UNKNOWN', '', #277, #156 ) ;
#164 = ORIENTED_EDGE ( 'NONE', *, *, #180, .T. ) ;
#165 = EDGE_LOOP ( 'NONE', ( #193, #98, #236, #261 ) ) ;
#166 = AXIS2_PLACEMENT_3D ( 'NONE', #281, #42, #280 ) ;
#167 = EDGE_LOOP ( 'NONE', ( #97, #298, #251, #62 ) ) ;
#168 = LENGTH_MEASURE_WITH_UNIT ( LENGTH_MEASURE( 0.02539999999999999897 ), #181 );
#169 = DIRECTION ( 'NONE',  ( 1.000000000000000000, 0.0000000000000000000, 0.0000000000000000000 ) ) ;
#170 = DIRECTION ( 'NONE',  ( 1.000000000000000000, 0.0000000000000000000, 0.0000000000000000000 ) ) ;
#171 = DIMENSIONAL_EXPONENTS ( 1.000000000000000000, 0.0000000000000000000, 0.0000000000000000000, 0.0000000000000000000, 0.0000000000000000000, 0.0000000000000000000, 0.0000000000000000000 ) ;
#172 = CARTESIAN_POINT ( 'NONE',  ( -0.01348650000000000369, 0.0000000000000000000, 3.303239811340157409E-18 ) ) ;
#173 = DIRECTION ( 'NONE',  ( -0.0000000000000000000, -0.0000000000000000000, -1.000000000000000000 ) ) ;
#174 = CONICAL_SURFACE ( 'NONE', #295, 0.04750000000000064587, 0.7853981633974466137 ) ;
#175 = ADVANCED_FACE ( 'NONE', ( #297 ), #85, .T. ) ;
#176 = DIRECTION ( 'NONE',  ( -1.000000000000000000, 0.0000000000000000000, 1.224646799147353454E-16 ) ) ;
#177 = DIRECTION ( 'NONE',  ( -0.0000000000000000000, -0.0000000000000000000, -1.000000000000000000 ) ) ;
#178 = PRESENTATION_STYLE_ASSIGNMENT (( #1 ) ) ;
#179 = EDGE_LOOP ( 'NONE', ( #49, #124, #41, #51 ) ) ;
#180 = EDGE_CURVE ( 'NONE', #258, #285, #291, .T. ) ;
#181 =( LENGTH_UNIT ( ) NAMED_UNIT ( * ) SI_UNIT ( $, .METRE. ) );
#182 = FACE_OUTER_BOUND ( 'NONE', #213, .T. ) ;
#183 = CARTESIAN_POINT ( 'NONE',  ( 0.04750000000000064587, 5.817072295950006528E-18, 1.500000000000000222 ) ) ;
#184 = EDGE_CURVE ( 'NONE', #189, #285, #16, .T. ) ;
#185 = ORIENTED_EDGE ( 'NONE', *, *, #184, .F. ) ;
#186 = AXIS2_PLACEMENT_3D ( 'NONE', #44, #43, #64 ) ;
#187 = DIRECTION ( 'NONE',  ( -1.224646799147353454E-16, -0.0000000000000000000, -1.000000000000000000 ) ) ;
#188 =( NAMED_UNIT ( * ) PLANE_ANGLE_UNIT ( ) SI_UNIT ( $, .RADIAN. ) );
#189 = VERTEX_POINT ( 'NONE', #80 ) ;
#190 = PRODUCT ( 'Micro_RME-027-2', 'Micro_RME-027-2', '', ( #102 ) ) ;
#191 = DIRECTION ( 'NONE',  ( -1.000000000000000000, 0.0000000000000000000, 0.0000000000000000000 ) ) ;
#192 = MECHANICAL_DESIGN_GEOMETRIC_PRESENTATION_REPRESENTATION (  '', ( #211 ), #74 ) ;
#193 = ORIENTED_EDGE ( 'NONE', *, *, #111, .F. ) ;
#194 = DIRECTION ( 'NONE',  ( -1.224646799147353454E-16, -0.0000000000000000000, -1.000000000000000000 ) ) ;
#195 = FACE_OUTER_BOUND ( 'NONE', #179, .T. ) ;
#196 = ADVANCED_FACE ( 'NONE', ( #225 ), #270, .T. ) ;
#197 = CONICAL_SURFACE ( 'NONE', #48, 0.01348650000000000196, 0.1745329251994339192 ) ;
#198 = SURFACE_STYLE_USAGE ( .BOTH. , #244 ) ;
#199 = DIRECTION ( 'NONE',  ( -1.224646799147353454E-16, -0.0000000000000000000, -1.000000000000000000 ) ) ;
#200 = VECTOR ( 'NONE', #272, 39.37007874015748143 ) ;
#201 = ORIENTED_EDGE ( 'NONE', *, *, #37, .F. ) ;
#202 = UNCERTAINTY_MEASURE_WITH_UNIT (LENGTH_MEASURE( 1.000000000000000082E-05 ), #91, 'distance_accuracy_value', 'NONE');
#203 = SURFACE_STYLE_FILL_AREA ( #235 ) ;
#204 = ORIENTED_EDGE ( 'NONE', *, *, #99, .F. ) ;
#205 = CIRCLE ( 'NONE', #55, 0.04750000000000064587 ) ;
#206 =( NAMED_UNIT ( * ) SI_UNIT ( $, .STERADIAN. ) SOLID_ANGLE_UNIT ( ) );
#207 = VERTEX_POINT ( 'NONE', #226 ) ;
#208 = MANIFOLD_SOLID_BREP ( 'Cut-Revolve1', #93 ) ;
#209 = ADVANCED_FACE ( 'NONE', ( #82 ), #81, .F. ) ;
#210 = CYLINDRICAL_SURFACE ( 'NONE', #114, 0.01348650000000000369 ) ;
#211 = STYLED_ITEM ( 'NONE', ( #108 ), #208 ) ;
#212 = COLOUR_RGB ( '',0.7921568627450980005, 0.8196078431372548767, 0.9333333333333333481 ) ;
#213 = EDGE_LOOP ( 'NONE', ( #201, #275, #279, #65 ) ) ;
#214 = DIRECTION ( 'NONE',  ( 1.000000000000000000, 0.0000000000000000000, 0.0000000000000000000 ) ) ;
#215 = LINE ( 'NONE', #9, #217 ) ;
#216 = ORIENTED_EDGE ( 'NONE', *, *, #116, .T. ) ;
#217 = VECTOR ( 'NONE', #286, 39.37007874015748143 ) ;
#218 = DIRECTION ( 'NONE',  ( 1.224646799147353454E-16, 0.0000000000000000000, 1.000000000000000000 ) ) ;
#219 = EDGE_CURVE ( 'NONE', #46, #231, #95, .T. ) ;
#220 = DIRECTION ( 'NONE',  ( -1.000000000000000000, 0.0000000000000000000, 0.0000000000000000000 ) ) ;
#221 = DIRECTION ( 'NONE',  ( -1.224646799147353454E-16, -0.0000000000000000000, -1.000000000000000000 ) ) ;
#222 = AXIS2_PLACEMENT_3D ( 'NONE', #77, #7, #170 ) ;
#223 = PRESENTATION_LAYER_ASSIGNMENT (  '', '', ( #17 ) ) ;
#224 = CARTESIAN_POINT ( 'NONE',  ( 0.0000000000000000000, 0.0000000000000000000, 1.500000000000000222 ) ) ;
#225 = FACE_OUTER_BOUND ( 'NONE', #167, .T. ) ;
#226 = CARTESIAN_POINT ( 'NONE',  ( 0.01348650000000001237, 0.0000000000000000000, 0.08100000000000000255 ) ) ;
#227 = CIRCLE ( 'NONE', #73, 0.06250000000000002776 ) ;
#228 =( NAMED_UNIT ( * ) PLANE_ANGLE_UNIT ( ) SI_UNIT ( $, .RADIAN. ) );
#229 = APPLICATION_PROTOCOL_DEFINITION ( 'draft international standard', 'automotive_design', 1998, #129 ) ;
#230 = EDGE_LOOP ( 'NONE', ( #53, #243, #2, #185 ) ) ;
#231 = VERTEX_POINT ( 'NONE', #40 ) ;
#232 = AXIS2_PLACEMENT_3D ( 'NONE', #238, #123, #191 ) ;
#233 = DIRECTION ( 'NONE',  ( 0.0000000000000000000, 0.0000000000000000000, 1.000000000000000000 ) ) ;
#234 = VERTEX_POINT ( 'NONE', #22 ) ;
#235 = FILL_AREA_STYLE ('',( #141 ) ) ;
#236 = ORIENTED_EDGE ( 'NONE', *, *, #296, .F. ) ;
#237 = ADVANCED_FACE ( 'NONE', ( #87 ), #174, .T. ) ;
#238 = CARTESIAN_POINT ( 'NONE',  ( 0.0000000000000000000, 0.0000000000000000000, 1.500000000000000222 ) ) ;
#239 = ORIENTED_EDGE ( 'NONE', *, *, #26, .F. ) ;
#240 = ORIENTED_EDGE ( 'NONE', *, *, #249, .T. ) ;
#241 = VECTOR ( 'NONE', #264, 39.37007874015747433 ) ;
#242 = ADVANCED_FACE ( 'NONE', ( #94 ), #113, .T. ) ;
#243 = ORIENTED_EDGE ( 'NONE', *, *, #152, .T. ) ;
#244 = SURFACE_SIDE_STYLE ('',( #130 ) ) ;
#245 = AXIS2_PLACEMENT_3D ( 'NONE', #260, #127, #12 ) ;
#246 = LINE ( 'NONE', #19, #125 ) ;
#247 =( CONVERSION_BASED_UNIT ( 'INCH', #58 ) LENGTH_UNIT ( ) NAMED_UNIT ( #171 ) );
#248 = COLOUR_RGB ( '',0.7921568627450980005, 0.8196078431372548767, 0.9333333333333333481 ) ;
#249 = EDGE_CURVE ( 'NONE', #285, #263, #106, .T. ) ;
#250 = CARTESIAN_POINT ( 'NONE',  ( -0.01348649999999999155, 4.652831200170518703E-18, 0.08100000000000000255 ) ) ;
#251 = ORIENTED_EDGE ( 'NONE', *, *, #116, .F. ) ;
#252 = DIRECTION ( 'NONE',  ( 1.000000000000000000, 0.0000000000000000000, -0.0000000000000000000 ) ) ;
#253 = CARTESIAN_POINT ( 'NONE',  ( 0.0000000000000000000, 0.0000000000000000000, 1.485000000000000764 ) ) ;
#254 = ORIENTED_EDGE ( 'NONE', *, *, #149, .T. ) ;
#255 = CARTESIAN_POINT ( 'NONE',  ( 0.0000000000000000000, 0.0000000000000000000, 1.500000000000000222 ) ) ;
#256 = AXIS2_PLACEMENT_3D ( 'NONE', #224, #177, #220 ) ;
#257 = CONICAL_SURFACE ( 'NONE', #166, 0.01348650000000000196, 0.1745329251994339192 ) ;
#258 = VERTEX_POINT ( 'NONE', #250 ) ;
#259 = EDGE_LOOP ( 'NONE', ( #299, #143, #100, #145 ) ) ;
#260 = CARTESIAN_POINT ( 'NONE',  ( 0.0000000000000000000, 0.0000000000000000000, 0.0000000000000000000 ) ) ;
#261 = ORIENTED_EDGE ( 'NONE', *, *, #6, .F. ) ;
#262 = AXIS2_PLACEMENT_3D ( 'NONE', #121, #194, #290 ) ;
#263 = VERTEX_POINT ( 'NONE', #67 ) ;
#264 = DIRECTION ( 'NONE',  ( -0.1736481776669312194, 2.126576849575783625E-17, 0.9848077530122080203 ) ) ;
#265 = ADVANCED_BREP_SHAPE_REPRESENTATION ( 'Micro_RME-027-2', ( #208, #245 ), #292 ) ;
#266 = DIRECTION ( 'NONE',  ( -1.000000000000000000, 0.0000000000000000000, 1.224646799147353454E-16 ) ) ;
#267 = ADVANCED_FACE ( 'NONE', ( #182 ), #210, .T. ) ;
#268 = LINE ( 'NONE', #54, #294 ) ;
#269 = AXIS2_PLACEMENT_3D ( 'NONE', #27, #187, #50 ) ;
#270 = CYLINDRICAL_SURFACE ( 'NONE', #79, 0.01348650000000000369 ) ;
#271 = UNCERTAINTY_MEASURE_WITH_UNIT (LENGTH_MEASURE( 1.000000000000000082E-05 ), #5, 'distance_accuracy_value', 'NONE');
#272 = DIRECTION ( 'NONE',  ( -0.0000000000000000000, -0.0000000000000000000, -1.000000000000000000 ) ) ;
#273 = ADVANCED_FACE ( 'NONE', ( #3 ), #257, .T. ) ;
#274 = CARTESIAN_POINT ( 'NONE',  ( 4.396106917575674361E-17, 0.0000000000000000000, 0.3589693714658311330 ) ) ;
#275 = ORIENTED_EDGE ( 'NONE', *, *, #83, .T. ) ;
#276 = CIRCLE ( 'NONE', #262, 0.01348650000000000196 ) ;
#277 = PRODUCT_DEFINITION_FORMATION_WITH_SPECIFIED_SOURCE ( 'ANY', '', #190, .NOT_KNOWN. ) ;
#278 = CARTESIAN_POINT ( 'NONE',  ( -0.06249999999999997918, 0.0000000000000000000, 0.3589693714658311330 ) ) ;
#279 = ORIENTED_EDGE ( 'NONE', *, *, #144, .T. ) ;
#280 = DIRECTION ( 'NONE',  ( 1.000000000000000000, 0.0000000000000000000, 0.0000000000000000000 ) ) ;
#281 = CARTESIAN_POINT ( 'NONE',  ( 9.919639073093563665E-18, 0.0000000000000000000, 0.08100000000000000255 ) ) ;
#282 = VECTOR ( 'NONE', #283, 39.37007874015748854 ) ;
#283 = DIRECTION ( 'NONE',  ( 0.7071067811865462405, 8.659560562354916834E-17, -0.7071067811865486830 ) ) ;
#284 = EDGE_LOOP ( 'NONE', ( #69, #164, #240, #72 ) ) ;
#285 = VERTEX_POINT ( 'NONE', #278 ) ;
#286 = DIRECTION ( 'NONE',  ( -1.224646799147353454E-16, -0.0000000000000000000, -1.000000000000000000 ) ) ;
#287 = CARTESIAN_POINT ( 'NONE',  ( 4.396106917575674361E-17, 0.0000000000000000000, 0.3589693714658311330 ) ) ;
#288 = DIRECTION ( 'NONE',  ( 1.000000000000000000, 0.0000000000000000000, 0.0000000000000000000 ) ) ;
#289 = SHAPE_DEFINITION_REPRESENTATION ( #45, #265 ) ;
#290 = DIRECTION ( 'NONE',  ( -1.000000000000000000, 0.0000000000000000000, 0.0000000000000000000 ) ) ;
#291 = LINE ( 'NONE', #135, #241 ) ;
#292 =( GEOMETRIC_REPRESENTATION_CONTEXT ( 3 ) GLOBAL_UNCERTAINTY_ASSIGNED_CONTEXT ( ( #202 ) ) GLOBAL_UNIT_ASSIGNED_CONTEXT ( ( #91, #228, #206 ) ) REPRESENTATION_CONTEXT ( 'NONE', 'WORKASPACE' ) );
#293 = CYLINDRICAL_SURFACE ( 'NONE', #256, 0.06250000000000002776 ) ;
#294 = VECTOR ( 'NONE', #154, 39.37007874015748143 ) ;
#295 = AXIS2_PLACEMENT_3D ( 'NONE', #38, #68, #90 ) ;
#296 = EDGE_CURVE ( 'NONE', #189, #231, #63, .T. ) ;
#297 = FACE_OUTER_BOUND ( 'NONE', #230, .T. ) ;
#298 = ORIENTED_EDGE ( 'NONE', *, *, #37, .T. ) ;
#299 = ORIENTED_EDGE ( 'NONE', *, *, #180, .F. ) ;
ENDSEC;
END-ISO-10303-21;
