ISO-10303-21;
HEADER;
FILE_DESCRIPTION (( 'STEP AP214' ),
    '1' );
FILE_NAME ('59617.STEP',
    '2023-07-24T15:15:51',
    ( '' ),
    ( '' ),
    'SwSTEP 2.0',
    'SolidWorks 2023',
    '' );
FILE_SCHEMA (( 'AUTOMOTIVE_DESIGN' ));
ENDSEC;

DATA;
#1 = FACE_OUTER_BOUND ( 'NONE', #347, .T. ) ;
#2 = PRODUCT_DEFINITION_SHAPE ( 'NONE', 'NONE',  #120 ) ;
#3 = ORIENTED_EDGE ( 'NONE', *, *, #148, .T. ) ;
#4 = ORIENTED_EDGE ( 'NONE', *, *, #25, .F. ) ;
#5 = APPLICATION_PROTOCOL_DEFINITION ( 'draft international standard', 'automotive_design', 1998, #175 ) ;
#6 = ORIENTED_EDGE ( 'NONE', *, *, #366, .F. ) ;
#7 = PRODUCT_DEFINITION_FORMATION_WITH_SPECIFIED_SOURCE ( 'ANY', '', #61, .NOT_KNOWN. ) ;
#8 = ADVANCED_FACE ( 'NONE', ( #291 ), #247, .F. ) ;
#9 = FACE_OUTER_BOUND ( 'NONE', #284, .T. ) ;
#10 = DIRECTION ( 'NONE',  ( 0.000000000000000000, 0.000000000000000000, -1.000000000000000000 ) ) ;
#11 = CIRCLE ( 'NONE', #226, 6.000000000000000000 ) ;
#12 = DIRECTION ( 'NONE',  ( 1.560495851798313744E-17, 1.000000000000000000, -0.000000000000000000 ) ) ;
#13 =( NAMED_UNIT ( * ) SI_UNIT ( $, .STERADIAN. ) SOLID_ANGLE_UNIT ( ) );
#14 = CARTESIAN_POINT ( 'NONE',  ( 0.000000000000000000, 1.000000000000000000, 0.000000000000000000 ) ) ;
#15 =( NAMED_UNIT ( * ) PLANE_ANGLE_UNIT ( ) SI_UNIT ( $, .RADIAN. ) );
#16 = AXIS2_PLACEMENT_3D ( 'NONE', #187, #300, #107 ) ;
#17 = DIRECTION ( 'NONE',  ( -0.000000000000000000, -1.000000000000000000, -0.000000000000000000 ) ) ;
#18 = UNCERTAINTY_MEASURE_WITH_UNIT (LENGTH_MEASURE( 1.000000000000000082E-05 ), #335, 'distance_accuracy_value', 'NONE');
#19 = CARTESIAN_POINT ( 'NONE',  ( 7.347880794884119736E-16, 30.00000000000000000, 6.000000000000000000 ) ) ;
#20 = FILL_AREA_STYLE_COLOUR ( '', #108 ) ;
#21 = CARTESIAN_POINT ( 'NONE',  ( 0.000000000000000000, 0.000000000000000000, -6.000000000000000000 ) ) ;
#22 = AXIS2_PLACEMENT_3D ( 'NONE', #198, #143, #258 ) ;
#23 = AXIS2_PLACEMENT_3D ( 'NONE', #78, #42, #214 ) ;
#24 = DIRECTION ( 'NONE',  ( -0.000000000000000000, -1.000000000000000000, -0.000000000000000000 ) ) ;
#25 = EDGE_CURVE ( 'NONE', #147, #231, #67, .T. ) ;
#26 =( LENGTH_UNIT ( ) NAMED_UNIT ( * ) SI_UNIT ( .MILLI., .METRE. ) );
#27 = ORIENTED_EDGE ( 'NONE', *, *, #215, .F. ) ;
#28 =( NAMED_UNIT ( * ) PLANE_ANGLE_UNIT ( ) SI_UNIT ( $, .RADIAN. ) );
#29 = TOROIDAL_SURFACE ( 'NONE', #353, 5.000000000000000000, 0.9999999999999995559 ) ;
#30 = MECHANICAL_DESIGN_GEOMETRIC_PRESENTATION_REPRESENTATION (  '', ( #155 ), #363 ) ;
#31 =( LENGTH_UNIT ( ) NAMED_UNIT ( * ) SI_UNIT ( .MILLI., .METRE. ) );
#32 = ORIENTED_EDGE ( 'NONE', *, *, #295, .T. ) ;
#33 = PRODUCT_CONTEXT ( 'NONE', #175, 'mechanical' ) ;
#34 =( NAMED_UNIT ( * ) PLANE_ANGLE_UNIT ( ) SI_UNIT ( $, .RADIAN. ) );
#35 = ORIENTED_EDGE ( 'NONE', *, *, #348, .F. ) ;
#36 = ADVANCED_FACE ( 'NONE', ( #49 ), #44, .T. ) ;
#37 =( NAMED_UNIT ( * ) PLANE_ANGLE_UNIT ( ) SI_UNIT ( $, .RADIAN. ) );
#38 = DIRECTION ( 'NONE',  ( 0.000000000000000000, 0.000000000000000000, 1.000000000000000000 ) ) ;
#39 = DIRECTION ( 'NONE',  ( -1.000000000000000000, 1.560495851798313744E-17, 0.000000000000000000 ) ) ;
#40 =( LENGTH_UNIT ( ) NAMED_UNIT ( * ) SI_UNIT ( .MILLI., .METRE. ) );
#41 = APPLICATION_PROTOCOL_DEFINITION ( 'draft international standard', 'automotive_design', 1998, #253 ) ;
#42 = DIRECTION ( 'NONE',  ( -0.000000000000000000, -1.000000000000000000, -0.000000000000000000 ) ) ;
#43 = PRESENTATION_STYLE_ASSIGNMENT (( #81 ) ) ;
#44 = TOROIDAL_SURFACE ( 'NONE', #116, 5.000000000000000000, 0.9999999999999995559 ) ;
#45 = AXIS2_PLACEMENT_3D ( 'NONE', #355, #110, #360 ) ;
#46 = CYLINDRICAL_SURFACE ( 'NONE', #91, 5.999999999999994671 ) ;
#47 =( LENGTH_UNIT ( ) NAMED_UNIT ( * ) SI_UNIT ( .MILLI., .METRE. ) );
#48 = EDGE_CURVE ( 'NONE', #64, #346, #105, .T. ) ;
#49 = FACE_OUTER_BOUND ( 'NONE', #238, .T. ) ;
#50 = COLOUR_RGB ( '',1.000000000000000000, 0.000000000000000000, 0.000000000000000000 ) ;
#51 = PRESENTATION_LAYER_ASSIGNMENT (  '', '', ( #155 ) ) ;
#52 = SURFACE_STYLE_FILL_AREA ( #137 ) ;
#53 = SURFACE_SIDE_STYLE ('',( #197 ) ) ;
#54 = UNCERTAINTY_MEASURE_WITH_UNIT (LENGTH_MEASURE( 1.000000000000000082E-05 ), #31, 'distance_accuracy_value', 'NONE');
#55 = CARTESIAN_POINT ( 'NONE',  ( 6.735557395310443009E-16, 0.000000000000000000, 5.000000000000000000 ) ) ;
#56 = DIRECTION ( 'NONE',  ( -1.000000000000000000, 0.000000000000000000, 0.000000000000000000 ) ) ;
#57 =( GEOMETRIC_REPRESENTATION_CONTEXT ( 3 ) GLOBAL_UNCERTAINTY_ASSIGNED_CONTEXT ( ( #84 ) ) GLOBAL_UNIT_ASSIGNED_CONTEXT ( ( #196, #229, #252 ) ) REPRESENTATION_CONTEXT ( 'NONE', 'WORKASPACE' ) );
#58 = AXIS2_PLACEMENT_3D ( 'NONE', #329, #332, #83 ) ;
#59 =( NAMED_UNIT ( * ) PLANE_ANGLE_UNIT ( ) SI_UNIT ( $, .RADIAN. ) );
#60 = EDGE_CURVE ( 'NONE', #68, #173, #213, .T. ) ;
#61 = PRODUCT ( '59617', '59617', '', ( #33 ) ) ;
#62 = ORIENTED_EDGE ( 'NONE', *, *, #99, .T. ) ;
#63 = DIRECTION ( 'NONE',  ( -1.000000000000000000, 0.000000000000000000, 0.000000000000000000 ) ) ;
#64 = VERTEX_POINT ( 'NONE', #134 ) ;
#65 = ADVANCED_FACE ( 'NONE', ( #349 ), #29, .T. ) ;
#66 = MANIFOLD_SOLID_BREP ( 'Revolve - Tool Body (Straight Shanked)', #230 ) ;
#67 = CIRCLE ( 'NONE', #225, 6.000000000000000000 ) ;
#68 = VERTEX_POINT ( 'NONE', #309 ) ;
#69 =( GEOMETRIC_REPRESENTATION_CONTEXT ( 3 ) GLOBAL_UNCERTAINTY_ASSIGNED_CONTEXT ( ( #278 ) ) GLOBAL_UNIT_ASSIGNED_CONTEXT ( ( #357, #307, #220 ) ) REPRESENTATION_CONTEXT ( 'NONE', 'WORKASPACE' ) );
#70 = CARTESIAN_POINT ( 'NONE',  ( 5.421010862427522170E-15, 30.00000000000000000, 0.000000000000000000 ) ) ;
#71 = MANIFOLD_SOLID_BREP ( 'Revolve - Cutting Edge', #125 ) ;
#72 = PRESENTATION_STYLE_ASSIGNMENT (( #314 ) ) ;
#73 = FILL_AREA_STYLE ('',( #152 ) ) ;
#74 = AXIS2_PLACEMENT_3D ( 'NONE', #185, #178, #39 ) ;
#75 = FACE_OUTER_BOUND ( 'NONE', #352, .T. ) ;
#76 = DIRECTION ( 'NONE',  ( -0.000000000000000000, -1.000000000000000000, -0.000000000000000000 ) ) ;
#77 = UNCERTAINTY_MEASURE_WITH_UNIT (LENGTH_MEASURE( 1.000000000000000082E-05 ), #331, 'distance_accuracy_value', 'NONE');
#78 = CARTESIAN_POINT ( 'NONE',  ( 0.000000000000000000, 30.00000000000000000, 0.000000000000000000 ) ) ;
#79 = SURFACE_SIDE_STYLE ('',( #242 ) ) ;
#80 = PRESENTATION_LAYER_ASSIGNMENT (  '', '', ( #160 ) ) ;
#81 = SURFACE_STYLE_USAGE ( .BOTH. , #244 ) ;
#82 = SURFACE_SIDE_STYLE ('',( #365 ) ) ;
#83 = DIRECTION ( 'NONE',  ( 0.000000000000000000, 0.000000000000000000, -1.000000000000000000 ) ) ;
#84 = UNCERTAINTY_MEASURE_WITH_UNIT (LENGTH_MEASURE( 1.000000000000000082E-05 ), #196, 'distance_accuracy_value', 'NONE');
#85 = COLOUR_RGB ( '',0.7921568627450980005, 0.8196078431372548767, 0.9333333333333333481 ) ;
#86 = PRESENTATION_LAYER_ASSIGNMENT (  '', '', ( #351 ) ) ;
#87 = DIRECTION ( 'NONE',  ( -1.224646799147352468E-16, 0.000000000000000000, -1.000000000000000000 ) ) ;
#88 = SURFACE_STYLE_USAGE ( .BOTH. , #227 ) ;
#89 = ADVANCED_FACE ( 'NONE', ( #255 ), #158, .T. ) ;
#90 = CARTESIAN_POINT ( 'NONE',  ( 0.000000000000000000, 30.00000000000000000, -6.000000000000000000 ) ) ;
#91 = AXIS2_PLACEMENT_3D ( 'NONE', #272, #12, #133 ) ;
#92 = CARTESIAN_POINT ( 'NONE',  ( 6.000000000000000000, 75.00000000000000000, 7.347880794884112834E-16 ) ) ;
#93 = ORIENTED_EDGE ( 'NONE', *, *, #271, .F. ) ;
#94 = ADVANCED_FACE ( 'NONE', ( #168 ), #318, .T. ) ;
#95 = ORIENTED_EDGE ( 'NONE', *, *, #60, .F. ) ;
#96 = STYLED_ITEM ( 'NONE', ( #277 ), #66 ) ;
#97 = AXIS2_PLACEMENT_3D ( 'NONE', #334, #17, #111 ) ;
#98 = ORIENTED_EDGE ( 'NONE', *, *, #60, .T. ) ;
#99 = EDGE_CURVE ( 'NONE', #68, #209, #136, .T. ) ;
#100 = SURFACE_SIDE_STYLE ('',( #232 ) ) ;
#101 = ORIENTED_EDGE ( 'NONE', *, *, #215, .T. ) ;
#102 = EDGE_LOOP ( 'NONE', ( #95, #62, #32, #154 ) ) ;
#103 = DIRECTION ( 'NONE',  ( -0.000000000000000000, -1.000000000000000000, -0.000000000000000000 ) ) ;
#104 = UNCERTAINTY_MEASURE_WITH_UNIT (LENGTH_MEASURE( 1.000000000000000082E-05 ), #47, 'distance_accuracy_value', 'NONE');
#105 = CIRCLE ( 'NONE', #145, 5.000000000000000000 ) ;
#106 = CARTESIAN_POINT ( 'NONE',  ( 0.000000000000000000, 0.000000000000000000, 0.000000000000000000 ) ) ;
#107 = DIRECTION ( 'NONE',  ( 1.000000000000000000, -1.560495851798313744E-17, 0.000000000000000000 ) ) ;
#108 = COLOUR_RGB ( '',0.7921568627450980005, 0.8196078431372548767, 0.9333333333333333481 ) ;
#109 = AXIS2_PLACEMENT_3D ( 'NONE', #320, #202, #150 ) ;
#110 = DIRECTION ( 'NONE',  ( 1.560495851798313744E-17, 1.000000000000000000, -0.000000000000000000 ) ) ;
#111 = DIRECTION ( 'NONE',  ( 0.000000000000000000, 0.000000000000000000, -1.000000000000000000 ) ) ;
#112 = CARTESIAN_POINT ( 'NONE',  ( 0.000000000000000000, 1.000000000000000000, 0.000000000000000000 ) ) ;
#113 = FILL_AREA_STYLE_COLOUR ( '', #172 ) ;
#114 = SURFACE_SIDE_STYLE ('',( #361 ) ) ;
#115 = COLOUR_RGB ( '',1.000000000000000000, 0.000000000000000000, 0.000000000000000000 ) ;
#116 = AXIS2_PLACEMENT_3D ( 'NONE', #188, #266, #325 ) ;
#117 = DIRECTION ( 'NONE',  ( 0.000000000000000000, 1.000000000000000000, 0.000000000000000000 ) ) ;
#118 = MECHANICAL_DESIGN_GEOMETRIC_PRESENTATION_REPRESENTATION (  '', ( #160 ), #57 ) ;
#119 = DIRECTION ( 'NONE',  ( -0.000000000000000000, -1.000000000000000000, -0.000000000000000000 ) ) ;
#120 = PRODUCT_DEFINITION ( 'UNKNOWN', '', #7, #179 ) ;
#121 = EDGE_LOOP ( 'NONE', ( #341, #369 ) ) ;
#122 = FILL_AREA_STYLE ('',( #170 ) ) ;
#123 = ORIENTED_EDGE ( 'NONE', *, *, #344, .F. ) ;
#124 = ORIENTED_EDGE ( 'NONE', *, *, #344, .T. ) ;
#125 = CLOSED_SHELL ( 'NONE', ( #94, #65, #89, #36, #199, #313 ) ) ;
#126 = DIRECTION ( 'NONE',  ( 1.560495851798313744E-17, 1.000000000000000000, -0.000000000000000000 ) ) ;
#127 = ORIENTED_EDGE ( 'NONE', *, *, #271, .T. ) ;
#128 =( NAMED_UNIT ( * ) SI_UNIT ( $, .STERADIAN. ) SOLID_ANGLE_UNIT ( ) );
#129 = MECHANICAL_DESIGN_GEOMETRIC_PRESENTATION_REPRESENTATION (  '', ( #305 ), #269 ) ;
#130 = VECTOR ( 'NONE', #248, 1000.000000000000000 ) ;
#131 = DIRECTION ( 'NONE',  ( 1.560495851798313744E-17, 1.000000000000000000, -0.000000000000000000 ) ) ;
#132 = CARTESIAN_POINT ( 'NONE',  ( 6.000000000000000888, 75.00000000000000000, 7.347880794884112834E-16 ) ) ;
#133 = DIRECTION ( 'NONE',  ( -1.000000000000000000, 0.000000000000000000, 0.000000000000000000 ) ) ;
#134 = CARTESIAN_POINT ( 'NONE',  ( 0.000000000000000000, 0.000000000000000000, -5.000000000000000000 ) ) ;
#135 = DIRECTION ( 'NONE',  ( 0.000000000000000000, 0.000000000000000000, -1.000000000000000000 ) ) ;
#136 = CIRCLE ( 'NONE', #250, 5.999999999999994671 ) ;
#137 = FILL_AREA_STYLE ('',( #359 ) ) ;
#138 = DIRECTION ( 'NONE',  ( 1.560495851798313744E-17, 1.000000000000000000, -0.000000000000000000 ) ) ;
#139 = FILL_AREA_STYLE_COLOUR ( '', #85 ) ;
#140 = STYLED_ITEM ( 'NONE', ( #167 ), #89 ) ;
#141 = CIRCLE ( 'NONE', #58, 5.000000000000000000 ) ;
#142 = LINE ( 'NONE', #21, #270 ) ;
#143 = DIRECTION ( 'NONE',  ( 0.000000000000000000, -1.000000000000000000, -0.000000000000000000 ) ) ;
#144 = SURFACE_SIDE_STYLE ('',( #201 ) ) ;
#145 = AXIS2_PLACEMENT_3D ( 'NONE', #106, #76, #302 ) ;
#146 = CYLINDRICAL_SURFACE ( 'NONE', #370, 6.000000000000000000 ) ;
#147 = VERTEX_POINT ( 'NONE', #265 ) ;
#148 = EDGE_CURVE ( 'NONE', #147, #64, #317, .T. ) ;
#149 = ORIENTED_EDGE ( 'NONE', *, *, #366, .T. ) ;
#150 = DIRECTION ( 'NONE',  ( 0.000000000000000000, 0.000000000000000000, 1.000000000000000000 ) ) ;
#151 = DIRECTION ( 'NONE',  ( 1.560495851798313744E-17, 1.000000000000000000, -0.000000000000000000 ) ) ;
#152 = FILL_AREA_STYLE_COLOUR ( '', #50 ) ;
#153 = PRESENTATION_LAYER_ASSIGNMENT (  '', '', ( #316 ) ) ;
#154 = ORIENTED_EDGE ( 'NONE', *, *, #308, .F. ) ;
#155 = STYLED_ITEM ( 'NONE', ( #72 ), #199 ) ;
#156 = CIRCLE ( 'NONE', #97, 6.000000000000000000 ) ;
#157 = SURFACE_STYLE_USAGE ( .BOTH. , #79 ) ;
#158 = PLANE ( 'NONE',  #22 ) ;
#159 = DIRECTION ( 'NONE',  ( -0.000000000000000000, -1.000000000000000000, -0.000000000000000000 ) ) ;
#160 = STYLED_ITEM ( 'NONE', ( #306 ), #71 ) ;
#161 = CIRCLE ( 'NONE', #205, 5.999999999999993783 ) ;
#162 = CARTESIAN_POINT ( 'NONE',  ( 7.347880794884119736E-16, 0.000000000000000000, 6.000000000000000000 ) ) ;
#163 = DIRECTION ( 'NONE',  ( 1.000000000000000000, 0.000000000000000000, -1.224646799147353207E-16 ) ) ;
#164 = SURFACE_STYLE_USAGE ( .BOTH. , #53 ) ;
#165 = PRESENTATION_LAYER_ASSIGNMENT (  '', '', ( #236 ) ) ;
#166 = AXIS2_PLACEMENT_3D ( 'NONE', #181, #38, #216 ) ;
#167 = PRESENTATION_STYLE_ASSIGNMENT (( #88 ) ) ;
#168 = FACE_OUTER_BOUND ( 'NONE', #233, .T. ) ;
#169 = ORIENTED_EDGE ( 'NONE', *, *, #328, .F. ) ;
#170 = FILL_AREA_STYLE_COLOUR ( '', #327 ) ;
#171 = ORIENTED_EDGE ( 'NONE', *, *, #368, .F. ) ;
#172 = COLOUR_RGB ( '',1.000000000000000000, 0.000000000000000000, 0.000000000000000000 ) ;
#173 = VERTEX_POINT ( 'NONE', #92 ) ;
#174 = ORIENTED_EDGE ( 'NONE', *, *, #348, .T. ) ;
#175 = APPLICATION_CONTEXT ( 'automotive_design' ) ;
#176 = AXIS2_PLACEMENT_3D ( 'NONE', #235, #119, #345 ) ;
#177 = AXIS2_PLACEMENT_3D ( 'NONE', #257, #163, #87 ) ;
#178 = DIRECTION ( 'NONE',  ( 1.560495851798313744E-17, 1.000000000000000000, -0.000000000000000000 ) ) ;
#179 = PRODUCT_DEFINITION_CONTEXT ( 'detailed design', #253, 'design' ) ;
#180 = FILL_AREA_STYLE ('',( #326 ) ) ;
#181 = CARTESIAN_POINT ( 'NONE',  ( 0.000000000000000000, 0.000000000000000000, 0.000000000000000000 ) ) ;
#182 = EDGE_CURVE ( 'NONE', #240, #173, #161, .T. ) ;
#183 = CYLINDRICAL_SURFACE ( 'NONE', #298, 5.999999999999994671 ) ;
#184 = DIRECTION ( 'NONE',  ( -0.000000000000000000, -1.000000000000000000, -0.000000000000000000 ) ) ;
#185 = CARTESIAN_POINT ( 'NONE',  ( 5.421010862427522170E-15, 30.00000000000000000, 0.000000000000000000 ) ) ;
#186 =( GEOMETRIC_REPRESENTATION_CONTEXT ( 3 ) GLOBAL_UNCERTAINTY_ASSIGNED_CONTEXT ( ( #18 ) ) GLOBAL_UNIT_ASSIGNED_CONTEXT ( ( #335, #280, #330 ) ) REPRESENTATION_CONTEXT ( 'NONE', 'WORKASPACE' ) );
#187 = CARTESIAN_POINT ( 'NONE',  ( 6.000000000000000000, 75.00000000000000000, 0.000000000000000000 ) ) ;
#188 = CARTESIAN_POINT ( 'NONE',  ( 0.000000000000000000, 1.000000000000000000, 0.000000000000000000 ) ) ;
#189 =( NAMED_UNIT ( * ) PLANE_ANGLE_UNIT ( ) SI_UNIT ( $, .RADIAN. ) );
#190 = DIRECTION ( 'NONE',  ( 0.000000000000000000, 0.000000000000000000, -1.000000000000000000 ) ) ;
#191 = FILL_AREA_STYLE ('',( #139 ) ) ;
#192 = MECHANICAL_DESIGN_GEOMETRIC_PRESENTATION_REPRESENTATION (  '', ( #316 ), #218 ) ;
#193 =( LENGTH_UNIT ( ) NAMED_UNIT ( * ) SI_UNIT ( .MILLI., .METRE. ) );
#194 = UNCERTAINTY_MEASURE_WITH_UNIT (LENGTH_MEASURE( 1.000000000000000082E-05 ), #26, 'distance_accuracy_value', 'NONE');
#195 = DIRECTION ( 'NONE',  ( -0.000000000000000000, -1.000000000000000000, -0.000000000000000000 ) ) ;
#196 =( LENGTH_UNIT ( ) NAMED_UNIT ( * ) SI_UNIT ( .MILLI., .METRE. ) );
#197 = SURFACE_STYLE_FILL_AREA ( #310 ) ;
#198 = CARTESIAN_POINT ( 'NONE',  ( 0.000000000000000000, 0.000000000000000000, 0.000000000000000000 ) ) ;
#199 = ADVANCED_FACE ( 'NONE', ( #1 ), #146, .T. ) ;
#200 = MECHANICAL_DESIGN_GEOMETRIC_PRESENTATION_REPRESENTATION (  '', ( #236 ), #249 ) ;
#201 = SURFACE_STYLE_FILL_AREA ( #337 ) ;
#202 = DIRECTION ( 'NONE',  ( -1.000000000000000000, 0.000000000000000000, 0.000000000000000000 ) ) ;
#203 = ORIENTED_EDGE ( 'NONE', *, *, #182, .F. ) ;
#204 = EDGE_LOOP ( 'NONE', ( #287, #149, #293, #324 ) ) ;
#205 = AXIS2_PLACEMENT_3D ( 'NONE', #311, #126, #63 ) ;
#206 = SURFACE_STYLE_USAGE ( .BOTH. , #144 ) ;
#207 = ORIENTED_EDGE ( 'NONE', *, *, #276, .F. ) ;
#208 = ORIENTED_EDGE ( 'NONE', *, *, #99, .F. ) ;
#209 = VERTEX_POINT ( 'NONE', #322 ) ;
#210 = PRESENTATION_LAYER_ASSIGNMENT (  '', '', ( #140 ) ) ;
#211 = DIRECTION ( 'NONE',  ( 0.000000000000000000, 0.000000000000000000, -1.000000000000000000 ) ) ;
#212 = MECHANICAL_DESIGN_GEOMETRIC_PRESENTATION_REPRESENTATION (  '', ( #351 ), #69 ) ;
#213 = LINE ( 'NONE', #132, #290 ) ;
#214 = DIRECTION ( 'NONE',  ( 0.000000000000000000, 0.000000000000000000, -1.000000000000000000 ) ) ;
#215 = EDGE_CURVE ( 'NONE', #260, #319, #262, .T. ) ;
#216 = DIRECTION ( 'NONE',  ( 1.000000000000000000, 0.000000000000000000, 0.000000000000000000 ) ) ;
#217 = DIRECTION ( 'NONE',  ( -1.000000000000000000, 0.000000000000000000, 0.000000000000000000 ) ) ;
#218 =( GEOMETRIC_REPRESENTATION_CONTEXT ( 3 ) GLOBAL_UNCERTAINTY_ASSIGNED_CONTEXT ( ( #358 ) ) GLOBAL_UNIT_ASSIGNED_CONTEXT ( ( #40, #15, #356 ) ) REPRESENTATION_CONTEXT ( 'NONE', 'WORKASPACE' ) );
#219 = CARTESIAN_POINT ( 'NONE',  ( 0.000000000000000000, 1.000000000000000000, 0.000000000000000000 ) ) ;
#220 =( NAMED_UNIT ( * ) SI_UNIT ( $, .STERADIAN. ) SOLID_ANGLE_UNIT ( ) );
#221 = CARTESIAN_POINT ( 'NONE',  ( -5.999999999999988454, 75.00000000000000000, 0.000000000000000000 ) ) ;
#222 = ADVANCED_FACE ( 'NONE', ( #75 ), #292, .F. ) ;
#223 = PRESENTATION_STYLE_ASSIGNMENT (( #164 ) ) ;
#224 = SURFACE_STYLE_USAGE ( .BOTH. , #114 ) ;
#225 = AXIS2_PLACEMENT_3D ( 'NONE', #219, #184, #10 ) ;
#226 = AXIS2_PLACEMENT_3D ( 'NONE', #14, #275, #135 ) ;
#227 = SURFACE_SIDE_STYLE ('',( #52 ) ) ;
#228 =( NAMED_UNIT ( * ) SI_UNIT ( $, .STERADIAN. ) SOLID_ANGLE_UNIT ( ) );
#229 =( NAMED_UNIT ( * ) PLANE_ANGLE_UNIT ( ) SI_UNIT ( $, .RADIAN. ) );
#230 = CLOSED_SHELL ( 'NONE', ( #234, #222, #239, #8 ) ) ;
#231 = VERTEX_POINT ( 'NONE', #267 ) ;
#232 = SURFACE_STYLE_FILL_AREA ( #122 ) ;
#233 = EDGE_LOOP ( 'NONE', ( #321, #315, #4, #123 ) ) ;
#234 = ADVANCED_FACE ( 'NONE', ( #9 ), #183, .T. ) ;
#235 = CARTESIAN_POINT ( 'NONE',  ( 0.000000000000000000, 0.000000000000000000, 0.000000000000000000 ) ) ;
#236 = STYLED_ITEM ( 'NONE', ( #283 ), #94 ) ;
#237 = CIRCLE ( 'NONE', #343, 5.999999999999994671 ) ;
#238 = EDGE_LOOP ( 'NONE', ( #6, #312, #3, #35 ) ) ;
#239 = ADVANCED_FACE ( 'NONE', ( #299 ), #46, .T. ) ;
#240 = VERTEX_POINT ( 'NONE', #246 ) ;
#241 = CARTESIAN_POINT ( 'NONE',  ( 0.000000000000000000, 0.000000000000000000, 0.000000000000000000 ) ) ;
#242 = SURFACE_STYLE_FILL_AREA ( #180 ) ;
#243 = CIRCLE ( 'NONE', #45, 5.999999999999993783 ) ;
#244 = SURFACE_SIDE_STYLE ('',( #296 ) ) ;
#245 = ORIENTED_EDGE ( 'NONE', *, *, #295, .F. ) ;
#246 = CARTESIAN_POINT ( 'NONE',  ( -5.999999999999987566, 75.00000000000000000, 0.000000000000000000 ) ) ;
#247 = PLANE ( 'NONE',  #16 ) ;
#248 = DIRECTION ( 'NONE',  ( 1.560495851798313744E-17, 1.000000000000000000, -0.000000000000000000 ) ) ;
#249 =( GEOMETRIC_REPRESENTATION_CONTEXT ( 3 ) GLOBAL_UNCERTAINTY_ASSIGNED_CONTEXT ( ( #194 ) ) GLOBAL_UNIT_ASSIGNED_CONTEXT ( ( #26, #28, #259 ) ) REPRESENTATION_CONTEXT ( 'NONE', 'WORKASPACE' ) );
#250 = AXIS2_PLACEMENT_3D ( 'NONE', #70, #340, #263 ) ;
#251 = PLANE ( 'NONE',  #333 ) ;
#252 =( NAMED_UNIT ( * ) SI_UNIT ( $, .STERADIAN. ) SOLID_ANGLE_UNIT ( ) );
#253 = APPLICATION_CONTEXT ( 'automotive_design' ) ;
#254 = CARTESIAN_POINT ( 'NONE',  ( 5.421010862427522170E-15, 30.00000000000000000, 0.000000000000000000 ) ) ;
#255 = FACE_OUTER_BOUND ( 'NONE', #288, .T. ) ;
#256 = VECTOR ( 'NONE', #195, 1000.000000000000000 ) ;
#257 = CARTESIAN_POINT ( 'NONE',  ( 6.123233995736766282E-16, 1.000000000000000000, 5.000000000000000000 ) ) ;
#258 = DIRECTION ( 'NONE',  ( 0.000000000000000000, 0.000000000000000000, -1.000000000000000000 ) ) ;
#259 =( NAMED_UNIT ( * ) SI_UNIT ( $, .STERADIAN. ) SOLID_ANGLE_UNIT ( ) );
#260 = VERTEX_POINT ( 'NONE', #19 ) ;
#261 = PRESENTATION_LAYER_ASSIGNMENT (  '', '', ( #96 ) ) ;
#262 = CIRCLE ( 'NONE', #23, 6.000000000000000000 ) ;
#263 = DIRECTION ( 'NONE',  ( -1.000000000000000000, 0.000000000000000000, 0.000000000000000000 ) ) ;
#264 = ORIENTED_EDGE ( 'NONE', *, *, #48, .T. ) ;
#265 = CARTESIAN_POINT ( 'NONE',  ( 0.000000000000000000, 1.000000000000000000, -6.000000000000000000 ) ) ;
#266 = DIRECTION ( 'NONE',  ( -0.000000000000000000, -1.000000000000000000, -0.000000000000000000 ) ) ;
#267 = CARTESIAN_POINT ( 'NONE',  ( 7.347880794884118750E-16, 1.000000000000000000, 6.000000000000000000 ) ) ;
#268 = PRESENTATION_LAYER_ASSIGNMENT (  '', '', ( #305 ) ) ;
#269 =( GEOMETRIC_REPRESENTATION_CONTEXT ( 3 ) GLOBAL_UNCERTAINTY_ASSIGNED_CONTEXT ( ( #104 ) ) GLOBAL_UNIT_ASSIGNED_CONTEXT ( ( #47, #37, #13 ) ) REPRESENTATION_CONTEXT ( 'NONE', 'WORKASPACE' ) );
#270 = VECTOR ( 'NONE', #159, 1000.000000000000000 ) ;
#271 = EDGE_CURVE ( 'NONE', #209, #68, #237, .T. ) ;
#272 = CARTESIAN_POINT ( 'NONE',  ( 6.123233995736762930E-15, 75.00000000000000000, 0.000000000000000000 ) ) ;
#273 = PRESENTATION_STYLE_ASSIGNMENT (( #157 ) ) ;
#274 = LINE ( 'NONE', #221, #130 ) ;
#275 = DIRECTION ( 'NONE',  ( -0.000000000000000000, -1.000000000000000000, -0.000000000000000000 ) ) ;
#276 = EDGE_CURVE ( 'NONE', #319, #260, #156, .T. ) ;
#277 = PRESENTATION_STYLE_ASSIGNMENT (( #303 ) ) ;
#278 = UNCERTAINTY_MEASURE_WITH_UNIT (LENGTH_MEASURE( 1.000000000000000082E-05 ), #357, 'distance_accuracy_value', 'NONE');
#279 = CARTESIAN_POINT ( 'NONE',  ( 0.000000000000000000, 30.00000000000000000, 0.000000000000000000 ) ) ;
#280 =( NAMED_UNIT ( * ) PLANE_ANGLE_UNIT ( ) SI_UNIT ( $, .RADIAN. ) );
#281 = COLOUR_RGB ( '',1.000000000000000000, 0.000000000000000000, 0.000000000000000000 ) ;
#282 =( GEOMETRIC_REPRESENTATION_CONTEXT ( 3 ) GLOBAL_UNCERTAINTY_ASSIGNED_CONTEXT ( ( #323 ) ) GLOBAL_UNIT_ASSIGNED_CONTEXT ( ( #193, #189, #228 ) ) REPRESENTATION_CONTEXT ( 'NONE', 'WORKASPACE' ) );
#283 = PRESENTATION_STYLE_ASSIGNMENT (( #206 ) ) ;
#284 = EDGE_LOOP ( 'NONE', ( #127, #98, #203, #245 ) ) ;
#285 = EDGE_LOOP ( 'NONE', ( #207, #27 ) ) ;
#286 = MECHANICAL_DESIGN_GEOMETRIC_PRESENTATION_REPRESENTATION (  '', ( #140 ), #186 ) ;
#287 = ORIENTED_EDGE ( 'NONE', *, *, #25, .T. ) ;
#288 = EDGE_LOOP ( 'NONE', ( #264, #174 ) ) ;
#289 = SHAPE_DEFINITION_REPRESENTATION ( #2, #301 ) ;
#290 = VECTOR ( 'NONE', #151, 1000.000000000000000 ) ;
#291 = FACE_OUTER_BOUND ( 'NONE', #121, .T. ) ;
#292 = PLANE ( 'NONE',  #74 ) ;
#293 = ORIENTED_EDGE ( 'NONE', *, *, #48, .F. ) ;
#294 = CARTESIAN_POINT ( 'NONE',  ( 6.123233995736762930E-15, 75.00000000000000000, 0.000000000000000000 ) ) ;
#295 = EDGE_CURVE ( 'NONE', #209, #240, #274, .T. ) ;
#296 = SURFACE_STYLE_FILL_AREA ( #73 ) ;
#297 =( GEOMETRIC_REPRESENTATION_CONTEXT ( 3 ) GLOBAL_UNCERTAINTY_ASSIGNED_CONTEXT ( ( #77 ) ) GLOBAL_UNIT_ASSIGNED_CONTEXT ( ( #331, #59, #367 ) ) REPRESENTATION_CONTEXT ( 'NONE', 'WORKASPACE' ) );
#298 = AXIS2_PLACEMENT_3D ( 'NONE', #294, #131, #217 ) ;
#299 = FACE_OUTER_BOUND ( 'NONE', #102, .T. ) ;
#300 = DIRECTION ( 'NONE',  ( -1.560495851798313744E-17, -1.000000000000000000, 0.000000000000000000 ) ) ;
#301 = ADVANCED_BREP_SHAPE_REPRESENTATION ( '59617', ( #71, #66, #166 ), #282 ) ;
#302 = DIRECTION ( 'NONE',  ( 0.000000000000000000, 0.000000000000000000, -1.000000000000000000 ) ) ;
#303 = SURFACE_STYLE_USAGE ( .BOTH. , #82 ) ;
#304 = LINE ( 'NONE', #162, #256 ) ;
#305 = STYLED_ITEM ( 'NONE', ( #43 ), #36 ) ;
#306 = PRESENTATION_STYLE_ASSIGNMENT (( #224 ) ) ;
#307 =( NAMED_UNIT ( * ) PLANE_ANGLE_UNIT ( ) SI_UNIT ( $, .RADIAN. ) );
#308 = EDGE_CURVE ( 'NONE', #173, #240, #243, .T. ) ;
#309 = CARTESIAN_POINT ( 'NONE',  ( 6.000000000000000000, 30.00000000000000000, 7.347880794884112834E-16 ) ) ;
#310 = FILL_AREA_STYLE ('',( #113 ) ) ;
#311 = CARTESIAN_POINT ( 'NONE',  ( 6.123233995736762930E-15, 75.00000000000000000, 0.000000000000000000 ) ) ;
#312 = ORIENTED_EDGE ( 'NONE', *, *, #368, .T. ) ;
#313 = ADVANCED_FACE ( 'NONE', ( #336 ), #251, .T. ) ;
#314 = SURFACE_STYLE_USAGE ( .BOTH. , #100 ) ;
#315 = ORIENTED_EDGE ( 'NONE', *, *, #328, .T. ) ;
#316 = STYLED_ITEM ( 'NONE', ( #273 ), #65 ) ;
#317 = CIRCLE ( 'NONE', #109, 1.000000000000000000 ) ;
#318 = CYLINDRICAL_SURFACE ( 'NONE', #176, 6.000000000000000000 ) ;
#319 = VERTEX_POINT ( 'NONE', #90 ) ;
#320 = CARTESIAN_POINT ( 'NONE',  ( 0.000000000000000000, 1.000000000000000000, -5.000000000000000000 ) ) ;
#321 = ORIENTED_EDGE ( 'NONE', *, *, #276, .T. ) ;
#322 = CARTESIAN_POINT ( 'NONE',  ( -5.999999999999989342, 30.00000000000000000, 0.000000000000000000 ) ) ;
#323 = UNCERTAINTY_MEASURE_WITH_UNIT (LENGTH_MEASURE( 1.000000000000000082E-05 ), #193, 'distance_accuracy_value', 'NONE');
#324 = ORIENTED_EDGE ( 'NONE', *, *, #148, .F. ) ;
#325 = DIRECTION ( 'NONE',  ( 0.000000000000000000, 0.000000000000000000, -1.000000000000000000 ) ) ;
#326 = FILL_AREA_STYLE_COLOUR ( '', #115 ) ;
#327 = COLOUR_RGB ( '',1.000000000000000000, 0.000000000000000000, 0.000000000000000000 ) ;
#328 = EDGE_CURVE ( 'NONE', #260, #231, #304, .T. ) ;
#329 = CARTESIAN_POINT ( 'NONE',  ( 0.000000000000000000, 0.000000000000000000, 0.000000000000000000 ) ) ;
#330 =( NAMED_UNIT ( * ) SI_UNIT ( $, .STERADIAN. ) SOLID_ANGLE_UNIT ( ) );
#331 =( LENGTH_UNIT ( ) NAMED_UNIT ( * ) SI_UNIT ( .MILLI., .METRE. ) );
#332 = DIRECTION ( 'NONE',  ( -0.000000000000000000, -1.000000000000000000, -0.000000000000000000 ) ) ;
#333 = AXIS2_PLACEMENT_3D ( 'NONE', #279, #117, #362 ) ;
#334 = CARTESIAN_POINT ( 'NONE',  ( 0.000000000000000000, 30.00000000000000000, 0.000000000000000000 ) ) ;
#335 =( LENGTH_UNIT ( ) NAMED_UNIT ( * ) SI_UNIT ( .MILLI., .METRE. ) );
#336 = FACE_OUTER_BOUND ( 'NONE', #285, .T. ) ;
#337 = FILL_AREA_STYLE ('',( #342 ) ) ;
#338 = COLOUR_RGB ( '',1.000000000000000000, 0.000000000000000000, 0.000000000000000000 ) ;
#339 = CIRCLE ( 'NONE', #177, 1.000000000000000000 ) ;
#340 = DIRECTION ( 'NONE',  ( 1.560495851798313744E-17, 1.000000000000000000, -0.000000000000000000 ) ) ;
#341 = ORIENTED_EDGE ( 'NONE', *, *, #182, .T. ) ;
#342 = FILL_AREA_STYLE_COLOUR ( '', #338 ) ;
#343 = AXIS2_PLACEMENT_3D ( 'NONE', #254, #138, #56 ) ;
#344 = EDGE_CURVE ( 'NONE', #319, #147, #142, .T. ) ;
#345 = DIRECTION ( 'NONE',  ( 0.000000000000000000, 0.000000000000000000, -1.000000000000000000 ) ) ;
#346 = VERTEX_POINT ( 'NONE', #55 ) ;
#347 = EDGE_LOOP ( 'NONE', ( #169, #101, #124, #171 ) ) ;
#348 = EDGE_CURVE ( 'NONE', #346, #64, #141, .T. ) ;
#349 = FACE_OUTER_BOUND ( 'NONE', #204, .T. ) ;
#350 = MECHANICAL_DESIGN_GEOMETRIC_PRESENTATION_REPRESENTATION (  '', ( #96 ), #297 ) ;
#351 = STYLED_ITEM ( 'NONE', ( #223 ), #313 ) ;
#352 = EDGE_LOOP ( 'NONE', ( #93, #208 ) ) ;
#353 = AXIS2_PLACEMENT_3D ( 'NONE', #112, #24, #190 ) ;
#354 = PRODUCT_RELATED_PRODUCT_CATEGORY ( 'part', '', ( #61 ) ) ;
#355 = CARTESIAN_POINT ( 'NONE',  ( 6.123233995736762930E-15, 75.00000000000000000, 0.000000000000000000 ) ) ;
#356 =( NAMED_UNIT ( * ) SI_UNIT ( $, .STERADIAN. ) SOLID_ANGLE_UNIT ( ) );
#357 =( LENGTH_UNIT ( ) NAMED_UNIT ( * ) SI_UNIT ( .MILLI., .METRE. ) );
#358 = UNCERTAINTY_MEASURE_WITH_UNIT (LENGTH_MEASURE( 1.000000000000000082E-05 ), #40, 'distance_accuracy_value', 'NONE');
#359 = FILL_AREA_STYLE_COLOUR ( '', #281 ) ;
#360 = DIRECTION ( 'NONE',  ( -1.000000000000000000, 0.000000000000000000, 0.000000000000000000 ) ) ;
#361 = SURFACE_STYLE_FILL_AREA ( #191 ) ;
#362 = DIRECTION ( 'NONE',  ( 0.000000000000000000, -0.000000000000000000, 1.000000000000000000 ) ) ;
#363 =( GEOMETRIC_REPRESENTATION_CONTEXT ( 3 ) GLOBAL_UNCERTAINTY_ASSIGNED_CONTEXT ( ( #54 ) ) GLOBAL_UNIT_ASSIGNED_CONTEXT ( ( #31, #34, #128 ) ) REPRESENTATION_CONTEXT ( 'NONE', 'WORKASPACE' ) );
#364 = FILL_AREA_STYLE ('',( #20 ) ) ;
#365 = SURFACE_STYLE_FILL_AREA ( #364 ) ;
#366 = EDGE_CURVE ( 'NONE', #231, #346, #339, .T. ) ;
#367 =( NAMED_UNIT ( * ) SI_UNIT ( $, .STERADIAN. ) SOLID_ANGLE_UNIT ( ) );
#368 = EDGE_CURVE ( 'NONE', #231, #147, #11, .T. ) ;
#369 = ORIENTED_EDGE ( 'NONE', *, *, #308, .T. ) ;
#370 = AXIS2_PLACEMENT_3D ( 'NONE', #241, #103, #211 ) ;
ENDSEC;
END-ISO-10303-21;
