ISO-10303-21;
HEADER;
FILE_DESCRIPTION (( 'STEP AP214' ),
    '1' );
FILE_NAME ('83432.STEP',
    '2023-06-23T10:04:27',
    ( '' ),
    ( '' ),
    'SwSTEP 2.0',
    'SolidWorks 2023',
    '' );
FILE_SCHEMA (( 'AUTOMOTIVE_DESIGN' ));
ENDSEC;

DATA;
#1 = ADVANCED_FACE ( 'NONE', ( #16 ), #303, .T. ) ;
#2 = FILL_AREA_STYLE_COLOUR ( '', #74 ) ;
#3 = CYLINDRICAL_SURFACE ( 'NONE', #168, 0.09375000000000001388 ) ;
#4 = UNCERTAINTY_MEASURE_WITH_UNIT (LENGTH_MEASURE( 1.000000000000000082E-05 ), #166, 'distance_accuracy_value', 'NONE');
#5 = CARTESIAN_POINT ( 'NONE',  ( 0.000000000000000000, 0.4375000000000000000, 0.000000000000000000 ) ) ;
#6 = MANIFOLD_SOLID_BREP ( 'Revolve - Cutting Edge', #71 ) ;
#7 = CARTESIAN_POINT ( 'NONE',  ( 0.09375000000000001388, 2.000000000000000000, 0.000000000000000000 ) ) ;
#8 = MANIFOLD_SOLID_BREP ( 'Revolve - Tool Body (Straight Shanked)', #237 ) ;
#9 = PRESENTATION_LAYER_ASSIGNMENT (  '', '', ( #124 ) ) ;
#10 =( LENGTH_UNIT ( ) NAMED_UNIT ( * ) SI_UNIT ( $, .METRE. ) );
#11 = SURFACE_SIDE_STYLE ('',( #60 ) ) ;
#12 = AXIS2_PLACEMENT_3D ( 'NONE', #137, #178, #15 ) ;
#13 = AXIS2_PLACEMENT_3D ( 'NONE', #5, #29, #222 ) ;
#14 = ORIENTED_EDGE ( 'NONE', *, *, #66, .F. ) ;
#15 = DIRECTION ( 'NONE',  ( -1.000000000000000000, 0.000000000000000000, 0.000000000000000000 ) ) ;
#16 = FACE_OUTER_BOUND ( 'NONE', #75, .T. ) ;
#17 = EDGE_CURVE ( 'NONE', #110, #259, #114, .T. ) ;
#18 = VERTEX_POINT ( 'NONE', #214 ) ;
#19 =( LENGTH_UNIT ( ) NAMED_UNIT ( * ) SI_UNIT ( $, .METRE. ) );
#20 = UNCERTAINTY_MEASURE_WITH_UNIT (LENGTH_MEASURE( 1.000000000000000082E-05 ), #176, 'distance_accuracy_value', 'NONE');
#21 = EDGE_CURVE ( 'NONE', #39, #111, #67, .T. ) ;
#22 = DIRECTION ( 'NONE',  ( 0.000000000000000000, -1.000000000000000000, -0.000000000000000000 ) ) ;
#23 = PRESENTATION_STYLE_ASSIGNMENT (( #288 ) ) ;
#24 = LENGTH_MEASURE_WITH_UNIT ( LENGTH_MEASURE( 0.02539999999999999897 ), #96 );
#25 = MECHANICAL_DESIGN_GEOMETRIC_PRESENTATION_REPRESENTATION (  '', ( #289 ), #41 ) ;
#26 = CYLINDRICAL_SURFACE ( 'NONE', #99, 0.09375000000000001388 ) ;
#27 =( NAMED_UNIT ( * ) SI_UNIT ( $, .STERADIAN. ) SOLID_ANGLE_UNIT ( ) );
#28 = FACE_OUTER_BOUND ( 'NONE', #208, .T. ) ;
#29 = DIRECTION ( 'NONE',  ( -0.000000000000000000, -1.000000000000000000, -0.000000000000000000 ) ) ;
#30 = VECTOR ( 'NONE', #118, 39.37007874015748143 ) ;
#31 = CARTESIAN_POINT ( 'NONE',  ( 1.148106374200643863E-17, 0.4375000000000000000, 0.09375000000000001388 ) ) ;
#32 = PLANE ( 'NONE',  #305 ) ;
#33 = ORIENTED_EDGE ( 'NONE', *, *, #52, .F. ) ;
#34 = APPLICATION_PROTOCOL_DEFINITION ( 'draft international standard', 'automotive_design', 1998, #70 ) ;
#35 = CIRCLE ( 'NONE', #13, 0.09375000000000001388 ) ;
#36 = ORIENTED_EDGE ( 'NONE', *, *, #268, .F. ) ;
#37 = ORIENTED_EDGE ( 'NONE', *, *, #21, .F. ) ;
#38 = DIRECTION ( 'NONE',  ( 3.918869757271530214E-17, 1.000000000000000000, -0.000000000000000000 ) ) ;
#39 = VERTEX_POINT ( 'NONE', #63 ) ;
#40 = CARTESIAN_POINT ( 'NONE',  ( 1.148106374200643863E-17, 0.000000000000000000, 0.09375000000000001388 ) ) ;
#41 =( GEOMETRIC_REPRESENTATION_CONTEXT ( 3 ) GLOBAL_UNCERTAINTY_ASSIGNED_CONTEXT ( ( #87 ) ) GLOBAL_UNIT_ASSIGNED_CONTEXT ( ( #233, #62, #143 ) ) REPRESENTATION_CONTEXT ( 'NONE', 'WORKASPACE' ) );
#42 = VECTOR ( 'NONE', #306, 39.37007874015748143 ) ;
#43 = DIRECTION ( 'NONE',  ( -1.000000000000000000, 0.000000000000000000, 0.000000000000000000 ) ) ;
#44 = FACE_OUTER_BOUND ( 'NONE', #80, .T. ) ;
#45 = FACE_OUTER_BOUND ( 'NONE', #129, .T. ) ;
#46 = EDGE_CURVE ( 'NONE', #138, #259, #164, .T. ) ;
#47 = COLOUR_RGB ( '',0.7921568627450980005, 0.8196078431372548767, 0.9333333333333333481 ) ;
#48 = MECHANICAL_DESIGN_GEOMETRIC_PRESENTATION_REPRESENTATION (  '', ( #190 ), #134 ) ;
#49 = PRESENTATION_STYLE_ASSIGNMENT (( #192 ) ) ;
#50 = STYLED_ITEM ( 'NONE', ( #49 ), #260 ) ;
#51 = CARTESIAN_POINT ( 'NONE',  ( -0.09374999999999990286, 2.000000000000000000, 0.000000000000000000 ) ) ;
#52 = EDGE_CURVE ( 'NONE', #18, #138, #307, .T. ) ;
#53 = ORIENTED_EDGE ( 'NONE', *, *, #271, .F. ) ;
#54 = FILL_AREA_STYLE_COLOUR ( '', #278 ) ;
#55 = EDGE_CURVE ( 'NONE', #110, #18, #58, .T. ) ;
#56 = VERTEX_POINT ( 'NONE', #236 ) ;
#57 = FACE_OUTER_BOUND ( 'NONE', #59, .T. ) ;
#58 = CIRCLE ( 'NONE', #106, 0.09375000000000001388 ) ;
#59 = EDGE_LOOP ( 'NONE', ( #85, #36 ) ) ;
#60 = SURFACE_STYLE_FILL_AREA ( #254 ) ;
#61 = SURFACE_SIDE_STYLE ('',( #109 ) ) ;
#62 =( NAMED_UNIT ( * ) PLANE_ANGLE_UNIT ( ) SI_UNIT ( $, .RADIAN. ) );
#63 = CARTESIAN_POINT ( 'NONE',  ( 0.000000000000000000, 0.4375000000000000000, -0.09375000000000001388 ) ) ;
#64 = DIRECTION ( 'NONE',  ( 0.000000000000000000, 0.000000000000000000, -1.000000000000000000 ) ) ;
#65 =( LENGTH_UNIT ( ) NAMED_UNIT ( * ) SI_UNIT ( $, .METRE. ) );
#66 = EDGE_CURVE ( 'NONE', #259, #138, #284, .T. ) ;
#67 = LINE ( 'NONE', #189, #249 ) ;
#68 = SURFACE_STYLE_FILL_AREA ( #261 ) ;
#69 = FILL_AREA_STYLE_COLOUR ( '', #47 ) ;
#70 = APPLICATION_CONTEXT ( 'automotive_design' ) ;
#71 = CLOSED_SHELL ( 'NONE', ( #260, #181, #223, #144 ) ) ;
#72 = DIRECTION ( 'NONE',  ( 3.918869757271530214E-17, 1.000000000000000000, -0.000000000000000000 ) ) ;
#73 = FACE_OUTER_BOUND ( 'NONE', #155, .T. ) ;
#74 = COLOUR_RGB ( '',1.000000000000000000, 0.000000000000000000, 0.000000000000000000 ) ;
#75 = EDGE_LOOP ( 'NONE', ( #160, #102, #159, #14 ) ) ;
#76 = UNCERTAINTY_MEASURE_WITH_UNIT (LENGTH_MEASURE( 1.000000000000000082E-05 ), #177, 'distance_accuracy_value', 'NONE');
#77 = AXIS2_PLACEMENT_3D ( 'NONE', #169, #153, #100 ) ;
#78 = FILL_AREA_STYLE_COLOUR ( '', #241 ) ;
#79 = VERTEX_POINT ( 'NONE', #31 ) ;
#80 = EDGE_LOOP ( 'NONE', ( #300, #229, #226, #182 ) ) ;
#81 = APPLICATION_PROTOCOL_DEFINITION ( 'draft international standard', 'automotive_design', 1998, #88 ) ;
#82 =( NAMED_UNIT ( * ) SI_UNIT ( $, .STERADIAN. ) SOLID_ANGLE_UNIT ( ) );
#83 = COLOUR_RGB ( '',1.000000000000000000, 0.000000000000000000, 0.000000000000000000 ) ;
#84 =( GEOMETRIC_REPRESENTATION_CONTEXT ( 3 ) GLOBAL_UNCERTAINTY_ASSIGNED_CONTEXT ( ( #195 ) ) GLOBAL_UNIT_ASSIGNED_CONTEXT ( ( #269, #122, #98 ) ) REPRESENTATION_CONTEXT ( 'NONE', 'WORKASPACE' ) );
#85 = ORIENTED_EDGE ( 'NONE', *, *, #95, .F. ) ;
#86 =( CONVERSION_BASED_UNIT ( 'INCH', #161 ) LENGTH_UNIT ( ) NAMED_UNIT ( #171 ) );
#87 = UNCERTAINTY_MEASURE_WITH_UNIT (LENGTH_MEASURE( 1.000000000000000082E-05 ), #233, 'distance_accuracy_value', 'NONE');
#88 = APPLICATION_CONTEXT ( 'automotive_design' ) ;
#89 = CARTESIAN_POINT ( 'NONE',  ( 0.09375000000000004163, 2.000000000000000000, 1.148106374200643247E-17 ) ) ;
#90 = AXIS2_PLACEMENT_3D ( 'NONE', #252, #22, #113 ) ;
#91 = CARTESIAN_POINT ( 'NONE',  ( 0.000000000000000000, 0.000000000000000000, 0.000000000000000000 ) ) ;
#92 = ADVANCED_FACE ( 'NONE', ( #126 ), #101, .T. ) ;
#93 = FILL_AREA_STYLE ('',( #69 ) ) ;
#94 =( NAMED_UNIT ( * ) PLANE_ANGLE_UNIT ( ) SI_UNIT ( $, .RADIAN. ) );
#95 = EDGE_CURVE ( 'NONE', #39, #79, #277, .T. ) ;
#96 =( LENGTH_UNIT ( ) NAMED_UNIT ( * ) SI_UNIT ( $, .METRE. ) );
#97 =( GEOMETRIC_REPRESENTATION_CONTEXT ( 3 ) GLOBAL_UNCERTAINTY_ASSIGNED_CONTEXT ( ( #275 ) ) GLOBAL_UNIT_ASSIGNED_CONTEXT ( ( #172, #270, #244 ) ) REPRESENTATION_CONTEXT ( 'NONE', 'WORKASPACE' ) );
#98 =( NAMED_UNIT ( * ) SI_UNIT ( $, .STERADIAN. ) SOLID_ANGLE_UNIT ( ) );
#99 = AXIS2_PLACEMENT_3D ( 'NONE', #291, #194, #103 ) ;
#100 = DIRECTION ( 'NONE',  ( -1.000000000000000000, 3.918869757271530214E-17, 0.000000000000000000 ) ) ;
#101 = CYLINDRICAL_SURFACE ( 'NONE', #184, 0.09374999999999997224 ) ;
#102 = ORIENTED_EDGE ( 'NONE', *, *, #55, .T. ) ;
#103 = DIRECTION ( 'NONE',  ( 0.000000000000000000, 0.000000000000000000, -1.000000000000000000 ) ) ;
#104 = SURFACE_STYLE_USAGE ( .BOTH. , #11 ) ;
#105 = DIMENSIONAL_EXPONENTS ( 1.000000000000000000, 0.000000000000000000, 0.000000000000000000, 0.000000000000000000, 0.000000000000000000, 0.000000000000000000, 0.000000000000000000 ) ;
#106 = AXIS2_PLACEMENT_3D ( 'NONE', #193, #72, #150 ) ;
#107 = MECHANICAL_DESIGN_GEOMETRIC_PRESENTATION_REPRESENTATION (  '', ( #119 ), #234 ) ;
#108 = EDGE_LOOP ( 'NONE', ( #276, #186 ) ) ;
#109 = SURFACE_STYLE_FILL_AREA ( #281 ) ;
#110 = VERTEX_POINT ( 'NONE', #207 ) ;
#111 = VERTEX_POINT ( 'NONE', #203 ) ;
#112 = AXIS2_PLACEMENT_3D ( 'NONE', #280, #206, #132 ) ;
#113 = DIRECTION ( 'NONE',  ( 0.000000000000000000, 0.000000000000000000, -1.000000000000000000 ) ) ;
#114 = LINE ( 'NONE', #89, #30 ) ;
#115 = SURFACE_STYLE_USAGE ( .BOTH. , #215 ) ;
#116 = DIRECTION ( 'NONE',  ( -1.000000000000000000, 0.000000000000000000, 0.000000000000000000 ) ) ;
#117 = MECHANICAL_DESIGN_GEOMETRIC_PRESENTATION_REPRESENTATION (  '', ( #121 ), #272 ) ;
#118 = DIRECTION ( 'NONE',  ( 3.918869757271530214E-17, 1.000000000000000000, -0.000000000000000000 ) ) ;
#119 = STYLED_ITEM ( 'NONE', ( #262 ), #223 ) ;
#120 = SURFACE_STYLE_FILL_AREA ( #146 ) ;
#121 = STYLED_ITEM ( 'NONE', ( #157 ), #6 ) ;
#122 =( NAMED_UNIT ( * ) PLANE_ANGLE_UNIT ( ) SI_UNIT ( $, .RADIAN. ) );
#123 = DIRECTION ( 'NONE',  ( 1.000000000000000000, -3.918869757271530214E-17, 0.000000000000000000 ) ) ;
#124 = STYLED_ITEM ( 'NONE', ( #282 ), #144 ) ;
#125 = AXIS2_PLACEMENT_3D ( 'NONE', #219, #200, #152 ) ;
#126 = FACE_OUTER_BOUND ( 'NONE', #247, .T. ) ;
#127 = DIRECTION ( 'NONE',  ( -3.918869757271530214E-17, -1.000000000000000000, 0.000000000000000000 ) ) ;
#128 = PRODUCT_DEFINITION_SHAPE ( 'NONE', 'NONE',  #240 ) ;
#129 = EDGE_LOOP ( 'NONE', ( #295, #285, #53, #37 ) ) ;
#130 = CARTESIAN_POINT ( 'NONE',  ( 0.000000000000000000, 0.4375000000000000000, 0.000000000000000000 ) ) ;
#131 = DIMENSIONAL_EXPONENTS ( 1.000000000000000000, 0.000000000000000000, 0.000000000000000000, 0.000000000000000000, 0.000000000000000000, 0.000000000000000000, 0.000000000000000000 ) ;
#132 = DIRECTION ( 'NONE',  ( -1.000000000000000000, 0.000000000000000000, 0.000000000000000000 ) ) ;
#133 = DIRECTION ( 'NONE',  ( -1.000000000000000000, 0.000000000000000000, 0.000000000000000000 ) ) ;
#134 =( GEOMETRIC_REPRESENTATION_CONTEXT ( 3 ) GLOBAL_UNCERTAINTY_ASSIGNED_CONTEXT ( ( #273 ) ) GLOBAL_UNIT_ASSIGNED_CONTEXT ( ( #86, #187, #27 ) ) REPRESENTATION_CONTEXT ( 'NONE', 'WORKASPACE' ) );
#135 = ORIENTED_EDGE ( 'NONE', *, *, #46, .T. ) ;
#136 = FACE_OUTER_BOUND ( 'NONE', #108, .T. ) ;
#137 = CARTESIAN_POINT ( 'NONE',  ( 6.123233995736766036E-17, 2.000000000000000000, 0.000000000000000000 ) ) ;
#138 = VERTEX_POINT ( 'NONE', #279 ) ;
#139 = PLANE ( 'NONE',  #175 ) ;
#140 =( LENGTH_UNIT ( ) NAMED_UNIT ( * ) SI_UNIT ( $, .METRE. ) );
#141 = FILL_AREA_STYLE ('',( #162 ) ) ;
#142 = PRESENTATION_LAYER_ASSIGNMENT (  '', '', ( #289 ) ) ;
#143 =( NAMED_UNIT ( * ) SI_UNIT ( $, .STERADIAN. ) SOLID_ANGLE_UNIT ( ) );
#144 = ADVANCED_FACE ( 'NONE', ( #136 ), #231, .T. ) ;
#145 = FILL_AREA_STYLE_COLOUR ( '', #147 ) ;
#146 = FILL_AREA_STYLE ('',( #145 ) ) ;
#147 = COLOUR_RGB ( '',1.000000000000000000, 0.000000000000000000, 0.000000000000000000 ) ;
#148 = EDGE_CURVE ( 'NONE', #18, #110, #308, .T. ) ;
#149 = DIRECTION ( 'NONE',  ( 3.918869757271530214E-17, 1.000000000000000000, -0.000000000000000000 ) ) ;
#150 = DIRECTION ( 'NONE',  ( -1.000000000000000000, 0.000000000000000000, 0.000000000000000000 ) ) ;
#151 = CARTESIAN_POINT ( 'NONE',  ( 0.000000000000000000, 0.000000000000000000, 0.000000000000000000 ) ) ;
#152 = DIRECTION ( 'NONE',  ( 0.000000000000000000, 0.000000000000000000, -1.000000000000000000 ) ) ;
#153 = DIRECTION ( 'NONE',  ( 3.918869757271530214E-17, 1.000000000000000000, -0.000000000000000000 ) ) ;
#154 = DIMENSIONAL_EXPONENTS ( 1.000000000000000000, 0.000000000000000000, 0.000000000000000000, 0.000000000000000000, 0.000000000000000000, 0.000000000000000000, 0.000000000000000000 ) ;
#155 = EDGE_LOOP ( 'NONE', ( #135, #158 ) ) ;
#156 = PRODUCT_DEFINITION_CONTEXT ( 'detailed design', #88, 'design' ) ;
#157 = PRESENTATION_STYLE_ASSIGNMENT (( #104 ) ) ;
#158 = ORIENTED_EDGE ( 'NONE', *, *, #66, .T. ) ;
#159 = ORIENTED_EDGE ( 'NONE', *, *, #52, .T. ) ;
#160 = ORIENTED_EDGE ( 'NONE', *, *, #17, .F. ) ;
#161 = LENGTH_MEASURE_WITH_UNIT ( LENGTH_MEASURE( 0.02539999999999999897 ), #19 );
#162 = FILL_AREA_STYLE_COLOUR ( '', #83 ) ;
#163 = VECTOR ( 'NONE', #196, 39.37007874015748143 ) ;
#164 = CIRCLE ( 'NONE', #296, 0.09374999999999994449 ) ;
#165 = CARTESIAN_POINT ( 'NONE',  ( 0.09375000000000001388, 2.000000000000000000, 1.148106374200643401E-17 ) ) ;
#166 =( CONVERSION_BASED_UNIT ( 'INCH', #24 ) LENGTH_UNIT ( ) NAMED_UNIT ( #224 ) );
#167 = EDGE_CURVE ( 'NONE', #79, #56, #180, .T. ) ;
#168 = AXIS2_PLACEMENT_3D ( 'NONE', #91, #212, #64 ) ;
#169 = CARTESIAN_POINT ( 'NONE',  ( 7.198846956776916766E-35, 0.4375000000000000000, 0.000000000000000000 ) ) ;
#170 = DIRECTION ( 'NONE',  ( -0.000000000000000000, -1.000000000000000000, -0.000000000000000000 ) ) ;
#171 = DIMENSIONAL_EXPONENTS ( 1.000000000000000000, 0.000000000000000000, 0.000000000000000000, 0.000000000000000000, 0.000000000000000000, 0.000000000000000000, 0.000000000000000000 ) ;
#172 =( CONVERSION_BASED_UNIT ( 'INCH', #242 ) LENGTH_UNIT ( ) NAMED_UNIT ( #265 ) );
#173 = LENGTH_MEASURE_WITH_UNIT ( LENGTH_MEASURE( 0.02539999999999999897 ), #140 );
#174 = PLANE ( 'NONE',  #77 ) ;
#175 = AXIS2_PLACEMENT_3D ( 'NONE', #216, #217, #287 ) ;
#176 =( CONVERSION_BASED_UNIT ( 'INCH', #173 ) LENGTH_UNIT ( ) NAMED_UNIT ( #154 ) );
#177 =( CONVERSION_BASED_UNIT ( 'INCH', #246 ) LENGTH_UNIT ( ) NAMED_UNIT ( #131 ) );
#178 = DIRECTION ( 'NONE',  ( 3.918869757271530214E-17, 1.000000000000000000, -0.000000000000000000 ) ) ;
#179 = ORIENTED_EDGE ( 'NONE', *, *, #148, .T. ) ;
#180 = LINE ( 'NONE', #40, #42 ) ;
#181 = ADVANCED_FACE ( 'NONE', ( #57 ), #139, .T. ) ;
#182 = ORIENTED_EDGE ( 'NONE', *, *, #292, .F. ) ;
#183 = DIRECTION ( 'NONE',  ( 0.000000000000000000, 0.000000000000000000, -1.000000000000000000 ) ) ;
#184 = AXIS2_PLACEMENT_3D ( 'NONE', #258, #149, #43 ) ;
#185 = AXIS2_PLACEMENT_3D ( 'NONE', #210, #38, #133 ) ;
#186 = ORIENTED_EDGE ( 'NONE', *, *, #292, .T. ) ;
#187 =( NAMED_UNIT ( * ) PLANE_ANGLE_UNIT ( ) SI_UNIT ( $, .RADIAN. ) );
#188 = SURFACE_SIDE_STYLE ('',( #286 ) ) ;
#189 = CARTESIAN_POINT ( 'NONE',  ( 0.000000000000000000, 0.000000000000000000, -0.09375000000000001388 ) ) ;
#190 = STYLED_ITEM ( 'NONE', ( #205 ), #181 ) ;
#191 = CARTESIAN_POINT ( 'NONE',  ( 6.123233995736766036E-17, 2.000000000000000000, 0.000000000000000000 ) ) ;
#192 = SURFACE_STYLE_USAGE ( .BOTH. , #309 ) ;
#193 = CARTESIAN_POINT ( 'NONE',  ( 0.000000000000000000, 0.4374999999999998890, 0.000000000000000000 ) ) ;
#194 = DIRECTION ( 'NONE',  ( -0.000000000000000000, -1.000000000000000000, -0.000000000000000000 ) ) ;
#195 = UNCERTAINTY_MEASURE_WITH_UNIT (LENGTH_MEASURE( 1.000000000000000082E-05 ), #269, 'distance_accuracy_value', 'NONE');
#196 = DIRECTION ( 'NONE',  ( 3.918869757271530214E-17, 1.000000000000000000, -0.000000000000000000 ) ) ;
#197 = PRODUCT_DEFINITION_FORMATION_WITH_SPECIFIED_SOURCE ( 'ANY', '', #211, .NOT_KNOWN. ) ;
#198 =( LENGTH_UNIT ( ) NAMED_UNIT ( * ) SI_UNIT ( $, .METRE. ) );
#199 = ORIENTED_EDGE ( 'NONE', *, *, #17, .T. ) ;
#200 = DIRECTION ( 'NONE',  ( -0.000000000000000000, -1.000000000000000000, -0.000000000000000000 ) ) ;
#201 =( NAMED_UNIT ( * ) SI_UNIT ( $, .STERADIAN. ) SOLID_ANGLE_UNIT ( ) );
#202 = PRESENTATION_LAYER_ASSIGNMENT (  '', '', ( #190 ) ) ;
#203 = CARTESIAN_POINT ( 'NONE',  ( 0.000000000000000000, 0.000000000000000000, -0.09375000000000001388 ) ) ;
#204 = AXIS2_PLACEMENT_3D ( 'NONE', #151, #290, #293 ) ;
#205 = PRESENTATION_STYLE_ASSIGNMENT (( #230 ) ) ;
#206 = DIRECTION ( 'NONE',  ( 3.918869757271530214E-17, 1.000000000000000000, -0.000000000000000000 ) ) ;
#207 = CARTESIAN_POINT ( 'NONE',  ( 0.09375000000000001388, 0.4374999999999998890, 1.148106374200643401E-17 ) ) ;
#208 = EDGE_LOOP ( 'NONE', ( #245, #274 ) ) ;
#209 =( LENGTH_UNIT ( ) NAMED_UNIT ( * ) SI_UNIT ( $, .METRE. ) );
#210 = CARTESIAN_POINT ( 'NONE',  ( 0.000000000000000000, 0.4374999999999998890, 0.000000000000000000 ) ) ;
#211 = PRODUCT ( '83432', '83432', '', ( #304 ) ) ;
#212 = DIRECTION ( 'NONE',  ( -0.000000000000000000, -1.000000000000000000, -0.000000000000000000 ) ) ;
#213 =( NAMED_UNIT ( * ) SI_UNIT ( $, .STERADIAN. ) SOLID_ANGLE_UNIT ( ) );
#214 = CARTESIAN_POINT ( 'NONE',  ( -0.09375000000000001388, 0.4374999999999998890, 0.000000000000000000 ) ) ;
#215 = SURFACE_SIDE_STYLE ('',( #68 ) ) ;
#216 = CARTESIAN_POINT ( 'NONE',  ( 0.000000000000000000, 0.4375000000000000000, 0.000000000000000000 ) ) ;
#217 = DIRECTION ( 'NONE',  ( 0.000000000000000000, 1.000000000000000000, 0.000000000000000000 ) ) ;
#218 = MECHANICAL_DESIGN_GEOMETRIC_PRESENTATION_REPRESENTATION (  '', ( #124 ), #266 ) ;
#219 = CARTESIAN_POINT ( 'NONE',  ( 0.000000000000000000, 0.000000000000000000, 0.000000000000000000 ) ) ;
#220 = AXIS2_PLACEMENT_3D ( 'NONE', #130, #170, #183 ) ;
#221 = MECHANICAL_DESIGN_GEOMETRIC_PRESENTATION_REPRESENTATION (  '', ( #50 ), #84 ) ;
#222 = DIRECTION ( 'NONE',  ( 0.000000000000000000, 0.000000000000000000, -1.000000000000000000 ) ) ;
#223 = ADVANCED_FACE ( 'NONE', ( #44 ), #3, .T. ) ;
#224 = DIMENSIONAL_EXPONENTS ( 1.000000000000000000, 0.000000000000000000, 0.000000000000000000, 0.000000000000000000, 0.000000000000000000, 0.000000000000000000, 0.000000000000000000 ) ;
#225 = CIRCLE ( 'NONE', #125, 0.09375000000000001388 ) ;
#226 = ORIENTED_EDGE ( 'NONE', *, *, #21, .T. ) ;
#227 = SHAPE_DEFINITION_REPRESENTATION ( #128, #253 ) ;
#228 = SURFACE_STYLE_USAGE ( .BOTH. , #255 ) ;
#229 = ORIENTED_EDGE ( 'NONE', *, *, #268, .T. ) ;
#230 = SURFACE_STYLE_USAGE ( .BOTH. , #61 ) ;
#231 = PLANE ( 'NONE',  #90 ) ;
#232 = DIRECTION ( 'NONE',  ( 3.918869757271530214E-17, 1.000000000000000000, -0.000000000000000000 ) ) ;
#233 =( CONVERSION_BASED_UNIT ( 'INCH', #264 ) LENGTH_UNIT ( ) NAMED_UNIT ( #294 ) );
#234 =( GEOMETRIC_REPRESENTATION_CONTEXT ( 3 ) GLOBAL_UNCERTAINTY_ASSIGNED_CONTEXT ( ( #4 ) ) GLOBAL_UNIT_ASSIGNED_CONTEXT ( ( #166, #94, #213 ) ) REPRESENTATION_CONTEXT ( 'NONE', 'WORKASPACE' ) );
#235 = PRODUCT_RELATED_PRODUCT_CATEGORY ( 'part', '', ( #211 ) ) ;
#236 = CARTESIAN_POINT ( 'NONE',  ( 1.148106374200643863E-17, 0.000000000000000000, 0.09375000000000001388 ) ) ;
#237 = CLOSED_SHELL ( 'NONE', ( #92, #267, #1, #302 ) ) ;
#238 = PRESENTATION_LAYER_ASSIGNMENT (  '', '', ( #50 ) ) ;
#239 = LENGTH_MEASURE_WITH_UNIT ( LENGTH_MEASURE( 0.02539999999999999897 ), #198 );
#240 = PRODUCT_DEFINITION ( 'UNKNOWN', '', #197, #156 ) ;
#241 = COLOUR_RGB ( '',0.7921568627450980005, 0.8196078431372548767, 0.9333333333333333481 ) ;
#242 = LENGTH_MEASURE_WITH_UNIT ( LENGTH_MEASURE( 0.02539999999999999897 ), #10 );
#243 =( NAMED_UNIT ( * ) PLANE_ANGLE_UNIT ( ) SI_UNIT ( $, .RADIAN. ) );
#244 =( NAMED_UNIT ( * ) SI_UNIT ( $, .STERADIAN. ) SOLID_ANGLE_UNIT ( ) );
#245 = ORIENTED_EDGE ( 'NONE', *, *, #148, .F. ) ;
#246 = LENGTH_MEASURE_WITH_UNIT ( LENGTH_MEASURE( 0.02539999999999999897 ), #209 );
#247 = EDGE_LOOP ( 'NONE', ( #179, #199, #251, #33 ) ) ;
#248 = DIRECTION ( 'NONE',  ( 1.000000000000000000, 0.000000000000000000, 0.000000000000000000 ) ) ;
#249 = VECTOR ( 'NONE', #283, 39.37007874015748143 ) ;
#250 = AXIS2_PLACEMENT_3D ( 'NONE', #298, #301, #248 ) ;
#251 = ORIENTED_EDGE ( 'NONE', *, *, #46, .F. ) ;
#252 = CARTESIAN_POINT ( 'NONE',  ( 0.000000000000000000, 0.000000000000000000, 0.000000000000000000 ) ) ;
#253 = ADVANCED_BREP_SHAPE_REPRESENTATION ( '83432', ( #6, #8, #250 ), #97 ) ;
#254 = FILL_AREA_STYLE ('',( #78 ) ) ;
#255 = SURFACE_SIDE_STYLE ('',( #299 ) ) ;
#256 =( NAMED_UNIT ( * ) PLANE_ANGLE_UNIT ( ) SI_UNIT ( $, .RADIAN. ) );
#257 = PRESENTATION_LAYER_ASSIGNMENT (  '', '', ( #121 ) ) ;
#258 = CARTESIAN_POINT ( 'NONE',  ( 6.123233995736766036E-17, 2.000000000000000000, 0.000000000000000000 ) ) ;
#259 = VERTEX_POINT ( 'NONE', #165 ) ;
#260 = ADVANCED_FACE ( 'NONE', ( #45 ), #26, .T. ) ;
#261 = FILL_AREA_STYLE ('',( #2 ) ) ;
#262 = PRESENTATION_STYLE_ASSIGNMENT (( #115 ) ) ;
#263 = CIRCLE ( 'NONE', #204, 0.09375000000000001388 ) ;
#264 = LENGTH_MEASURE_WITH_UNIT ( LENGTH_MEASURE( 0.02539999999999999897 ), #65 );
#265 = DIMENSIONAL_EXPONENTS ( 1.000000000000000000, 0.000000000000000000, 0.000000000000000000, 0.000000000000000000, 0.000000000000000000, 0.000000000000000000, 0.000000000000000000 ) ;
#266 =( GEOMETRIC_REPRESENTATION_CONTEXT ( 3 ) GLOBAL_UNCERTAINTY_ASSIGNED_CONTEXT ( ( #76 ) ) GLOBAL_UNIT_ASSIGNED_CONTEXT ( ( #177, #256, #82 ) ) REPRESENTATION_CONTEXT ( 'NONE', 'WORKASPACE' ) );
#267 = ADVANCED_FACE ( 'NONE', ( #28 ), #174, .F. ) ;
#268 = EDGE_CURVE ( 'NONE', #79, #39, #35, .T. ) ;
#269 =( CONVERSION_BASED_UNIT ( 'INCH', #239 ) LENGTH_UNIT ( ) NAMED_UNIT ( #105 ) );
#270 =( NAMED_UNIT ( * ) PLANE_ANGLE_UNIT ( ) SI_UNIT ( $, .RADIAN. ) );
#271 = EDGE_CURVE ( 'NONE', #111, #56, #263, .T. ) ;
#272 =( GEOMETRIC_REPRESENTATION_CONTEXT ( 3 ) GLOBAL_UNCERTAINTY_ASSIGNED_CONTEXT ( ( #20 ) ) GLOBAL_UNIT_ASSIGNED_CONTEXT ( ( #176, #243, #201 ) ) REPRESENTATION_CONTEXT ( 'NONE', 'WORKASPACE' ) );
#273 = UNCERTAINTY_MEASURE_WITH_UNIT (LENGTH_MEASURE( 1.000000000000000082E-05 ), #86, 'distance_accuracy_value', 'NONE');
#274 = ORIENTED_EDGE ( 'NONE', *, *, #55, .F. ) ;
#275 = UNCERTAINTY_MEASURE_WITH_UNIT (LENGTH_MEASURE( 1.000000000000000082E-05 ), #172, 'distance_accuracy_value', 'NONE');
#276 = ORIENTED_EDGE ( 'NONE', *, *, #271, .T. ) ;
#277 = CIRCLE ( 'NONE', #220, 0.09375000000000001388 ) ;
#278 = COLOUR_RGB ( '',1.000000000000000000, 0.000000000000000000, 0.000000000000000000 ) ;
#279 = CARTESIAN_POINT ( 'NONE',  ( -0.09374999999999987510, 2.000000000000000000, 0.000000000000000000 ) ) ;
#280 = CARTESIAN_POINT ( 'NONE',  ( 6.123233995736766036E-17, 2.000000000000000000, 0.000000000000000000 ) ) ;
#281 = FILL_AREA_STYLE ('',( #54 ) ) ;
#282 = PRESENTATION_STYLE_ASSIGNMENT (( #228 ) ) ;
#283 = DIRECTION ( 'NONE',  ( -0.000000000000000000, -1.000000000000000000, -0.000000000000000000 ) ) ;
#284 = CIRCLE ( 'NONE', #12, 0.09374999999999994449 ) ;
#285 = ORIENTED_EDGE ( 'NONE', *, *, #167, .T. ) ;
#286 = SURFACE_STYLE_FILL_AREA ( #93 ) ;
#287 = DIRECTION ( 'NONE',  ( 0.000000000000000000, -0.000000000000000000, 1.000000000000000000 ) ) ;
#288 = SURFACE_STYLE_USAGE ( .BOTH. , #188 ) ;
#289 = STYLED_ITEM ( 'NONE', ( #23 ), #8 ) ;
#290 = DIRECTION ( 'NONE',  ( -0.000000000000000000, -1.000000000000000000, -0.000000000000000000 ) ) ;
#291 = CARTESIAN_POINT ( 'NONE',  ( 0.000000000000000000, 0.000000000000000000, 0.000000000000000000 ) ) ;
#292 = EDGE_CURVE ( 'NONE', #56, #111, #225, .T. ) ;
#293 = DIRECTION ( 'NONE',  ( 0.000000000000000000, 0.000000000000000000, -1.000000000000000000 ) ) ;
#294 = DIMENSIONAL_EXPONENTS ( 1.000000000000000000, 0.000000000000000000, 0.000000000000000000, 0.000000000000000000, 0.000000000000000000, 0.000000000000000000, 0.000000000000000000 ) ;
#295 = ORIENTED_EDGE ( 'NONE', *, *, #95, .T. ) ;
#296 = AXIS2_PLACEMENT_3D ( 'NONE', #191, #232, #116 ) ;
#297 = PRESENTATION_LAYER_ASSIGNMENT (  '', '', ( #119 ) ) ;
#298 = CARTESIAN_POINT ( 'NONE',  ( 0.000000000000000000, 0.000000000000000000, 0.000000000000000000 ) ) ;
#299 = SURFACE_STYLE_FILL_AREA ( #141 ) ;
#300 = ORIENTED_EDGE ( 'NONE', *, *, #167, .F. ) ;
#301 = DIRECTION ( 'NONE',  ( 0.000000000000000000, 0.000000000000000000, 1.000000000000000000 ) ) ;
#302 = ADVANCED_FACE ( 'NONE', ( #73 ), #32, .F. ) ;
#303 = CYLINDRICAL_SURFACE ( 'NONE', #112, 0.09374999999999997224 ) ;
#304 = PRODUCT_CONTEXT ( 'NONE', #70, 'mechanical' ) ;
#305 = AXIS2_PLACEMENT_3D ( 'NONE', #7, #127, #123 ) ;
#306 = DIRECTION ( 'NONE',  ( -0.000000000000000000, -1.000000000000000000, -0.000000000000000000 ) ) ;
#307 = LINE ( 'NONE', #51, #163 ) ;
#308 = CIRCLE ( 'NONE', #185, 0.09375000000000001388 ) ;
#309 = SURFACE_SIDE_STYLE ('',( #120 ) ) ;
ENDSEC;
END-ISO-10303-21;
