ISO-10303-21;
HEADER;
FILE_DESCRIPTION (( 'STEP AP214' ),
    '1' );
FILE_NAME ('Micro_RME-027-2X.STEP',
    '2021-09-01T23:02:36',
    ( '' ),
    ( '' ),
    'SwSTEP 2.0',
    'SolidWorks 2020',
    '' );
FILE_SCHEMA (( 'AUTOMOTIVE_DESIGN' ));
ENDSEC;

DATA;
#1 = DIRECTION ( 'NONE',  ( 0.7071067811865462405, 8.659560562354916834E-17, -0.7071067811865486830 ) ) ;
#2 =( CONVERSION_BASED_UNIT ( 'INCH', #70 ) LENGTH_UNIT ( ) NAMED_UNIT ( #284 ) );
#3 = APPLICATION_CONTEXT ( 'automotive_design' ) ;
#4 = DIRECTION ( 'NONE',  ( 0.0000000000000000000, 0.0000000000000000000, 1.000000000000000000 ) ) ;
#5 =( GEOMETRIC_REPRESENTATION_CONTEXT ( 3 ) GLOBAL_UNCERTAINTY_ASSIGNED_CONTEXT ( ( #209 ) ) GLOBAL_UNIT_ASSIGNED_CONTEXT ( ( #104, #194, #242 ) ) REPRESENTATION_CONTEXT ( 'NONE', 'WORKASPACE' ) );
#6 = DIRECTION ( 'NONE',  ( -0.0000000000000000000, -0.0000000000000000000, -1.000000000000000000 ) ) ;
#7 = CARTESIAN_POINT ( 'NONE',  ( 0.06250000000000002776, 7.654042494670959086E-18, 1.500000000000000222 ) ) ;
#8 = DIRECTION ( 'NONE',  ( -1.000000000000000000, 0.0000000000000000000, 0.0000000000000000000 ) ) ;
#9 = ADVANCED_FACE ( 'NONE', ( #147 ), #133, .T. ) ;
#10 = DIRECTION ( 'NONE',  ( 0.0000000000000000000, 0.0000000000000000000, -1.000000000000000000 ) ) ;
#11 = FILL_AREA_STYLE_COLOUR ( '', #141 ) ;
#12 = CARTESIAN_POINT ( 'NONE',  ( 0.0000000000000000000, 0.0000000000000000000, 0.0000000000000000000 ) ) ;
#13 = AXIS2_PLACEMENT_3D ( 'NONE', #215, #187, #8 ) ;
#14 = DIRECTION ( 'NONE',  ( -1.000000000000000000, 0.0000000000000000000, 0.0000000000000000000 ) ) ;
#15 = DIRECTION ( 'NONE',  ( -1.224646799147353454E-16, -0.0000000000000000000, -1.000000000000000000 ) ) ;
#16 = EDGE_LOOP ( 'NONE', ( #20, #95, #290, #131 ) ) ;
#17 = SURFACE_STYLE_FILL_AREA ( #98 ) ;
#18 = CIRCLE ( 'NONE', #210, 0.06250000000000002776 ) ;
#19 = CLOSED_SHELL ( 'NONE', ( #267, #238, #222, #39, #292, #34, #9, #288, #229, #166 ) ) ;
#20 = ORIENTED_EDGE ( 'NONE', *, *, #161, .F. ) ;
#21 = AXIS2_PLACEMENT_3D ( 'NONE', #208, #94, #48 ) ;
#22 = VERTEX_POINT ( 'NONE', #184 ) ;
#23 = DIRECTION ( 'NONE',  ( 1.000000000000000000, 0.0000000000000000000, 0.0000000000000000000 ) ) ;
#24 = FILL_AREA_STYLE_COLOUR ( '', #73 ) ;
#25 = ORIENTED_EDGE ( 'NONE', *, *, #175, .T. ) ;
#26 = DIRECTION ( 'NONE',  ( -1.000000000000000000, 0.0000000000000000000, 0.0000000000000000000 ) ) ;
#27 = CARTESIAN_POINT ( 'NONE',  ( 0.0000000000000000000, 0.0000000000000000000, 0.0000000000000000000 ) ) ;
#28 = DIRECTION ( 'NONE',  ( -1.224646799147353454E-16, -0.0000000000000000000, -1.000000000000000000 ) ) ;
#29 = CARTESIAN_POINT ( 'NONE',  ( 0.01348650000000000369, 1.651619905670078319E-18, 0.0000000000000000000 ) ) ;
#30 = ORIENTED_EDGE ( 'NONE', *, *, #65, .T. ) ;
#31 = CARTESIAN_POINT ( 'NONE',  ( 0.04750000000000064587, 5.817072295950006528E-18, 1.500000000000000222 ) ) ;
#32 = ORIENTED_EDGE ( 'NONE', *, *, #149, .T. ) ;
#33 = DIRECTION ( 'NONE',  ( 1.224646799147353454E-16, 0.0000000000000000000, 1.000000000000000000 ) ) ;
#34 = ADVANCED_FACE ( 'NONE', ( #218 ), #163, .T. ) ;
#35 = FACE_OUTER_BOUND ( 'NONE', #55, .T. ) ;
#36 = DIRECTION ( 'NONE',  ( -1.000000000000000000, 0.0000000000000000000, 1.224646799147353454E-16 ) ) ;
#37 = AXIS2_PLACEMENT_3D ( 'NONE', #205, #235, #257 ) ;
#38 = CARTESIAN_POINT ( 'NONE',  ( 0.0000000000000000000, 0.0000000000000000000, 1.500000000000000222 ) ) ;
#39 = ADVANCED_FACE ( 'NONE', ( #283 ), #190, .T. ) ;
#40 = APPLICATION_PROTOCOL_DEFINITION ( 'draft international standard', 'automotive_design', 1998, #202 ) ;
#41 = CONICAL_SURFACE ( 'NONE', #297, 0.01348650000000000196, 0.1745329251994339192 ) ;
#42 = EDGE_CURVE ( 'NONE', #181, #90, #277, .T. ) ;
#43 =( CONVERSION_BASED_UNIT ( 'INCH', #93 ) LENGTH_UNIT ( ) NAMED_UNIT ( #171 ) );
#44 = EDGE_CURVE ( 'NONE', #156, #224, #191, .T. ) ;
#45 = AXIS2_PLACEMENT_3D ( 'NONE', #266, #220, #245 ) ;
#46 = ORIENTED_EDGE ( 'NONE', *, *, #114, .T. ) ;
#47 = CARTESIAN_POINT ( 'NONE',  ( 4.396106917575674361E-17, 0.0000000000000000000, 0.3589693714658311330 ) ) ;
#48 = DIRECTION ( 'NONE',  ( 1.000000000000000000, 0.0000000000000000000, -0.0000000000000000000 ) ) ;
#49 = CARTESIAN_POINT ( 'NONE',  ( -0.01348649999999999155, 1.651619905670078127E-18, 0.08100000000000000255 ) ) ;
#50 = AXIS2_PLACEMENT_3D ( 'NONE', #74, #214, #26 ) ;
#51 = EDGE_CURVE ( 'NONE', #216, #132, #286, .T. ) ;
#52 = DIRECTION ( 'NONE',  ( -0.0000000000000000000, -0.0000000000000000000, -1.000000000000000000 ) ) ;
#53 = ORIENTED_EDGE ( 'NONE', *, *, #51, .F. ) ;
#54 = CARTESIAN_POINT ( 'NONE',  ( 0.04750000000000064587, 6.735557395310483192E-18, 1.500000000000000222 ) ) ;
#55 = EDGE_LOOP ( 'NONE', ( #180, #25, #278, #298 ) ) ;
#56 = CARTESIAN_POINT ( 'NONE',  ( 0.0000000000000000000, 0.0000000000000000000, 1.500000000000000222 ) ) ;
#57 = EDGE_CURVE ( 'NONE', #259, #156, #228, .T. ) ;
#58 = FILL_AREA_STYLE ('',( #11 ) ) ;
#59 = ORIENTED_EDGE ( 'NONE', *, *, #44, .T. ) ;
#60 = FACE_OUTER_BOUND ( 'NONE', #253, .T. ) ;
#61 = EDGE_LOOP ( 'NONE', ( #227, #59, #212, #230 ) ) ;
#62 = ADVANCED_BREP_SHAPE_REPRESENTATION ( 'Micro_RME-027-2X', ( #239, #139 ), #225 ) ;
#63 = DIRECTION ( 'NONE',  ( -0.0000000000000000000, -0.0000000000000000000, -1.000000000000000000 ) ) ;
#64 = ORIENTED_EDGE ( 'NONE', *, *, #213, .T. ) ;
#65 = EDGE_CURVE ( 'NONE', #108, #188, #127, .T. ) ;
#66 = STYLED_ITEM ( 'NONE', ( #117 ), #62 ) ;
#67 = LENGTH_MEASURE_WITH_UNIT ( LENGTH_MEASURE( 0.02539999999999999897 ), #83 );
#68 = ORIENTED_EDGE ( 'NONE', *, *, #296, .F. ) ;
#69 = ORIENTED_EDGE ( 'NONE', *, *, #81, .T. ) ;
#70 = LENGTH_MEASURE_WITH_UNIT ( LENGTH_MEASURE( 0.02539999999999999897 ), #206 );
#71 = VECTOR ( 'NONE', #142, 39.37007874015748143 ) ;
#72 = CARTESIAN_POINT ( 'NONE',  ( -0.04750000000000064587, 0.0000000000000000000, 1.500000000000000222 ) ) ;
#73 = COLOUR_RGB ( '',0.7921568627450980005, 0.8196078431372548767, 0.9333333333333333481 ) ;
#74 = CARTESIAN_POINT ( 'NONE',  ( 9.919639073093563665E-18, 0.0000000000000000000, 0.08100000000000000255 ) ) ;
#75 = DIRECTION ( 'NONE',  ( 1.000000000000000000, 0.0000000000000000000, -0.0000000000000000000 ) ) ;
#76 = PRODUCT_DEFINITION ( 'UNKNOWN', '', #251, #281 ) ;
#77 = CARTESIAN_POINT ( 'NONE',  ( 0.06250000000000002776, 7.654042494670959086E-18, 1.485000000000000764 ) ) ;
#78 = VECTOR ( 'NONE', #6, 39.37007874015748143 ) ;
#79 = DIRECTION ( 'NONE',  ( 0.0000000000000000000, 0.0000000000000000000, -1.000000000000000000 ) ) ;
#80 = ORIENTED_EDGE ( 'NONE', *, *, #57, .F. ) ;
#81 = EDGE_CURVE ( 'NONE', #224, #132, #18, .T. ) ;
#82 = CARTESIAN_POINT ( 'NONE',  ( -0.06250000000000002776, 0.0000000000000000000, 1.485000000000000764 ) ) ;
#83 =( LENGTH_UNIT ( ) NAMED_UNIT ( * ) SI_UNIT ( $, .METRE. ) );
#84 = VECTOR ( 'NONE', #118, 39.37007874015748143 ) ;
#85 = DIRECTION ( 'NONE',  ( 1.000000000000000000, 0.0000000000000000000, 0.0000000000000000000 ) ) ;
#86 = ORIENTED_EDGE ( 'NONE', *, *, #248, .T. ) ;
#87 = ORIENTED_EDGE ( 'NONE', *, *, #42, .T. ) ;
#88 = CARTESIAN_POINT ( 'NONE',  ( 9.919639073093563665E-18, 0.0000000000000000000, 0.08100000000000000255 ) ) ;
#89 = EDGE_LOOP ( 'NONE', ( #159, #150, #80, #68 ) ) ;
#90 = VERTEX_POINT ( 'NONE', #29 ) ;
#91 = EDGE_CURVE ( 'NONE', #216, #181, #144, .T. ) ;
#92 = AXIS2_PLACEMENT_3D ( 'NONE', #129, #291, #178 ) ;
#93 = LENGTH_MEASURE_WITH_UNIT ( LENGTH_MEASURE( 0.02539999999999999897 ), #109 );
#94 = DIRECTION ( 'NONE',  ( 0.0000000000000000000, 0.0000000000000000000, 1.000000000000000000 ) ) ;
#95 = ORIENTED_EDGE ( 'NONE', *, *, #149, .F. ) ;
#96 = CARTESIAN_POINT ( 'NONE',  ( 0.0000000000000000000, 0.0000000000000000000, 1.500000000000000222 ) ) ;
#97 = MECHANICAL_DESIGN_GEOMETRIC_PRESENTATION_REPRESENTATION (  '', ( #66 ), #200 ) ;
#98 = FILL_AREA_STYLE ('',( #24 ) ) ;
#99 = UNCERTAINTY_MEASURE_WITH_UNIT (LENGTH_MEASURE( 1.000000000000000082E-05 ), #43, 'distance_accuracy_value', 'NONE');
#100 = CARTESIAN_POINT ( 'NONE',  ( 2.022651030886915881E-34, 0.0000000000000000000, 1.651619905670078705E-18 ) ) ;
#101 = DIRECTION ( 'NONE',  ( -1.224646799147353454E-16, -0.0000000000000000000, -1.000000000000000000 ) ) ;
#102 = DIRECTION ( 'NONE',  ( -1.224646799147353454E-16, -0.0000000000000000000, -1.000000000000000000 ) ) ;
#103 = STYLED_ITEM ( 'NONE', ( #105 ), #239 ) ;
#104 =( CONVERSION_BASED_UNIT ( 'INCH', #67 ) LENGTH_UNIT ( ) NAMED_UNIT ( #195 ) );
#105 = PRESENTATION_STYLE_ASSIGNMENT (( #182 ) ) ;
#106 = EDGE_CURVE ( 'NONE', #216, #22, #240, .T. ) ;
#107 = DIRECTION ( 'NONE',  ( 1.224646799147353454E-16, 0.0000000000000000000, 1.000000000000000000 ) ) ;
#108 = VERTEX_POINT ( 'NONE', #54 ) ;
#109 =( LENGTH_UNIT ( ) NAMED_UNIT ( * ) SI_UNIT ( $, .METRE. ) );
#110 = VECTOR ( 'NONE', #102, 39.37007874015748143 ) ;
#111 = CONICAL_SURFACE ( 'NONE', #167, 0.01348650000000000196, 0.1745329251994339192 ) ;
#112 = DIRECTION ( 'NONE',  ( 1.000000000000000000, 0.0000000000000000000, 0.0000000000000000000 ) ) ;
#113 = AXIS2_PLACEMENT_3D ( 'NONE', #12, #130, #36 ) ;
#114 = EDGE_CURVE ( 'NONE', #132, #224, #221, .T. ) ;
#115 =( NAMED_UNIT ( * ) PLANE_ANGLE_UNIT ( ) SI_UNIT ( $, .RADIAN. ) );
#116 = CARTESIAN_POINT ( 'NONE',  ( -0.06249999999999997918, 0.0000000000000000000, 0.3589693714658311330 ) ) ;
#117 = PRESENTATION_STYLE_ASSIGNMENT (( #226 ) ) ;
#118 = DIRECTION ( 'NONE',  ( -0.0000000000000000000, -0.0000000000000000000, -1.000000000000000000 ) ) ;
#119 = DIRECTION ( 'NONE',  ( 0.0000000000000000000, 0.0000000000000000000, 1.000000000000000000 ) ) ;
#120 = FACE_OUTER_BOUND ( 'NONE', #89, .T. ) ;
#121 = CARTESIAN_POINT ( 'NONE',  ( -0.01348650000000000369, 0.0000000000000000000, 1.651619905670078705E-18 ) ) ;
#122 = PLANE ( 'NONE',  #21 ) ;
#123 = EDGE_LOOP ( 'NONE', ( #32, #30 ) ) ;
#124 = CARTESIAN_POINT ( 'NONE',  ( 0.06250000000000006939, 7.654042494670963708E-18, 0.3589693714658311330 ) ) ;
#125 = EDGE_CURVE ( 'NONE', #259, #132, #170, .T. ) ;
#126 = AXIS2_PLACEMENT_3D ( 'NONE', #56, #10, #237 ) ;
#127 = CIRCLE ( 'NONE', #37, 0.04750000000000064587 ) ;
#128 = FACE_OUTER_BOUND ( 'NONE', #152, .T. ) ;
#129 = CARTESIAN_POINT ( 'NONE',  ( 0.0000000000000000000, 0.0000000000000000000, 0.0000000000000000000 ) ) ;
#130 = DIRECTION ( 'NONE',  ( -1.224646799147353454E-16, -0.0000000000000000000, -1.000000000000000000 ) ) ;
#131 = ORIENTED_EDGE ( 'NONE', *, *, #248, .F. ) ;
#132 = VERTEX_POINT ( 'NONE', #116 ) ;
#133 = CONICAL_SURFACE ( 'NONE', #126, 0.04750000000000064587, 0.7853981633974466137 ) ;
#134 = PRESENTATION_LAYER_ASSIGNMENT (  '', '', ( #103 ) ) ;
#135 = CARTESIAN_POINT ( 'NONE',  ( -0.04750000000000064587, 0.0000000000000000000, 1.500000000000000222 ) ) ;
#136 = SHAPE_DEFINITION_REPRESENTATION ( #299, #62 ) ;
#137 = ORIENTED_EDGE ( 'NONE', *, *, #125, .T. ) ;
#138 = EDGE_LOOP ( 'NONE', ( #140, #198, #46, #250 ) ) ;
#139 = AXIS2_PLACEMENT_3D ( 'NONE', #27, #119, #112 ) ;
#140 = ORIENTED_EDGE ( 'NONE', *, *, #106, .F. ) ;
#141 = COLOUR_RGB ( '',0.7921568627450980005, 0.8196078431372548767, 0.9333333333333333481 ) ;
#142 = DIRECTION ( 'NONE',  ( 0.1736481776669314137, 0.0000000000000000000, 0.9848077530122077983 ) ) ;
#143 = PRODUCT_RELATED_PRODUCT_CATEGORY ( 'part', '', ( #204 ) ) ;
#144 = LINE ( 'NONE', #121, #110 ) ;
#145 = AXIS2_PLACEMENT_3D ( 'NONE', #263, #15, #265 ) ;
#146 = CARTESIAN_POINT ( 'NONE',  ( 0.0000000000000000000, 0.0000000000000000000, 1.485000000000000764 ) ) ;
#147 = FACE_OUTER_BOUND ( 'NONE', #16, .T. ) ;
#148 = DIRECTION ( 'NONE',  ( -0.1736481776669312194, 2.126576849575783625E-17, 0.9848077530122080203 ) ) ;
#149 = EDGE_CURVE ( 'NONE', #188, #108, #179, .T. ) ;
#150 = ORIENTED_EDGE ( 'NONE', *, *, #161, .T. ) ;
#151 = DIRECTION ( 'NONE',  ( 1.000000000000000000, 0.0000000000000000000, 0.0000000000000000000 ) ) ;
#152 = EDGE_LOOP ( 'NONE', ( #275, #64, #162, #207 ) ) ;
#153 = AXIS2_PLACEMENT_3D ( 'NONE', #146, #79, #193 ) ;
#154 = DIRECTION ( 'NONE',  ( 0.0000000000000000000, 0.0000000000000000000, -1.000000000000000000 ) ) ;
#155 = AXIS2_PLACEMENT_3D ( 'NONE', #96, #52, #174 ) ;
#156 = VERTEX_POINT ( 'NONE', #77 ) ;
#157 = CIRCLE ( 'NONE', #145, 0.01348650000000000369 ) ;
#158 = DIRECTION ( 'NONE',  ( -1.000000000000000000, 0.0000000000000000000, 0.0000000000000000000 ) ) ;
#159 = ORIENTED_EDGE ( 'NONE', *, *, #65, .F. ) ;
#160 = MECHANICAL_DESIGN_GEOMETRIC_PRESENTATION_REPRESENTATION (  '', ( #103 ), #5 ) ;
#161 = EDGE_CURVE ( 'NONE', #108, #156, #236, .T. ) ;
#162 = ORIENTED_EDGE ( 'NONE', *, *, #42, .F. ) ;
#163 = PLANE ( 'NONE',  #295 ) ;
#164 = CIRCLE ( 'NONE', #45, 0.06250000000000002776 ) ;
#165 = SURFACE_SIDE_STYLE ('',( #17 ) ) ;
#166 = ADVANCED_FACE ( 'NONE', ( #177 ), #122, .F. ) ;
#167 = AXIS2_PLACEMENT_3D ( 'NONE', #217, #33, #197 ) ;
#168 = LINE ( 'NONE', #254, #71 ) ;
#169 =( NAMED_UNIT ( * ) SI_UNIT ( $, .STERADIAN. ) SOLID_ANGLE_UNIT ( ) );
#170 = LINE ( 'NONE', #256, #84 ) ;
#171 = DIMENSIONAL_EXPONENTS ( 1.000000000000000000, 0.0000000000000000000, 0.0000000000000000000, 0.0000000000000000000, 0.0000000000000000000, 0.0000000000000000000, 0.0000000000000000000 ) ;
#172 = DIRECTION ( 'NONE',  ( -1.224646799147353454E-16, -0.0000000000000000000, -1.000000000000000000 ) ) ;
#173 = VECTOR ( 'NONE', #244, 39.37007874015748854 ) ;
#174 = DIRECTION ( 'NONE',  ( -1.000000000000000000, 0.0000000000000000000, 0.0000000000000000000 ) ) ;
#175 = EDGE_CURVE ( 'NONE', #22, #216, #249, .T. ) ;
#176 = UNCERTAINTY_MEASURE_WITH_UNIT (LENGTH_MEASURE( 1.000000000000000082E-05 ), #2, 'distance_accuracy_value', 'NONE');
#177 = FACE_OUTER_BOUND ( 'NONE', #287, .T. ) ;
#178 = DIRECTION ( 'NONE',  ( -1.000000000000000000, 0.0000000000000000000, 1.224646799147353454E-16 ) ) ;
#179 = CIRCLE ( 'NONE', #270, 0.04750000000000064587 ) ;
#180 = ORIENTED_EDGE ( 'NONE', *, *, #213, .F. ) ;
#181 = VERTEX_POINT ( 'NONE', #276 ) ;
#182 = SURFACE_STYLE_USAGE ( .BOTH. , #269 ) ;
#183 = SURFACE_STYLE_FILL_AREA ( #58 ) ;
#184 = CARTESIAN_POINT ( 'NONE',  ( 0.01348650000000001237, 0.0000000000000000000, 0.08100000000000000255 ) ) ;
#185 = PRODUCT_CONTEXT ( 'NONE', #3, 'mechanical' ) ;
#186 = ORIENTED_EDGE ( 'NONE', *, *, #273, .T. ) ;
#187 = DIRECTION ( 'NONE',  ( -1.224646799147353454E-16, -0.0000000000000000000, -1.000000000000000000 ) ) ;
#188 = VERTEX_POINT ( 'NONE', #72 ) ;
#189 = CONICAL_SURFACE ( 'NONE', #246, 0.04750000000000064587, 0.7853981633974466137 ) ;
#190 = CYLINDRICAL_SURFACE ( 'NONE', #155, 0.06250000000000002776 ) ;
#191 = LINE ( 'NONE', #7, #78 ) ;
#192 = DIRECTION ( 'NONE',  ( -1.224646799147353454E-16, -0.0000000000000000000, -1.000000000000000000 ) ) ;
#193 = DIRECTION ( 'NONE',  ( 1.000000000000000000, 0.0000000000000000000, 0.0000000000000000000 ) ) ;
#194 =( NAMED_UNIT ( * ) PLANE_ANGLE_UNIT ( ) SI_UNIT ( $, .RADIAN. ) );
#195 = DIMENSIONAL_EXPONENTS ( 1.000000000000000000, 0.0000000000000000000, 0.0000000000000000000, 0.0000000000000000000, 0.0000000000000000000, 0.0000000000000000000, 0.0000000000000000000 ) ;
#196 = CYLINDRICAL_SURFACE ( 'NONE', #92, 0.01348650000000000369 ) ;
#197 = DIRECTION ( 'NONE',  ( 1.000000000000000000, 0.0000000000000000000, 0.0000000000000000000 ) ) ;
#198 = ORIENTED_EDGE ( 'NONE', *, *, #51, .T. ) ;
#199 = EDGE_CURVE ( 'NONE', #22, #224, #168, .T. ) ;
#200 =( GEOMETRIC_REPRESENTATION_CONTEXT ( 3 ) GLOBAL_UNCERTAINTY_ASSIGNED_CONTEXT ( ( #176 ) ) GLOBAL_UNIT_ASSIGNED_CONTEXT ( ( #2, #115, #169 ) ) REPRESENTATION_CONTEXT ( 'NONE', 'WORKASPACE' ) );
#201 = AXIS2_PLACEMENT_3D ( 'NONE', #38, #63, #158 ) ;
#202 = APPLICATION_CONTEXT ( 'automotive_design' ) ;
#203 = VECTOR ( 'NONE', #1, 39.37007874015748854 ) ;
#204 = PRODUCT ( 'Micro_RME-027-2X', 'Micro_RME-027-2X', '', ( #185 ) ) ;
#205 = CARTESIAN_POINT ( 'NONE',  ( 0.0000000000000000000, 0.0000000000000000000, 1.500000000000000222 ) ) ;
#206 =( LENGTH_UNIT ( ) NAMED_UNIT ( * ) SI_UNIT ( $, .METRE. ) );
#207 = ORIENTED_EDGE ( 'NONE', *, *, #91, .F. ) ;
#208 = CARTESIAN_POINT ( 'NONE',  ( 0.0000000000000000000, 0.0000000000000000000, 0.0000000000000000000 ) ) ;
#209 = UNCERTAINTY_MEASURE_WITH_UNIT (LENGTH_MEASURE( 1.000000000000000082E-05 ), #104, 'distance_accuracy_value', 'NONE');
#210 = AXIS2_PLACEMENT_3D ( 'NONE', #282, #101, #279 ) ;
#211 = CARTESIAN_POINT ( 'NONE',  ( -0.01348649999999999155, 4.652831200170518703E-18, 0.08100000000000000255 ) ) ;
#212 = ORIENTED_EDGE ( 'NONE', *, *, #114, .F. ) ;
#213 = EDGE_CURVE ( 'NONE', #22, #90, #231, .T. ) ;
#214 = DIRECTION ( 'NONE',  ( -1.224646799147353454E-16, -0.0000000000000000000, -1.000000000000000000 ) ) ;
#215 = CARTESIAN_POINT ( 'NONE',  ( 9.919639073093563665E-18, 0.0000000000000000000, 0.08100000000000000255 ) ) ;
#216 = VERTEX_POINT ( 'NONE', #211 ) ;
#217 = CARTESIAN_POINT ( 'NONE',  ( 9.919639073093563665E-18, 0.0000000000000000000, 0.08100000000000000255 ) ) ;
#218 = FACE_OUTER_BOUND ( 'NONE', #123, .T. ) ;
#219 = CYLINDRICAL_SURFACE ( 'NONE', #113, 0.01348650000000000369 ) ;
#220 = DIRECTION ( 'NONE',  ( 0.0000000000000000000, 0.0000000000000000000, -1.000000000000000000 ) ) ;
#221 = CIRCLE ( 'NONE', #285, 0.06250000000000002776 ) ;
#222 = ADVANCED_FACE ( 'NONE', ( #120 ), #189, .T. ) ;
#223 = FACE_OUTER_BOUND ( 'NONE', #272, .T. ) ;
#224 = VERTEX_POINT ( 'NONE', #124 ) ;
#225 =( GEOMETRIC_REPRESENTATION_CONTEXT ( 3 ) GLOBAL_UNCERTAINTY_ASSIGNED_CONTEXT ( ( #99 ) ) GLOBAL_UNIT_ASSIGNED_CONTEXT ( ( #43, #255, #232 ) ) REPRESENTATION_CONTEXT ( 'NONE', 'WORKASPACE' ) );
#226 = SURFACE_STYLE_USAGE ( .BOTH. , #165 ) ;
#227 = ORIENTED_EDGE ( 'NONE', *, *, #57, .T. ) ;
#228 = CIRCLE ( 'NONE', #153, 0.06250000000000002776 ) ;
#229 = ADVANCED_FACE ( 'NONE', ( #35 ), #219, .T. ) ;
#230 = ORIENTED_EDGE ( 'NONE', *, *, #125, .F. ) ;
#231 = LINE ( 'NONE', #234, #271 ) ;
#232 =( NAMED_UNIT ( * ) SI_UNIT ( $, .STERADIAN. ) SOLID_ANGLE_UNIT ( ) );
#233 = ORIENTED_EDGE ( 'NONE', *, *, #199, .T. ) ;
#234 = CARTESIAN_POINT ( 'NONE',  ( 0.01348650000000000369, 1.651619905670078319E-18, -1.651619905670078705E-18 ) ) ;
#235 = DIRECTION ( 'NONE',  ( 0.0000000000000000000, 0.0000000000000000000, 1.000000000000000000 ) ) ;
#236 = LINE ( 'NONE', #31, #203 ) ;
#237 = DIRECTION ( 'NONE',  ( -1.000000000000000000, 0.0000000000000000000, 0.0000000000000000000 ) ) ;
#238 = ADVANCED_FACE ( 'NONE', ( #289 ), #111, .T. ) ;
#239 = MANIFOLD_SOLID_BREP ( 'Cut-Revolve1', #19 ) ;
#240 = CIRCLE ( 'NONE', #50, 0.01348650000000000196 ) ;
#241 = PRESENTATION_LAYER_ASSIGNMENT (  '', '', ( #66 ) ) ;
#242 =( NAMED_UNIT ( * ) SI_UNIT ( $, .STERADIAN. ) SOLID_ANGLE_UNIT ( ) );
#243 = LINE ( 'NONE', #135, #173 ) ;
#244 = DIRECTION ( 'NONE',  ( -0.7071067811865462405, 0.0000000000000000000, -0.7071067811865486830 ) ) ;
#245 = DIRECTION ( 'NONE',  ( 1.000000000000000000, 0.0000000000000000000, 0.0000000000000000000 ) ) ;
#246 = AXIS2_PLACEMENT_3D ( 'NONE', #293, #154, #14 ) ;
#247 = ORIENTED_EDGE ( 'NONE', *, *, #175, .F. ) ;
#248 = EDGE_CURVE ( 'NONE', #156, #259, #164, .T. ) ;
#249 = CIRCLE ( 'NONE', #13, 0.01348650000000000196 ) ;
#250 = ORIENTED_EDGE ( 'NONE', *, *, #199, .F. ) ;
#251 = PRODUCT_DEFINITION_FORMATION_WITH_SPECIFIED_SOURCE ( 'ANY', '', #204, .NOT_KNOWN. ) ;
#252 = VECTOR ( 'NONE', #148, 39.37007874015747433 ) ;
#253 = EDGE_LOOP ( 'NONE', ( #53, #247, #233, #69 ) ) ;
#254 = CARTESIAN_POINT ( 'NONE',  ( 0.01348650000000001237, 0.0000000000000000000, 0.08100000000000000255 ) ) ;
#255 =( NAMED_UNIT ( * ) PLANE_ANGLE_UNIT ( ) SI_UNIT ( $, .RADIAN. ) );
#256 = CARTESIAN_POINT ( 'NONE',  ( -0.06250000000000002776, 0.0000000000000000000, 1.500000000000000222 ) ) ;
#257 = DIRECTION ( 'NONE',  ( 1.000000000000000000, 0.0000000000000000000, 0.0000000000000000000 ) ) ;
#258 = CARTESIAN_POINT ( 'NONE',  ( 0.0000000000000000000, 0.0000000000000000000, 1.500000000000000222 ) ) ;
#259 = VERTEX_POINT ( 'NONE', #82 ) ;
#260 = DIRECTION ( 'NONE',  ( -1.000000000000000000, 0.0000000000000000000, 1.224646799147353454E-16 ) ) ;
#261 = ORIENTED_EDGE ( 'NONE', *, *, #81, .F. ) ;
#262 = CARTESIAN_POINT ( 'NONE',  ( 0.0000000000000000000, 0.0000000000000000000, 1.500000000000000222 ) ) ;
#263 = CARTESIAN_POINT ( 'NONE',  ( 2.022651030886915881E-34, 0.0000000000000000000, 1.651619905670078705E-18 ) ) ;
#264 = AXIS2_PLACEMENT_3D ( 'NONE', #100, #172, #260 ) ;
#265 = DIRECTION ( 'NONE',  ( -1.000000000000000000, 0.0000000000000000000, 1.224646799147353454E-16 ) ) ;
#266 = CARTESIAN_POINT ( 'NONE',  ( 0.0000000000000000000, 0.0000000000000000000, 1.485000000000000764 ) ) ;
#267 = ADVANCED_FACE ( 'NONE', ( #128 ), #196, .T. ) ;
#268 = CYLINDRICAL_SURFACE ( 'NONE', #201, 0.06250000000000002776 ) ;
#269 = SURFACE_SIDE_STYLE ('',( #183 ) ) ;
#270 = AXIS2_PLACEMENT_3D ( 'NONE', #258, #4, #151 ) ;
#271 = VECTOR ( 'NONE', #28, 39.37007874015748143 ) ;
#272 = EDGE_LOOP ( 'NONE', ( #294, #86, #137, #261 ) ) ;
#273 = EDGE_CURVE ( 'NONE', #90, #181, #157, .T. ) ;
#274 = DIRECTION ( 'NONE',  ( 0.0000000000000000000, 0.0000000000000000000, 1.000000000000000000 ) ) ;
#275 = ORIENTED_EDGE ( 'NONE', *, *, #106, .T. ) ;
#276 = CARTESIAN_POINT ( 'NONE',  ( -0.01348650000000000369, 0.0000000000000000000, 3.303239811340157409E-18 ) ) ;
#277 = CIRCLE ( 'NONE', #264, 0.01348650000000000369 ) ;
#278 = ORIENTED_EDGE ( 'NONE', *, *, #91, .T. ) ;
#279 = DIRECTION ( 'NONE',  ( 1.000000000000000000, 0.0000000000000000000, 0.0000000000000000000 ) ) ;
#280 = APPLICATION_PROTOCOL_DEFINITION ( 'draft international standard', 'automotive_design', 1998, #3 ) ;
#281 = PRODUCT_DEFINITION_CONTEXT ( 'detailed design', #202, 'design' ) ;
#282 = CARTESIAN_POINT ( 'NONE',  ( 4.396106917575674361E-17, 0.0000000000000000000, 0.3589693714658311330 ) ) ;
#283 = FACE_OUTER_BOUND ( 'NONE', #61, .T. ) ;
#284 = DIMENSIONAL_EXPONENTS ( 1.000000000000000000, 0.0000000000000000000, 0.0000000000000000000, 0.0000000000000000000, 0.0000000000000000000, 0.0000000000000000000, 0.0000000000000000000 ) ;
#285 = AXIS2_PLACEMENT_3D ( 'NONE', #47, #192, #23 ) ;
#286 = LINE ( 'NONE', #49, #252 ) ;
#287 = EDGE_LOOP ( 'NONE', ( #87, #186 ) ) ;
#288 = ADVANCED_FACE ( 'NONE', ( #60 ), #41, .T. ) ;
#289 = FACE_OUTER_BOUND ( 'NONE', #138, .T. ) ;
#290 = ORIENTED_EDGE ( 'NONE', *, *, #296, .T. ) ;
#291 = DIRECTION ( 'NONE',  ( -1.224646799147353454E-16, -0.0000000000000000000, -1.000000000000000000 ) ) ;
#292 = ADVANCED_FACE ( 'NONE', ( #223 ), #268, .T. ) ;
#293 = CARTESIAN_POINT ( 'NONE',  ( 0.0000000000000000000, 0.0000000000000000000, 1.500000000000000222 ) ) ;
#294 = ORIENTED_EDGE ( 'NONE', *, *, #44, .F. ) ;
#295 = AXIS2_PLACEMENT_3D ( 'NONE', #262, #274, #75 ) ;
#296 = EDGE_CURVE ( 'NONE', #188, #259, #243, .T. ) ;
#297 = AXIS2_PLACEMENT_3D ( 'NONE', #88, #107, #85 ) ;
#298 = ORIENTED_EDGE ( 'NONE', *, *, #273, .F. ) ;
#299 = PRODUCT_DEFINITION_SHAPE ( 'NONE', 'NONE',  #76 ) ;
ENDSEC;
END-ISO-10303-21;
