ISO-10303-21;
HEADER;
FILE_DESCRIPTION (( 'STEP AP214' ),
    '1' );
FILE_NAME ('84589.STEP',
    '2023-07-12T13:09:01',
    ( '' ),
    ( '' ),
    'SwSTEP 2.0',
    'SolidWorks 2023',
    '' );
FILE_SCHEMA (( 'AUTOMOTIVE_DESIGN' ));
ENDSEC;

DATA;
#1 =( CONVERSION_BASED_UNIT ( 'INCH', #238 ) LENGTH_UNIT ( ) NAMED_UNIT ( #241 ) );
#2 = DIRECTION ( 'NONE',  ( -1.208217220923066454E-16, 1.000000000000000000, -0.000000000000000000 ) ) ;
#3 = AXIS2_PLACEMENT_3D ( 'NONE', #282, #51, #302 ) ;
#4 = FILL_AREA_STYLE ('',( #218 ) ) ;
#5 = ADVANCED_FACE ( 'NONE', ( #233 ), #235, .T. ) ;
#6 = CIRCLE ( 'NONE', #270, 0.09374999999999998612 ) ;
#7 =( CONVERSION_BASED_UNIT ( 'INCH', #220 ) LENGTH_UNIT ( ) NAMED_UNIT ( #102 ) );
#8 = DIRECTION ( 'NONE',  ( -1.000000000000000000, -4.107433661968977470E-33, 0.000000000000000000 ) ) ;
#9 = FILL_AREA_STYLE_COLOUR ( '', #249 ) ;
#10 = SURFACE_SIDE_STYLE ('',( #127 ) ) ;
#11 = UNCERTAINTY_MEASURE_WITH_UNIT (LENGTH_MEASURE( 1.000000000000000082E-05 ), #63, 'distance_accuracy_value', 'NONE');
#12 = VERTEX_POINT ( 'NONE', #90 ) ;
#13 = CARTESIAN_POINT ( 'NONE',  ( -0.02500000000000000139, -2.053716830984488906E-34, 0.000000000000000000 ) ) ;
#14 = ORIENTED_EDGE ( 'NONE', *, *, #186, .F. ) ;
#15 = SURFACE_STYLE_FILL_AREA ( #157 ) ;
#16 = PRESENTATION_STYLE_ASSIGNMENT (( #201 ) ) ;
#17 = EDGE_LOOP ( 'NONE', ( #42, #202, #120, #128 ) ) ;
#18 =( GEOMETRIC_REPRESENTATION_CONTEXT ( 3 ) GLOBAL_UNCERTAINTY_ASSIGNED_CONTEXT ( ( #196 ) ) GLOBAL_UNIT_ASSIGNED_CONTEXT ( ( #193, #198, #309 ) ) REPRESENTATION_CONTEXT ( 'NONE', 'WORKASPACE' ) );
#19 = CARTESIAN_POINT ( 'NONE',  ( -6.123233995736763571E-17, 2.000000000000000000, 0.000000000000000000 ) ) ;
#20 = CONICAL_SURFACE ( 'NONE', #3, 0.02500000000000000139, 0.8726646259971666542 ) ;
#21 = ORIENTED_EDGE ( 'NONE', *, *, #289, .F. ) ;
#22 = LINE ( 'NONE', #227, #206 ) ;
#23 = DIRECTION ( 'NONE',  ( 4.107433661968977470E-33, -1.000000000000000000, -0.000000000000000000 ) ) ;
#24 = CARTESIAN_POINT ( 'NONE',  ( 4.217752821868972129E-67, -1.026858415492244453E-34, 0.000000000000000000 ) ) ;
#25 = CIRCLE ( 'NONE', #145, 0.02500000000000000139 ) ;
#26 = MECHANICAL_DESIGN_GEOMETRIC_PRESENTATION_REPRESENTATION (  '', ( #255 ), #187 ) ;
#27 = DIRECTION ( 'NONE',  ( -4.107433661968977470E-33, 1.000000000000000000, 0.000000000000000000 ) ) ;
#28 = EDGE_CURVE ( 'NONE', #199, #12, #6, .T. ) ;
#29 = LENGTH_MEASURE_WITH_UNIT ( LENGTH_MEASURE( 0.02539999999999999897 ), #55 );
#30 = PRESENTATION_LAYER_ASSIGNMENT (  '', '', ( #255 ) ) ;
#31 = SURFACE_STYLE_USAGE ( .BOTH. , #254 ) ;
#32 = FILL_AREA_STYLE ('',( #9 ) ) ;
#33 = ORIENTED_EDGE ( 'NONE', *, *, #208, .T. ) ;
#34 = FILL_AREA_STYLE_COLOUR ( '', #276 ) ;
#35 = DIRECTION ( 'NONE',  ( -1.208217220923066454E-16, 1.000000000000000000, 0.000000000000000000 ) ) ;
#36 = DIRECTION ( 'NONE',  ( -1.208217220923066454E-16, 1.000000000000000000, -0.000000000000000000 ) ) ;
#37 = AXIS2_PLACEMENT_3D ( 'NONE', #119, #27, #8 ) ;
#38 = CARTESIAN_POINT ( 'NONE',  ( 1.734411286840929226E-16, 0.05768809964343782348, 0.000000000000000000 ) ) ;
#39 = VERTEX_POINT ( 'NONE', #223 ) ;
#40 = CARTESIAN_POINT ( 'NONE',  ( 0.09374999999999998612, 2.000000000000000000, 1.148106374200643555E-17 ) ) ;
#41 = DIRECTION ( 'NONE',  ( 0.7660444431189792347, 0.6427876096865379196, 9.381338752702745572E-17 ) ) ;
#42 = ORIENTED_EDGE ( 'NONE', *, *, #47, .T. ) ;
#43 = CARTESIAN_POINT ( 'NONE',  ( -0.09374999999999998612, 0.05768809964343777491, 0.000000000000000000 ) ) ;
#44 = EDGE_LOOP ( 'NONE', ( #14, #300, #110, #21 ) ) ;
#45 = AXIS2_PLACEMENT_3D ( 'NONE', #89, #180, #236 ) ;
#46 = VECTOR ( 'NONE', #68, 39.37007874015748143 ) ;
#47 = EDGE_CURVE ( 'NONE', #39, #228, #56, .T. ) ;
#48 = FACE_OUTER_BOUND ( 'NONE', #280, .T. ) ;
#49 = CARTESIAN_POINT ( 'NONE',  ( -6.123233995736763571E-17, 2.000000000000000000, 0.000000000000000000 ) ) ;
#50 = SHAPE_DEFINITION_REPRESENTATION ( #192, #76 ) ;
#51 = DIRECTION ( 'NONE',  ( -4.107433661968977470E-33, 1.000000000000000000, 0.000000000000000000 ) ) ;
#52 = APPLICATION_PROTOCOL_DEFINITION ( 'draft international standard', 'automotive_design', 1998, #61 ) ;
#53 = DIRECTION ( 'NONE',  ( -4.107433661968977470E-33, 1.000000000000000000, 0.000000000000000000 ) ) ;
#54 = APPLICATION_CONTEXT ( 'automotive_design' ) ;
#55 =( LENGTH_UNIT ( ) NAMED_UNIT ( * ) SI_UNIT ( $, .METRE. ) );
#56 = CIRCLE ( 'NONE', #154, 0.09374999999999981959 ) ;
#57 = AXIS2_PLACEMENT_3D ( 'NONE', #19, #226, #152 ) ;
#58 = UNCERTAINTY_MEASURE_WITH_UNIT (LENGTH_MEASURE( 1.000000000000000082E-05 ), #7, 'distance_accuracy_value', 'NONE');
#59 = EDGE_LOOP ( 'NONE', ( #156, #88 ) ) ;
#60 = PRODUCT_RELATED_PRODUCT_CATEGORY ( 'part', '', ( #247 ) ) ;
#61 = APPLICATION_CONTEXT ( 'automotive_design' ) ;
#62 = ORIENTED_EDGE ( 'NONE', *, *, #151, .F. ) ;
#63 =( CONVERSION_BASED_UNIT ( 'INCH', #79 ) LENGTH_UNIT ( ) NAMED_UNIT ( #97 ) );
#64 = DIRECTION ( 'NONE',  ( 1.000000000000000000, 4.107433661968977470E-33, 0.000000000000000000 ) ) ;
#65 = EDGE_LOOP ( 'NONE', ( #251, #62 ) ) ;
#66 = CARTESIAN_POINT ( 'NONE',  ( 0.09374999999999998612, 0.05768809964343783042, 1.148106374200643555E-17 ) ) ;
#67 = ORIENTED_EDGE ( 'NONE', *, *, #130, .F. ) ;
#68 = DIRECTION ( 'NONE',  ( -1.208217220923066454E-16, 1.000000000000000000, -0.000000000000000000 ) ) ;
#69 = SURFACE_STYLE_USAGE ( .BOTH. , #288 ) ;
#70 =( GEOMETRIC_REPRESENTATION_CONTEXT ( 3 ) GLOBAL_UNCERTAINTY_ASSIGNED_CONTEXT ( ( #11 ) ) GLOBAL_UNIT_ASSIGNED_CONTEXT ( ( #63, #129, #87 ) ) REPRESENTATION_CONTEXT ( 'NONE', 'WORKASPACE' ) );
#71 = PRODUCT_CONTEXT ( 'NONE', #61, 'mechanical' ) ;
#72 = DIRECTION ( 'NONE',  ( -1.000000000000000000, -4.107433661968977470E-33, 0.000000000000000000 ) ) ;
#73 = PRODUCT_DEFINITION_FORMATION_WITH_SPECIFIED_SOURCE ( 'ANY', '', #247, .NOT_KNOWN. ) ;
#74 = SURFACE_STYLE_FILL_AREA ( #291 ) ;
#75 = PRESENTATION_LAYER_ASSIGNMENT (  '', '', ( #100 ) ) ;
#76 = ADVANCED_BREP_SHAPE_REPRESENTATION ( '84589', ( #306, #194, #267 ), #18 ) ;
#77 = AXIS2_PLACEMENT_3D ( 'NONE', #24, #53, #72 ) ;
#78 = SURFACE_STYLE_USAGE ( .BOTH. , #169 ) ;
#79 = LENGTH_MEASURE_WITH_UNIT ( LENGTH_MEASURE( 0.02539999999999999897 ), #229 );
#80 = STYLED_ITEM ( 'NONE', ( #94 ), #188 ) ;
#81 = PLANE ( 'NONE',  #161 ) ;
#82 = DIRECTION ( 'NONE',  ( 1.208217220923066454E-16, -1.000000000000000000, 0.000000000000000000 ) ) ;
#83 = DIRECTION ( 'NONE',  ( 1.000000000000000000, 4.107433661968977470E-33, 0.000000000000000000 ) ) ;
#84 = ORIENTED_EDGE ( 'NONE', *, *, #217, .F. ) ;
#85 = PLANE ( 'NONE',  #115 ) ;
#86 = COLOUR_RGB ( '',0.7921568627450980005, 0.8196078431372548767, 0.9333333333333333481 ) ;
#87 =( NAMED_UNIT ( * ) SI_UNIT ( $, .STERADIAN. ) SOLID_ANGLE_UNIT ( ) );
#88 = ORIENTED_EDGE ( 'NONE', *, *, #217, .T. ) ;
#89 = CARTESIAN_POINT ( 'NONE',  ( -6.123233995736763571E-17, 2.000000000000000000, 0.000000000000000000 ) ) ;
#90 = CARTESIAN_POINT ( 'NONE',  ( 0.09374999999999998612, 0.05768809964343777491, 1.148106374200643401E-17 ) ) ;
#91 = CARTESIAN_POINT ( 'NONE',  ( 0.000000000000000000, 0.000000000000000000, 0.000000000000000000 ) ) ;
#92 = DIRECTION ( 'NONE',  ( 1.000000000000000000, 4.107433661968977470E-33, 0.000000000000000000 ) ) ;
#93 = ADVANCED_FACE ( 'NONE', ( #190 ), #81, .F. ) ;
#94 = PRESENTATION_STYLE_ASSIGNMENT (( #78 ) ) ;
#95 =( GEOMETRIC_REPRESENTATION_CONTEXT ( 3 ) GLOBAL_UNCERTAINTY_ASSIGNED_CONTEXT ( ( #58 ) ) GLOBAL_UNIT_ASSIGNED_CONTEXT ( ( #7, #136, #266 ) ) REPRESENTATION_CONTEXT ( 'NONE', 'WORKASPACE' ) );
#96 = PRESENTATION_LAYER_ASSIGNMENT (  '', '', ( #216 ) ) ;
#97 = DIMENSIONAL_EXPONENTS ( 1.000000000000000000, 0.000000000000000000, 0.000000000000000000, 0.000000000000000000, 0.000000000000000000, 0.000000000000000000, 0.000000000000000000 ) ;
#98 = ADVANCED_FACE ( 'NONE', ( #250 ), #20, .T. ) ;
#99 = SURFACE_STYLE_FILL_AREA ( #4 ) ;
#100 = STYLED_ITEM ( 'NONE', ( #163 ), #182 ) ;
#101 =( NAMED_UNIT ( * ) PLANE_ANGLE_UNIT ( ) SI_UNIT ( $, .RADIAN. ) );
#102 = DIMENSIONAL_EXPONENTS ( 1.000000000000000000, 0.000000000000000000, 0.000000000000000000, 0.000000000000000000, 0.000000000000000000, 0.000000000000000000, 0.000000000000000000 ) ;
#103 = PRESENTATION_STYLE_ASSIGNMENT (( #105 ) ) ;
#104 = FILL_AREA_STYLE_COLOUR ( '', #195 ) ;
#105 = SURFACE_STYLE_USAGE ( .BOTH. , #10 ) ;
#106 = ORIENTED_EDGE ( 'NONE', *, *, #289, .T. ) ;
#107 = STYLED_ITEM ( 'NONE', ( #16 ), #179 ) ;
#108 = EDGE_LOOP ( 'NONE', ( #285, #67, #106, #215 ) ) ;
#109 = LINE ( 'NONE', #286, #197 ) ;
#110 = ORIENTED_EDGE ( 'NONE', *, *, #151, .T. ) ;
#111 = LINE ( 'NONE', #203, #46 ) ;
#112 = FACE_OUTER_BOUND ( 'NONE', #17, .T. ) ;
#113 = ORIENTED_EDGE ( 'NONE', *, *, #208, .F. ) ;
#114 = PRESENTATION_LAYER_ASSIGNMENT (  '', '', ( #107 ) ) ;
#115 = AXIS2_PLACEMENT_3D ( 'NONE', #177, #82, #132 ) ;
#116 = PLANE ( 'NONE',  #37 ) ;
#117 = CARTESIAN_POINT ( 'NONE',  ( 0.02500000000000000139, 0.000000000000000000, 7.271340369937408974E-18 ) ) ;
#118 = DIRECTION ( 'NONE',  ( 4.107433661968977470E-33, -1.000000000000000000, -0.000000000000000000 ) ) ;
#119 = CARTESIAN_POINT ( 'NONE',  ( -2.369500423704768587E-34, 0.05768809964343777491, 0.000000000000000000 ) ) ;
#120 = ORIENTED_EDGE ( 'NONE', *, *, #259, .F. ) ;
#121 = STYLED_ITEM ( 'NONE', ( #103 ), #98 ) ;
#122 = AXIS2_PLACEMENT_3D ( 'NONE', #245, #153, #174 ) ;
#123 = DIMENSIONAL_EXPONENTS ( 1.000000000000000000, 0.000000000000000000, 0.000000000000000000, 0.000000000000000000, 0.000000000000000000, 0.000000000000000000, 0.000000000000000000 ) ;
#124 = DIRECTION ( 'NONE',  ( 4.107433661968977470E-33, -1.000000000000000000, -0.000000000000000000 ) ) ;
#125 = COLOUR_RGB ( '',1.000000000000000000, 0.000000000000000000, 0.000000000000000000 ) ;
#126 =( LENGTH_UNIT ( ) NAMED_UNIT ( * ) SI_UNIT ( $, .METRE. ) );
#127 = SURFACE_STYLE_FILL_AREA ( #32 ) ;
#128 = ORIENTED_EDGE ( 'NONE', *, *, #239, .F. ) ;
#129 =( NAMED_UNIT ( * ) PLANE_ANGLE_UNIT ( ) SI_UNIT ( $, .RADIAN. ) );
#130 = EDGE_CURVE ( 'NONE', #293, #150, #275, .T. ) ;
#131 = ORIENTED_EDGE ( 'NONE', *, *, #186, .T. ) ;
#132 = DIRECTION ( 'NONE',  ( 1.000000000000000000, 1.208217220923066454E-16, 0.000000000000000000 ) ) ;
#133 = DIRECTION ( 'NONE',  ( -1.000000000000000000, -9.106159978880894651E-17, 0.000000000000000000 ) ) ;
#134 = ORIENTED_EDGE ( 'NONE', *, *, #47, .F. ) ;
#135 = FACE_OUTER_BOUND ( 'NONE', #59, .T. ) ;
#136 =( NAMED_UNIT ( * ) PLANE_ANGLE_UNIT ( ) SI_UNIT ( $, .RADIAN. ) );
#137 = EDGE_CURVE ( 'NONE', #150, #12, #22, .T. ) ;
#138 = PRESENTATION_STYLE_ASSIGNMENT (( #31 ) ) ;
#139 = SURFACE_STYLE_FILL_AREA ( #287 ) ;
#140 = CIRCLE ( 'NONE', #178, 0.09374999999999998612 ) ;
#141 = FILL_AREA_STYLE_COLOUR ( '', #125 ) ;
#142 = CARTESIAN_POINT ( 'NONE',  ( 4.217752821868972129E-67, -1.026858415492244453E-34, 0.000000000000000000 ) ) ;
#143 =( NAMED_UNIT ( * ) PLANE_ANGLE_UNIT ( ) SI_UNIT ( $, .RADIAN. ) );
#144 = DIMENSIONAL_EXPONENTS ( 1.000000000000000000, 0.000000000000000000, 0.000000000000000000, 0.000000000000000000, 0.000000000000000000, 0.000000000000000000, 0.000000000000000000 ) ;
#145 = AXIS2_PLACEMENT_3D ( 'NONE', #171, #213, #92 ) ;
#146 =( NAMED_UNIT ( * ) SI_UNIT ( $, .STERADIAN. ) SOLID_ANGLE_UNIT ( ) );
#147 = DIRECTION ( 'NONE',  ( 1.000000000000000000, 0.000000000000000000, 0.000000000000000000 ) ) ;
#148 = CIRCLE ( 'NONE', #57, 0.09375000000000005551 ) ;
#149 =( NAMED_UNIT ( * ) SI_UNIT ( $, .STERADIAN. ) SOLID_ANGLE_UNIT ( ) );
#150 = VERTEX_POINT ( 'NONE', #117 ) ;
#151 = EDGE_CURVE ( 'NONE', #12, #199, #140, .T. ) ;
#152 = DIRECTION ( 'NONE',  ( -1.000000000000000000, 0.000000000000000000, 0.000000000000000000 ) ) ;
#153 = DIRECTION ( 'NONE',  ( -1.208217220923066454E-16, 1.000000000000000000, -0.000000000000000000 ) ) ;
#154 = AXIS2_PLACEMENT_3D ( 'NONE', #38, #253, #133 ) ;
#155 =( LENGTH_UNIT ( ) NAMED_UNIT ( * ) SI_UNIT ( $, .METRE. ) );
#156 = ORIENTED_EDGE ( 'NONE', *, *, #259, .T. ) ;
#157 = FILL_AREA_STYLE ('',( #34 ) ) ;
#158 = FACE_OUTER_BOUND ( 'NONE', #65, .T. ) ;
#159 = PRODUCT_DEFINITION ( 'UNKNOWN', '', #73, #279 ) ;
#160 = CARTESIAN_POINT ( 'NONE',  ( 2.108876410934486064E-67, -5.134292077461222265E-35, 0.000000000000000000 ) ) ;
#161 = AXIS2_PLACEMENT_3D ( 'NONE', #297, #35, #222 ) ;
#162 = VECTOR ( 'NONE', #258, 39.37007874015748143 ) ;
#163 = PRESENTATION_STYLE_ASSIGNMENT (( #69 ) ) ;
#164 = CARTESIAN_POINT ( 'NONE',  ( -2.369500423704768587E-34, 0.05768809964343777491, 0.000000000000000000 ) ) ;
#165 =( NAMED_UNIT ( * ) PLANE_ANGLE_UNIT ( ) SI_UNIT ( $, .RADIAN. ) );
#166 = CONICAL_SURFACE ( 'NONE', #77, 0.02500000000000000139, 0.8726646259971666542 ) ;
#167 = UNCERTAINTY_MEASURE_WITH_UNIT (LENGTH_MEASURE( 1.000000000000000082E-05 ), #219, 'distance_accuracy_value', 'NONE');
#168 =( GEOMETRIC_REPRESENTATION_CONTEXT ( 3 ) GLOBAL_UNCERTAINTY_ASSIGNED_CONTEXT ( ( #292 ) ) GLOBAL_UNIT_ASSIGNED_CONTEXT ( ( #268, #143, #146 ) ) REPRESENTATION_CONTEXT ( 'NONE', 'WORKASPACE' ) );
#169 = SURFACE_SIDE_STYLE ('',( #74 ) ) ;
#170 = ADVANCED_FACE ( 'NONE', ( #112 ), #184, .T. ) ;
#171 = CARTESIAN_POINT ( 'NONE',  ( 4.217752821868972129E-67, -1.026858415492244453E-34, 0.000000000000000000 ) ) ;
#172 = MECHANICAL_DESIGN_GEOMETRIC_PRESENTATION_REPRESENTATION (  '', ( #107 ), #308 ) ;
#173 = UNCERTAINTY_MEASURE_WITH_UNIT (LENGTH_MEASURE( 1.000000000000000082E-05 ), #1, 'distance_accuracy_value', 'NONE');
#174 = DIRECTION ( 'NONE',  ( -1.000000000000000000, -9.106159978880894651E-17, 0.000000000000000000 ) ) ;
#175 = DIRECTION ( 'NONE',  ( -0.7660444431189792347, 0.6427876096865379196, 0.000000000000000000 ) ) ;
#176 = ORIENTED_EDGE ( 'NONE', *, *, #242, .F. ) ;
#177 = CARTESIAN_POINT ( 'NONE',  ( 0.09374999999999998612, 2.000000000000000000, 0.000000000000000000 ) ) ;
#178 = AXIS2_PLACEMENT_3D ( 'NONE', #304, #265, #256 ) ;
#179 = ADVANCED_FACE ( 'NONE', ( #48 ), #230, .T. ) ;
#180 = DIRECTION ( 'NONE',  ( -1.208217220923066454E-16, 1.000000000000000000, -0.000000000000000000 ) ) ;
#181 = SURFACE_STYLE_FILL_AREA ( #210 ) ;
#182 = ADVANCED_FACE ( 'NONE', ( #158 ), #116, .T. ) ;
#183 = MECHANICAL_DESIGN_GEOMETRIC_PRESENTATION_REPRESENTATION (  '', ( #80 ), #168 ) ;
#184 = CYLINDRICAL_SURFACE ( 'NONE', #45, 0.09374999999999994449 ) ;
#185 = FACE_OUTER_BOUND ( 'NONE', #108, .T. ) ;
#186 = EDGE_CURVE ( 'NONE', #150, #293, #25, .T. ) ;
#187 =( GEOMETRIC_REPRESENTATION_CONTEXT ( 3 ) GLOBAL_UNCERTAINTY_ASSIGNED_CONTEXT ( ( #167 ) ) GLOBAL_UNIT_ASSIGNED_CONTEXT ( ( #219, #101, #274 ) ) REPRESENTATION_CONTEXT ( 'NONE', 'WORKASPACE' ) );
#188 = ADVANCED_FACE ( 'NONE', ( #185 ), #166, .T. ) ;
#189 = SURFACE_SIDE_STYLE ('',( #99 ) ) ;
#190 = FACE_OUTER_BOUND ( 'NONE', #224, .T. ) ;
#191 = MECHANICAL_DESIGN_GEOMETRIC_PRESENTATION_REPRESENTATION (  '', ( #100 ), #221 ) ;
#192 = PRODUCT_DEFINITION_SHAPE ( 'NONE', 'NONE',  #159 ) ;
#193 =( CONVERSION_BASED_UNIT ( 'INCH', #278 ) LENGTH_UNIT ( ) NAMED_UNIT ( #123 ) );
#194 = MANIFOLD_SOLID_BREP ( 'Revolve - Tool Body (Tipped Off)', #237 ) ;
#195 = COLOUR_RGB ( '',1.000000000000000000, 0.000000000000000000, 0.000000000000000000 ) ;
#196 = UNCERTAINTY_MEASURE_WITH_UNIT (LENGTH_MEASURE( 1.000000000000000082E-05 ), #193, 'distance_accuracy_value', 'NONE');
#197 = VECTOR ( 'NONE', #175, 39.37007874015748143 ) ;
#198 =( NAMED_UNIT ( * ) PLANE_ANGLE_UNIT ( ) SI_UNIT ( $, .RADIAN. ) );
#199 = VERTEX_POINT ( 'NONE', #43 ) ;
#200 = CARTESIAN_POINT ( 'NONE',  ( -0.09375000000000012490, 2.000000000000000000, 0.000000000000000000 ) ) ;
#201 = SURFACE_STYLE_USAGE ( .BOTH. , #207 ) ;
#202 = ORIENTED_EDGE ( 'NONE', *, *, #242, .T. ) ;
#203 = CARTESIAN_POINT ( 'NONE',  ( 0.09374999999999987510, 2.000000000000000000, 1.148106374200642938E-17 ) ) ;
#204 =( LENGTH_UNIT ( ) NAMED_UNIT ( * ) SI_UNIT ( $, .METRE. ) );
#205 = MECHANICAL_DESIGN_GEOMETRIC_PRESENTATION_REPRESENTATION (  '', ( #121 ), #95 ) ;
#206 = VECTOR ( 'NONE', #41, 39.37007874015748143 ) ;
#207 = SURFACE_SIDE_STYLE ('',( #139 ) ) ;
#208 = EDGE_CURVE ( 'NONE', #228, #39, #295, .T. ) ;
#209 = DIRECTION ( 'NONE',  ( 0.000000000000000000, 0.000000000000000000, 1.000000000000000000 ) ) ;
#210 = FILL_AREA_STYLE ('',( #260 ) ) ;
#211 = UNCERTAINTY_MEASURE_WITH_UNIT (LENGTH_MEASURE( 1.000000000000000082E-05 ), #305, 'distance_accuracy_value', 'NONE');
#212 = PRESENTATION_STYLE_ASSIGNMENT (( #296 ) ) ;
#213 = DIRECTION ( 'NONE',  ( 4.107433661968977470E-33, -1.000000000000000000, -0.000000000000000000 ) ) ;
#214 = DIMENSIONAL_EXPONENTS ( 1.000000000000000000, 0.000000000000000000, 0.000000000000000000, 0.000000000000000000, 0.000000000000000000, 0.000000000000000000, 0.000000000000000000 ) ;
#215 = ORIENTED_EDGE ( 'NONE', *, *, #28, .T. ) ;
#216 = STYLED_ITEM ( 'NONE', ( #138 ), #306 ) ;
#217 = EDGE_CURVE ( 'NONE', #277, #225, #148, .T. ) ;
#218 = FILL_AREA_STYLE_COLOUR ( '', #86 ) ;
#219 =( CONVERSION_BASED_UNIT ( 'INCH', #29 ) LENGTH_UNIT ( ) NAMED_UNIT ( #246 ) );
#220 = LENGTH_MEASURE_WITH_UNIT ( LENGTH_MEASURE( 0.02539999999999999897 ), #273 );
#221 =( GEOMETRIC_REPRESENTATION_CONTEXT ( 3 ) GLOBAL_UNCERTAINTY_ASSIGNED_CONTEXT ( ( #173 ) ) GLOBAL_UNIT_ASSIGNED_CONTEXT ( ( #1, #290, #149 ) ) REPRESENTATION_CONTEXT ( 'NONE', 'WORKASPACE' ) );
#222 = DIRECTION ( 'NONE',  ( -1.000000000000000000, -1.208217220923066454E-16, 0.000000000000000000 ) ) ;
#223 = CARTESIAN_POINT ( 'NONE',  ( -0.09374999999999965306, 0.05768809964343781654, 0.000000000000000000 ) ) ;
#224 = EDGE_LOOP ( 'NONE', ( #134, #113 ) ) ;
#225 = VERTEX_POINT ( 'NONE', #200 ) ;
#226 = DIRECTION ( 'NONE',  ( -1.208217220923066454E-16, 1.000000000000000000, -0.000000000000000000 ) ) ;
#227 = CARTESIAN_POINT ( 'NONE',  ( 0.02500000000000000139, 0.000000000000000000, 3.061616997868383172E-18 ) ) ;
#228 = VERTEX_POINT ( 'NONE', #66 ) ;
#229 =( LENGTH_UNIT ( ) NAMED_UNIT ( * ) SI_UNIT ( $, .METRE. ) );
#230 = PLANE ( 'NONE',  #243 ) ;
#231 = CLOSED_SHELL ( 'NONE', ( #98, #182, #188, #179 ) ) ;
#232 = CIRCLE ( 'NONE', #264, 0.09375000000000005551 ) ;
#233 = FACE_OUTER_BOUND ( 'NONE', #298, .T. ) ;
#234 = LENGTH_MEASURE_WITH_UNIT ( LENGTH_MEASURE( 0.02539999999999999897 ), #204 );
#235 = CYLINDRICAL_SURFACE ( 'NONE', #284, 0.09374999999999994449 ) ;
#236 = DIRECTION ( 'NONE',  ( -1.000000000000000000, 0.000000000000000000, 0.000000000000000000 ) ) ;
#237 = CLOSED_SHELL ( 'NONE', ( #170, #93, #5, #269 ) ) ;
#238 = LENGTH_MEASURE_WITH_UNIT ( LENGTH_MEASURE( 0.02539999999999999897 ), #155 );
#239 = EDGE_CURVE ( 'NONE', #39, #225, #281, .T. ) ;
#240 = ORIENTED_EDGE ( 'NONE', *, *, #130, .T. ) ;
#241 = DIMENSIONAL_EXPONENTS ( 1.000000000000000000, 0.000000000000000000, 0.000000000000000000, 0.000000000000000000, 0.000000000000000000, 0.000000000000000000, 0.000000000000000000 ) ;
#242 = EDGE_CURVE ( 'NONE', #228, #277, #111, .T. ) ;
#243 = AXIS2_PLACEMENT_3D ( 'NONE', #160, #118, #64 ) ;
#244 = MECHANICAL_DESIGN_GEOMETRIC_PRESENTATION_REPRESENTATION (  '', ( #216 ), #70 ) ;
#245 = CARTESIAN_POINT ( 'NONE',  ( 1.734411286840929226E-16, 0.05768809964343782348, 0.000000000000000000 ) ) ;
#246 = DIMENSIONAL_EXPONENTS ( 1.000000000000000000, 0.000000000000000000, 0.000000000000000000, 0.000000000000000000, 0.000000000000000000, 0.000000000000000000, 0.000000000000000000 ) ;
#247 = PRODUCT ( '84589', '84589', '', ( #71 ) ) ;
#248 = LENGTH_MEASURE_WITH_UNIT ( LENGTH_MEASURE( 0.02539999999999999897 ), #272 );
#249 = COLOUR_RGB ( '',1.000000000000000000, 0.000000000000000000, 0.000000000000000000 ) ;
#250 = FACE_OUTER_BOUND ( 'NONE', #44, .T. ) ;
#251 = ORIENTED_EDGE ( 'NONE', *, *, #28, .F. ) ;
#252 = DIRECTION ( 'NONE',  ( -1.000000000000000000, 0.000000000000000000, 0.000000000000000000 ) ) ;
#253 = DIRECTION ( 'NONE',  ( -1.208217220923066454E-16, 1.000000000000000000, -0.000000000000000000 ) ) ;
#254 = SURFACE_SIDE_STYLE ('',( #15 ) ) ;
#255 = STYLED_ITEM ( 'NONE', ( #212 ), #194 ) ;
#256 = DIRECTION ( 'NONE',  ( 1.000000000000000000, 0.000000000000000000, 0.000000000000000000 ) ) ;
#257 = ORIENTED_EDGE ( 'NONE', *, *, #239, .T. ) ;
#258 = DIRECTION ( 'NONE',  ( -1.208217220923066454E-16, 1.000000000000000000, -0.000000000000000000 ) ) ;
#259 = EDGE_CURVE ( 'NONE', #225, #277, #232, .T. ) ;
#260 = FILL_AREA_STYLE_COLOUR ( '', #303 ) ;
#261 = DIRECTION ( 'NONE',  ( -1.000000000000000000, 0.000000000000000000, 0.000000000000000000 ) ) ;
#262 = PRESENTATION_LAYER_ASSIGNMENT (  '', '', ( #80 ) ) ;
#263 = APPLICATION_PROTOCOL_DEFINITION ( 'draft international standard', 'automotive_design', 1998, #54 ) ;
#264 = AXIS2_PLACEMENT_3D ( 'NONE', #299, #36, #252 ) ;
#265 = DIRECTION ( 'NONE',  ( 4.107433661968977470E-33, -1.000000000000000000, -0.000000000000000000 ) ) ;
#266 =( NAMED_UNIT ( * ) SI_UNIT ( $, .STERADIAN. ) SOLID_ANGLE_UNIT ( ) );
#267 = AXIS2_PLACEMENT_3D ( 'NONE', #91, #209, #307 ) ;
#268 =( CONVERSION_BASED_UNIT ( 'INCH', #248 ) LENGTH_UNIT ( ) NAMED_UNIT ( #144 ) );
#269 = ADVANCED_FACE ( 'NONE', ( #135 ), #85, .F. ) ;
#270 = AXIS2_PLACEMENT_3D ( 'NONE', #164, #124, #147 ) ;
#271 = PRESENTATION_LAYER_ASSIGNMENT (  '', '', ( #121 ) ) ;
#272 =( LENGTH_UNIT ( ) NAMED_UNIT ( * ) SI_UNIT ( $, .METRE. ) );
#273 =( LENGTH_UNIT ( ) NAMED_UNIT ( * ) SI_UNIT ( $, .METRE. ) );
#274 =( NAMED_UNIT ( * ) SI_UNIT ( $, .STERADIAN. ) SOLID_ANGLE_UNIT ( ) );
#275 = CIRCLE ( 'NONE', #294, 0.02500000000000000139 ) ;
#276 = COLOUR_RGB ( '',0.7921568627450980005, 0.8196078431372548767, 0.9333333333333333481 ) ;
#277 = VERTEX_POINT ( 'NONE', #40 ) ;
#278 = LENGTH_MEASURE_WITH_UNIT ( LENGTH_MEASURE( 0.02539999999999999897 ), #126 );
#279 = PRODUCT_DEFINITION_CONTEXT ( 'detailed design', #54, 'design' ) ;
#280 = EDGE_LOOP ( 'NONE', ( #240, #131 ) ) ;
#281 = LINE ( 'NONE', #301, #162 ) ;
#282 = CARTESIAN_POINT ( 'NONE',  ( 4.217752821868972129E-67, -1.026858415492244453E-34, 0.000000000000000000 ) ) ;
#283 =( NAMED_UNIT ( * ) SI_UNIT ( $, .STERADIAN. ) SOLID_ANGLE_UNIT ( ) );
#284 = AXIS2_PLACEMENT_3D ( 'NONE', #49, #2, #261 ) ;
#285 = ORIENTED_EDGE ( 'NONE', *, *, #137, .F. ) ;
#286 = CARTESIAN_POINT ( 'NONE',  ( -0.02500000000000000139, -2.053716830984488906E-34, 0.000000000000000000 ) ) ;
#287 = FILL_AREA_STYLE ('',( #141 ) ) ;
#288 = SURFACE_SIDE_STYLE ('',( #181 ) ) ;
#289 = EDGE_CURVE ( 'NONE', #293, #199, #109, .T. ) ;
#290 =( NAMED_UNIT ( * ) PLANE_ANGLE_UNIT ( ) SI_UNIT ( $, .RADIAN. ) );
#291 = FILL_AREA_STYLE ('',( #104 ) ) ;
#292 = UNCERTAINTY_MEASURE_WITH_UNIT (LENGTH_MEASURE( 1.000000000000000082E-05 ), #268, 'distance_accuracy_value', 'NONE');
#293 = VERTEX_POINT ( 'NONE', #13 ) ;
#294 = AXIS2_PLACEMENT_3D ( 'NONE', #142, #23, #83 ) ;
#295 = CIRCLE ( 'NONE', #122, 0.09374999999999981959 ) ;
#296 = SURFACE_STYLE_USAGE ( .BOTH. , #189 ) ;
#297 = CARTESIAN_POINT ( 'NONE',  ( 1.734411286840929472E-16, 0.05768809964343776797, 0.000000000000000000 ) ) ;
#298 = EDGE_LOOP ( 'NONE', ( #176, #33, #257, #84 ) ) ;
#299 = CARTESIAN_POINT ( 'NONE',  ( -6.123233995736763571E-17, 2.000000000000000000, 0.000000000000000000 ) ) ;
#300 = ORIENTED_EDGE ( 'NONE', *, *, #137, .T. ) ;
#301 = CARTESIAN_POINT ( 'NONE',  ( -0.09375000000000001388, 2.000000000000000000, 0.000000000000000000 ) ) ;
#302 = DIRECTION ( 'NONE',  ( -1.000000000000000000, -4.107433661968977470E-33, 0.000000000000000000 ) ) ;
#303 = COLOUR_RGB ( '',1.000000000000000000, 0.000000000000000000, 0.000000000000000000 ) ;
#304 = CARTESIAN_POINT ( 'NONE',  ( -2.369500423704768587E-34, 0.05768809964343777491, 0.000000000000000000 ) ) ;
#305 =( CONVERSION_BASED_UNIT ( 'INCH', #234 ) LENGTH_UNIT ( ) NAMED_UNIT ( #214 ) );
#306 = MANIFOLD_SOLID_BREP ( 'Revolve - Cutting Edge', #231 ) ;
#307 = DIRECTION ( 'NONE',  ( 1.000000000000000000, 0.000000000000000000, 0.000000000000000000 ) ) ;
#308 =( GEOMETRIC_REPRESENTATION_CONTEXT ( 3 ) GLOBAL_UNCERTAINTY_ASSIGNED_CONTEXT ( ( #211 ) ) GLOBAL_UNIT_ASSIGNED_CONTEXT ( ( #305, #165, #283 ) ) REPRESENTATION_CONTEXT ( 'NONE', 'WORKASPACE' ) );
#309 =( NAMED_UNIT ( * ) SI_UNIT ( $, .STERADIAN. ) SOLID_ANGLE_UNIT ( ) );
ENDSEC;
END-ISO-10303-21;
