ISO-10303-21;
HEADER;
FILE_DESCRIPTION (( 'STEP AP214' ),
    '1' );
FILE_NAME ('83798.STEP',
    '2023-07-05T16:07:29',
    ( '' ),
    ( '' ),
    'SwSTEP 2.0',
    'SolidWorks 2023',
    '' );
FILE_SCHEMA (( 'AUTOMOTIVE_DESIGN' ));
ENDSEC;

DATA;
#1 = EDGE_CURVE ( 'NONE', #148, #168, #191, .T. ) ;
#2 = AXIS2_PLACEMENT_3D ( 'NONE', #103, #176, #44 ) ;
#3 = STYLED_ITEM ( 'NONE', ( #105 ), #244 ) ;
#4 =( LENGTH_UNIT ( ) NAMED_UNIT ( * ) SI_UNIT ( $, .METRE. ) );
#5 = DIRECTION ( 'NONE',  ( -1.246097681992569904E-16, 1.000000000000000000, -0.000000000000000000 ) ) ;
#6 = ORIENTED_EDGE ( 'NONE', *, *, #1, .F. ) ;
#7 = LENGTH_MEASURE_WITH_UNIT ( LENGTH_MEASURE( 0.02539999999999999897 ), #178 );
#8 = SURFACE_SIDE_STYLE ('',( #185 ) ) ;
#9 = ORIENTED_EDGE ( 'NONE', *, *, #127, .F. ) ;
#10 = ORIENTED_EDGE ( 'NONE', *, *, #106, .F. ) ;
#11 = CARTESIAN_POINT ( 'NONE',  ( 0.000000000000000000, 0.000000000000000000, 0.000000000000000000 ) ) ;
#12 = CARTESIAN_POINT ( 'NONE',  ( 0.000000000000000000, 0.000000000000000000, 0.000000000000000000 ) ) ;
#13 = EDGE_CURVE ( 'NONE', #207, #35, #215, .T. ) ;
#14 = PRODUCT_DEFINITION_CONTEXT ( 'detailed design', #260, 'design' ) ;
#15 = LENGTH_MEASURE_WITH_UNIT ( LENGTH_MEASURE( 0.02539999999999999897 ), #234 );
#16 = DIRECTION ( 'NONE',  ( -1.000000000000000000, -2.220446049250307411E-16, 0.000000000000000000 ) ) ;
#17 =( LENGTH_UNIT ( ) NAMED_UNIT ( * ) SI_UNIT ( $, .METRE. ) );
#18 =( NAMED_UNIT ( * ) PLANE_ANGLE_UNIT ( ) SI_UNIT ( $, .RADIAN. ) );
#19 = AXIS2_PLACEMENT_3D ( 'NONE', #257, #73, #76 ) ;
#20 = MECHANICAL_DESIGN_GEOMETRIC_PRESENTATION_REPRESENTATION (  '', ( #3 ), #43 ) ;
#21 = PRODUCT_CONTEXT ( 'NONE', #167, 'mechanical' ) ;
#22 = FILL_AREA_STYLE_COLOUR ( '', #194 ) ;
#23 = STYLED_ITEM ( 'NONE', ( #55 ), #54 ) ;
#24 =( NAMED_UNIT ( * ) PLANE_ANGLE_UNIT ( ) SI_UNIT ( $, .RADIAN. ) );
#25 = ADVANCED_FACE ( 'NONE', ( #113 ), #216, .T. ) ;
#26 = PRESENTATION_STYLE_ASSIGNMENT (( #60 ) ) ;
#27 = DIRECTION ( 'NONE',  ( -0.7071067811865484609, 0.7071067811865465735, 0.000000000000000000 ) ) ;
#28 = CARTESIAN_POINT ( 'NONE',  ( 1.836970198721030181E-16, 1.500000000000000222, 0.000000000000000000 ) ) ;
#29 = DIRECTION ( 'NONE',  ( 1.000000000000000000, 1.246097681992569904E-16, 0.000000000000000000 ) ) ;
#30 = SURFACE_STYLE_FILL_AREA ( #98 ) ;
#31 = AXIS2_PLACEMENT_3D ( 'NONE', #67, #107, #152 ) ;
#32 = PLANE ( 'NONE',  #220 ) ;
#33 = PRESENTATION_LAYER_ASSIGNMENT (  '', '', ( #102 ) ) ;
#34 =( GEOMETRIC_REPRESENTATION_CONTEXT ( 3 ) GLOBAL_UNCERTAINTY_ASSIGNED_CONTEXT ( ( #233 ) ) GLOBAL_UNIT_ASSIGNED_CONTEXT ( ( #118, #222, #262 ) ) REPRESENTATION_CONTEXT ( 'NONE', 'WORKASPACE' ) );
#35 = VERTEX_POINT ( 'NONE', #94 ) ;
#36 = CARTESIAN_POINT ( 'NONE',  ( 0.06249999999999995143, 0.06249999999999995837, 7.654042494670922108E-18 ) ) ;
#37 =( CONVERSION_BASED_UNIT ( 'INCH', #159 ) LENGTH_UNIT ( ) NAMED_UNIT ( #181 ) );
#38 =( GEOMETRIC_REPRESENTATION_CONTEXT ( 3 ) GLOBAL_UNCERTAINTY_ASSIGNED_CONTEXT ( ( #253 ) ) GLOBAL_UNIT_ASSIGNED_CONTEXT ( ( #225, #124, #81 ) ) REPRESENTATION_CONTEXT ( 'NONE', 'WORKASPACE' ) );
#39 = MECHANICAL_DESIGN_GEOMETRIC_PRESENTATION_REPRESENTATION (  '', ( #102 ), #34 ) ;
#40 = SURFACE_STYLE_FILL_AREA ( #261 ) ;
#41 = COLOUR_RGB ( '',0.7921568627450980005, 0.8196078431372548767, 0.9333333333333333481 ) ;
#42 = DIRECTION ( 'NONE',  ( 0.000000000000000000, 0.000000000000000000, 1.000000000000000000 ) ) ;
#43 =( GEOMETRIC_REPRESENTATION_CONTEXT ( 3 ) GLOBAL_UNCERTAINTY_ASSIGNED_CONTEXT ( ( #208 ) ) GLOBAL_UNIT_ASSIGNED_CONTEXT ( ( #147, #229, #231 ) ) REPRESENTATION_CONTEXT ( 'NONE', 'WORKASPACE' ) );
#44 = DIRECTION ( 'NONE',  ( -1.000000000000000000, -1.922962686383564309E-16, 0.000000000000000000 ) ) ;
#45 = SURFACE_SIDE_STYLE ('',( #63 ) ) ;
#46 = ORIENTED_EDGE ( 'NONE', *, *, #78, .T. ) ;
#47 = AXIS2_PLACEMENT_3D ( 'NONE', #28, #121, #95 ) ;
#48 = PRODUCT_DEFINITION_FORMATION_WITH_SPECIFIED_SOURCE ( 'ANY', '', #190, .NOT_KNOWN. ) ;
#49 = LENGTH_MEASURE_WITH_UNIT ( LENGTH_MEASURE( 0.02539999999999999897 ), #263 );
#50 = ORIENTED_EDGE ( 'NONE', *, *, #189, .F. ) ;
#51 =( NAMED_UNIT ( * ) PLANE_ANGLE_UNIT ( ) SI_UNIT ( $, .RADIAN. ) );
#52 = EDGE_LOOP ( 'NONE', ( #82, #129, #50, #126 ) ) ;
#53 = CIRCLE ( 'NONE', #87, 0.06249999999999995837 ) ;
#54 = MANIFOLD_SOLID_BREP ( 'Revolve - Cutting Edge', #74 ) ;
#55 = PRESENTATION_STYLE_ASSIGNMENT (( #115 ) ) ;
#56 = DIRECTION ( 'NONE',  ( -1.922962686383564309E-16, 1.000000000000000000, 0.000000000000000000 ) ) ;
#57 = DIRECTION ( 'NONE',  ( 1.000000000000000000, 0.000000000000000000, 0.000000000000000000 ) ) ;
#58 =( GEOMETRIC_REPRESENTATION_CONTEXT ( 3 ) GLOBAL_UNCERTAINTY_ASSIGNED_CONTEXT ( ( #184 ) ) GLOBAL_UNIT_ASSIGNED_CONTEXT ( ( #141, #24, #202 ) ) REPRESENTATION_CONTEXT ( 'NONE', 'WORKASPACE' ) );
#59 = CARTESIAN_POINT ( 'NONE',  ( 1.836970198721030181E-16, 1.500000000000000222, 0.000000000000000000 ) ) ;
#60 = SURFACE_STYLE_USAGE ( .BOTH. , #204 ) ;
#61 =( GEOMETRIC_REPRESENTATION_CONTEXT ( 3 ) GLOBAL_UNCERTAINTY_ASSIGNED_CONTEXT ( ( #211 ) ) GLOBAL_UNIT_ASSIGNED_CONTEXT ( ( #37, #18, #149 ) ) REPRESENTATION_CONTEXT ( 'NONE', 'WORKASPACE' ) );
#62 = CARTESIAN_POINT ( 'NONE',  ( 1.836970198721030181E-16, 1.500000000000000222, 0.000000000000000000 ) ) ;
#63 = SURFACE_STYLE_FILL_AREA ( #223 ) ;
#64 = ORIENTED_EDGE ( 'NONE', *, *, #13, .F. ) ;
#65 = LINE ( 'NONE', #245, #226 ) ;
#66 = CARTESIAN_POINT ( 'NONE',  ( -0.06249999999999948652, 1.500000000000000222, 0.000000000000000000 ) ) ;
#67 = CARTESIAN_POINT ( 'NONE',  ( 3.628235616585349371E-16, 0.06249999999999981265, 0.000000000000000000 ) ) ;
#68 = APPLICATION_PROTOCOL_DEFINITION ( 'draft international standard', 'automotive_design', 1998, #167 ) ;
#69 = LENGTH_MEASURE_WITH_UNIT ( LENGTH_MEASURE( 0.02539999999999999897 ), #4 );
#70 = EDGE_LOOP ( 'NONE', ( #6, #128, #46 ) ) ;
#71 = DIRECTION ( 'NONE',  ( -1.922962686383564309E-16, 1.000000000000000000, 0.000000000000000000 ) ) ;
#72 = FACE_OUTER_BOUND ( 'NONE', #52, .T. ) ;
#73 = DIRECTION ( 'NONE',  ( -1.246097681992569904E-16, 1.000000000000000000, -0.000000000000000000 ) ) ;
#74 = CLOSED_SHELL ( 'NONE', ( #244, #112, #180 ) ) ;
#75 = CARTESIAN_POINT ( 'NONE',  ( 0.000000000000000000, 0.000000000000000000, 0.000000000000000000 ) ) ;
#76 = DIRECTION ( 'NONE',  ( -1.000000000000000000, 0.000000000000000000, 0.000000000000000000 ) ) ;
#77 = CARTESIAN_POINT ( 'NONE',  ( -0.06249999999999921590, 0.06249999999999993755, 0.000000000000000000 ) ) ;
#78 = EDGE_CURVE ( 'NONE', #187, #168, #53, .T. ) ;
#79 = MECHANICAL_DESIGN_GEOMETRIC_PRESENTATION_REPRESENTATION (  '', ( #186 ), #58 ) ;
#80 = AXIS2_PLACEMENT_3D ( 'NONE', #62, #145, #140 ) ;
#81 =( NAMED_UNIT ( * ) SI_UNIT ( $, .STERADIAN. ) SOLID_ANGLE_UNIT ( ) );
#82 = ORIENTED_EDGE ( 'NONE', *, *, #155, .T. ) ;
#83 = ADVANCED_FACE ( 'NONE', ( #72 ), #154, .T. ) ;
#84 = PRESENTATION_STYLE_ASSIGNMENT (( #122 ) ) ;
#85 = SURFACE_STYLE_USAGE ( .BOTH. , #8 ) ;
#86 = VERTEX_POINT ( 'NONE', #77 ) ;
#87 = AXIS2_PLACEMENT_3D ( 'NONE', #135, #101, #256 ) ;
#88 = ORIENTED_EDGE ( 'NONE', *, *, #155, .F. ) ;
#89 = DIMENSIONAL_EXPONENTS ( 1.000000000000000000, 0.000000000000000000, 0.000000000000000000, 0.000000000000000000, 0.000000000000000000, 0.000000000000000000, 0.000000000000000000 ) ;
#90 = FACE_OUTER_BOUND ( 'NONE', #70, .T. ) ;
#91 = DIMENSIONAL_EXPONENTS ( 1.000000000000000000, 0.000000000000000000, 0.000000000000000000, 0.000000000000000000, 0.000000000000000000, 0.000000000000000000, 0.000000000000000000 ) ;
#92 = SURFACE_STYLE_FILL_AREA ( #156 ) ;
#93 = CONICAL_SURFACE ( 'NONE', #109, 39.37007874015758091, 0.7853981633974495002 ) ;
#94 = CARTESIAN_POINT ( 'NONE',  ( -0.06249999999999956979, 1.500000000000000222, 0.000000000000000000 ) ) ;
#95 = DIRECTION ( 'NONE',  ( -1.000000000000000000, 0.000000000000000000, 0.000000000000000000 ) ) ;
#96 = PRESENTATION_LAYER_ASSIGNMENT (  '', '', ( #3 ) ) ;
#97 = PRESENTATION_STYLE_ASSIGNMENT (( #116 ) ) ;
#98 = FILL_AREA_STYLE ('',( #22 ) ) ;
#99 = MECHANICAL_DESIGN_GEOMETRIC_PRESENTATION_REPRESENTATION (  '', ( #23 ), #38 ) ;
#100 = VECTOR ( 'NONE', #205, 39.37007874015748143 ) ;
#101 = DIRECTION ( 'NONE',  ( 1.922962686383564309E-16, -1.000000000000000000, -0.000000000000000000 ) ) ;
#102 = STYLED_ITEM ( 'NONE', ( #97 ), #180 ) ;
#103 = CARTESIAN_POINT ( 'NONE',  ( -1.201851678989723687E-17, 0.06249999999999980571, 0.000000000000000000 ) ) ;
#104 = EDGE_LOOP ( 'NONE', ( #164, #10 ) ) ;
#105 = PRESENTATION_STYLE_ASSIGNMENT (( #85 ) ) ;
#106 = EDGE_CURVE ( 'NONE', #168, #187, #235, .T. ) ;
#107 = DIRECTION ( 'NONE',  ( -1.246097681992569904E-16, 1.000000000000000000, 0.000000000000000000 ) ) ;
#108 = DIRECTION ( 'NONE',  ( -1.000000000000000000, -1.365923996832140977E-16, 0.000000000000000000 ) ) ;
#109 = AXIS2_PLACEMENT_3D ( 'NONE', #212, #56, #16 ) ;
#110 = CARTESIAN_POINT ( 'NONE',  ( 0.000000000000000000, 0.000000000000000000, 0.000000000000000000 ) ) ;
#111 = ORIENTED_EDGE ( 'NONE', *, *, #217, .T. ) ;
#112 = ADVANCED_FACE ( 'NONE', ( #119 ), #198, .T. ) ;
#113 = FACE_OUTER_BOUND ( 'NONE', #183, .T. ) ;
#114 = STYLED_ITEM ( 'NONE', ( #84 ), #136 ) ;
#115 = SURFACE_STYLE_USAGE ( .BOTH. , #157 ) ;
#116 = SURFACE_STYLE_USAGE ( .BOTH. , #218 ) ;
#117 = CIRCLE ( 'NONE', #80, 0.06249999999999975714 ) ;
#118 =( CONVERSION_BASED_UNIT ( 'INCH', #160 ) LENGTH_UNIT ( ) NAMED_UNIT ( #91 ) );
#119 = FACE_OUTER_BOUND ( 'NONE', #104, .T. ) ;
#120 = SHAPE_DEFINITION_REPRESENTATION ( #210, #175 ) ;
#121 = DIRECTION ( 'NONE',  ( -1.246097681992569904E-16, 1.000000000000000000, -0.000000000000000000 ) ) ;
#122 = SURFACE_STYLE_USAGE ( .BOTH. , #45 ) ;
#123 = EDGE_CURVE ( 'NONE', #166, #86, #265, .T. ) ;
#124 =( NAMED_UNIT ( * ) PLANE_ANGLE_UNIT ( ) SI_UNIT ( $, .RADIAN. ) );
#125 = PRESENTATION_LAYER_ASSIGNMENT (  '', '', ( #23 ) ) ;
#126 = ORIENTED_EDGE ( 'NONE', *, *, #217, .F. ) ;
#127 = EDGE_CURVE ( 'NONE', #166, #207, #65, .T. ) ;
#128 = ORIENTED_EDGE ( 'NONE', *, *, #238, .T. ) ;
#129 = ORIENTED_EDGE ( 'NONE', *, *, #127, .T. ) ;
#130 = FACE_OUTER_BOUND ( 'NONE', #228, .T. ) ;
#131 = EDGE_LOOP ( 'NONE', ( #252, #247 ) ) ;
#132 = AXIS2_PLACEMENT_3D ( 'NONE', #254, #71, #192 ) ;
#133 = PRODUCT_RELATED_PRODUCT_CATEGORY ( 'part', '', ( #190 ) ) ;
#134 = VECTOR ( 'NONE', #172, 39.37007874015748143 ) ;
#135 = CARTESIAN_POINT ( 'NONE',  ( -1.201851678989723996E-17, 0.06249999999999980571, 0.000000000000000000 ) ) ;
#136 = MANIFOLD_SOLID_BREP ( 'Revolve - Tool Body (Pointed)', #219 ) ;
#137 = DIRECTION ( 'NONE',  ( -1.246097681992569904E-16, 1.000000000000000000, -0.000000000000000000 ) ) ;
#138 = DIRECTION ( 'NONE',  ( 1.922962686383564309E-16, -1.000000000000000000, -0.000000000000000000 ) ) ;
#139 = MECHANICAL_DESIGN_GEOMETRIC_PRESENTATION_REPRESENTATION (  '', ( #114 ), #177 ) ;
#140 = DIRECTION ( 'NONE',  ( -1.000000000000000000, 0.000000000000000000, 0.000000000000000000 ) ) ;
#141 =( CONVERSION_BASED_UNIT ( 'INCH', #7 ) LENGTH_UNIT ( ) NAMED_UNIT ( #193 ) );
#142 = AXIS2_PLACEMENT_3D ( 'NONE', #144, #249, #108 ) ;
#143 = AXIS2_PLACEMENT_3D ( 'NONE', #197, #138, #221 ) ;
#144 = CARTESIAN_POINT ( 'NONE',  ( 3.628235616585349371E-16, 0.06249999999999995143, 0.000000000000000000 ) ) ;
#145 = DIRECTION ( 'NONE',  ( -1.246097681992569904E-16, 1.000000000000000000, -0.000000000000000000 ) ) ;
#146 = ORIENTED_EDGE ( 'NONE', *, *, #1, .T. ) ;
#147 =( CONVERSION_BASED_UNIT ( 'INCH', #69 ) LENGTH_UNIT ( ) NAMED_UNIT ( #230 ) );
#148 = VERTEX_POINT ( 'NONE', #12 ) ;
#149 =( NAMED_UNIT ( * ) SI_UNIT ( $, .STERADIAN. ) SOLID_ANGLE_UNIT ( ) );
#150 = UNCERTAINTY_MEASURE_WITH_UNIT (LENGTH_MEASURE( 1.000000000000000082E-05 ), #195, 'distance_accuracy_value', 'NONE');
#151 = ORIENTED_EDGE ( 'NONE', *, *, #123, .F. ) ;
#152 = DIRECTION ( 'NONE',  ( -1.000000000000000000, -1.246097681992569904E-16, 0.000000000000000000 ) ) ;
#153 = FILL_AREA_STYLE ('',( #171 ) ) ;
#154 = CYLINDRICAL_SURFACE ( 'NONE', #47, 0.06249999999999967387 ) ;
#155 = EDGE_CURVE ( 'NONE', #86, #166, #264, .T. ) ;
#156 = FILL_AREA_STYLE ('',( #173 ) ) ;
#157 = SURFACE_SIDE_STYLE ('',( #40 ) ) ;
#158 = PRESENTATION_LAYER_ASSIGNMENT (  '', '', ( #114 ) ) ;
#159 = LENGTH_MEASURE_WITH_UNIT ( LENGTH_MEASURE( 0.02539999999999999897 ), #213 );
#160 = LENGTH_MEASURE_WITH_UNIT ( LENGTH_MEASURE( 0.02539999999999999897 ), #17 );
#161 = DIRECTION ( 'NONE',  ( -1.246097681992569904E-16, 1.000000000000000000, -0.000000000000000000 ) ) ;
#162 = COLOUR_RGB ( '',0.7921568627450980005, 0.8196078431372548767, 0.9333333333333333481 ) ;
#163 = CARTESIAN_POINT ( 'NONE',  ( 3.628235616585349371E-16, 0.06249999999999995143, 0.000000000000000000 ) ) ;
#164 = ORIENTED_EDGE ( 'NONE', *, *, #78, .F. ) ;
#165 = DIRECTION ( 'NONE',  ( 1.246097681992569904E-16, -1.000000000000000000, 0.000000000000000000 ) ) ;
#166 = VERTEX_POINT ( 'NONE', #36 ) ;
#167 = APPLICATION_CONTEXT ( 'automotive_design' ) ;
#168 = VERTEX_POINT ( 'NONE', #236 ) ;
#169 = LINE ( 'NONE', #110, #240 ) ;
#170 = ORIENTED_EDGE ( 'NONE', *, *, #106, .T. ) ;
#171 = FILL_AREA_STYLE_COLOUR ( '', #243 ) ;
#172 = DIRECTION ( 'NONE',  ( 0.7071067811865482389, 0.7071067811865467956, 8.659560562354942719E-17 ) ) ;
#173 = FILL_AREA_STYLE_COLOUR ( '', #209 ) ;
#174 = ADVANCED_FACE ( 'NONE', ( #237 ), #188, .F. ) ;
#175 = ADVANCED_BREP_SHAPE_REPRESENTATION ( '83798', ( #54, #136, #227 ), #61 ) ;
#176 = DIRECTION ( 'NONE',  ( -1.922962686383564309E-16, 1.000000000000000000, 0.000000000000000000 ) ) ;
#177 =( GEOMETRIC_REPRESENTATION_CONTEXT ( 3 ) GLOBAL_UNCERTAINTY_ASSIGNED_CONTEXT ( ( #150 ) ) GLOBAL_UNIT_ASSIGNED_CONTEXT ( ( #195, #51, #206 ) ) REPRESENTATION_CONTEXT ( 'NONE', 'WORKASPACE' ) );
#178 =( LENGTH_UNIT ( ) NAMED_UNIT ( * ) SI_UNIT ( $, .METRE. ) );
#179 = ORIENTED_EDGE ( 'NONE', *, *, #123, .T. ) ;
#180 = ADVANCED_FACE ( 'NONE', ( #90 ), #93, .T. ) ;
#181 = DIMENSIONAL_EXPONENTS ( 1.000000000000000000, 0.000000000000000000, 0.000000000000000000, 0.000000000000000000, 0.000000000000000000, 0.000000000000000000, 0.000000000000000000 ) ;
#182 = CARTESIAN_POINT ( 'NONE',  ( 0.06249999999999995143, 1.500000000000000222, 7.654042494670922108E-18 ) ) ;
#183 = EDGE_LOOP ( 'NONE', ( #9, #179, #111, #64 ) ) ;
#184 = UNCERTAINTY_MEASURE_WITH_UNIT (LENGTH_MEASURE( 1.000000000000000082E-05 ), #141, 'distance_accuracy_value', 'NONE');
#185 = SURFACE_STYLE_FILL_AREA ( #153 ) ;
#186 = STYLED_ITEM ( 'NONE', ( #26 ), #112 ) ;
#187 = VERTEX_POINT ( 'NONE', #241 ) ;
#188 = PLANE ( 'NONE',  #31 ) ;
#189 = EDGE_CURVE ( 'NONE', #35, #207, #117, .T. ) ;
#190 = PRODUCT ( '83798', '83798', '', ( #21 ) ) ;
#191 = LINE ( 'NONE', #11, #134 ) ;
#192 = DIRECTION ( 'NONE',  ( -1.000000000000000000, -2.220446049250307411E-16, 0.000000000000000000 ) ) ;
#193 = DIMENSIONAL_EXPONENTS ( 1.000000000000000000, 0.000000000000000000, 0.000000000000000000, 0.000000000000000000, 0.000000000000000000, 0.000000000000000000, 0.000000000000000000 ) ;
#194 = COLOUR_RGB ( '',1.000000000000000000, 0.000000000000000000, 0.000000000000000000 ) ;
#195 =( CONVERSION_BASED_UNIT ( 'INCH', #15 ) LENGTH_UNIT ( ) NAMED_UNIT ( #89 ) );
#196 = DIMENSIONAL_EXPONENTS ( 1.000000000000000000, 0.000000000000000000, 0.000000000000000000, 0.000000000000000000, 0.000000000000000000, 0.000000000000000000, 0.000000000000000000 ) ;
#197 = CARTESIAN_POINT ( 'NONE',  ( -1.201851678989723996E-17, 0.06249999999999980571, 0.000000000000000000 ) ) ;
#198 = PLANE ( 'NONE',  #2 ) ;
#199 = ADVANCED_FACE ( 'NONE', ( #201 ), #32, .F. ) ;
#200 = AXIS2_PLACEMENT_3D ( 'NONE', #163, #161, #242 ) ;
#201 = FACE_OUTER_BOUND ( 'NONE', #131, .T. ) ;
#202 =( NAMED_UNIT ( * ) SI_UNIT ( $, .STERADIAN. ) SOLID_ANGLE_UNIT ( ) );
#203 = PRODUCT_DEFINITION ( 'UNKNOWN', '', #48, #14 ) ;
#204 = SURFACE_SIDE_STYLE ('',( #30 ) ) ;
#205 = DIRECTION ( 'NONE',  ( -1.246097681992569904E-16, 1.000000000000000000, -0.000000000000000000 ) ) ;
#206 =( NAMED_UNIT ( * ) SI_UNIT ( $, .STERADIAN. ) SOLID_ANGLE_UNIT ( ) );
#207 = VERTEX_POINT ( 'NONE', #182 ) ;
#208 = UNCERTAINTY_MEASURE_WITH_UNIT (LENGTH_MEASURE( 1.000000000000000082E-05 ), #147, 'distance_accuracy_value', 'NONE');
#209 = COLOUR_RGB ( '',1.000000000000000000, 0.000000000000000000, 0.000000000000000000 ) ;
#210 = PRODUCT_DEFINITION_SHAPE ( 'NONE', 'NONE',  #203 ) ;
#211 = UNCERTAINTY_MEASURE_WITH_UNIT (LENGTH_MEASURE( 1.000000000000000082E-05 ), #37, 'distance_accuracy_value', 'NONE');
#212 = CARTESIAN_POINT ( 'NONE',  ( -7.570719237730568091E-15, 39.37007874015748143, 0.000000000000000000 ) ) ;
#213 =( LENGTH_UNIT ( ) NAMED_UNIT ( * ) SI_UNIT ( $, .METRE. ) );
#214 = DIRECTION ( 'NONE',  ( -1.000000000000000000, 0.000000000000000000, 0.000000000000000000 ) ) ;
#215 = CIRCLE ( 'NONE', #19, 0.06249999999999975714 ) ;
#216 = CYLINDRICAL_SURFACE ( 'NONE', #258, 0.06249999999999967387 ) ;
#217 = EDGE_CURVE ( 'NONE', #86, #35, #248, .T. ) ;
#218 = SURFACE_SIDE_STYLE ('',( #92 ) ) ;
#219 = CLOSED_SHELL ( 'NONE', ( #83, #174, #25, #199 ) ) ;
#220 = AXIS2_PLACEMENT_3D ( 'NONE', #246, #165, #29 ) ;
#221 = DIRECTION ( 'NONE',  ( 1.000000000000000000, 1.365923996832132595E-16, 0.000000000000000000 ) ) ;
#222 =( NAMED_UNIT ( * ) PLANE_ANGLE_UNIT ( ) SI_UNIT ( $, .RADIAN. ) );
#223 = FILL_AREA_STYLE ('',( #224 ) ) ;
#224 = FILL_AREA_STYLE_COLOUR ( '', #41 ) ;
#225 =( CONVERSION_BASED_UNIT ( 'INCH', #49 ) LENGTH_UNIT ( ) NAMED_UNIT ( #196 ) );
#226 = VECTOR ( 'NONE', #5, 39.37007874015748143 ) ;
#227 = AXIS2_PLACEMENT_3D ( 'NONE', #75, #42, #57 ) ;
#228 = EDGE_LOOP ( 'NONE', ( #232, #146, #170 ) ) ;
#229 =( NAMED_UNIT ( * ) PLANE_ANGLE_UNIT ( ) SI_UNIT ( $, .RADIAN. ) );
#230 = DIMENSIONAL_EXPONENTS ( 1.000000000000000000, 0.000000000000000000, 0.000000000000000000, 0.000000000000000000, 0.000000000000000000, 0.000000000000000000, 0.000000000000000000 ) ;
#231 =( NAMED_UNIT ( * ) SI_UNIT ( $, .STERADIAN. ) SOLID_ANGLE_UNIT ( ) );
#232 = ORIENTED_EDGE ( 'NONE', *, *, #238, .F. ) ;
#233 = UNCERTAINTY_MEASURE_WITH_UNIT (LENGTH_MEASURE( 1.000000000000000082E-05 ), #118, 'distance_accuracy_value', 'NONE');
#234 =( LENGTH_UNIT ( ) NAMED_UNIT ( * ) SI_UNIT ( $, .METRE. ) );
#235 = CIRCLE ( 'NONE', #143, 0.06249999999999995837 ) ;
#236 = CARTESIAN_POINT ( 'NONE',  ( 0.06249999999999995143, 0.06249999999999981959, 7.654042494670951382E-18 ) ) ;
#237 = FACE_OUTER_BOUND ( 'NONE', #255, .T. ) ;
#238 = EDGE_CURVE ( 'NONE', #148, #187, #169, .T. ) ;
#239 = APPLICATION_PROTOCOL_DEFINITION ( 'draft international standard', 'automotive_design', 1998, #260 ) ;
#240 = VECTOR ( 'NONE', #27, 39.37007874015748143 ) ;
#241 = CARTESIAN_POINT ( 'NONE',  ( -0.06249999999999996531, 0.06249999999999979183, 0.000000000000000000 ) ) ;
#242 = DIRECTION ( 'NONE',  ( -1.000000000000000000, -1.365923996832140977E-16, 0.000000000000000000 ) ) ;
#243 = COLOUR_RGB ( '',1.000000000000000000, 0.000000000000000000, 0.000000000000000000 ) ;
#244 = ADVANCED_FACE ( 'NONE', ( #130 ), #251, .T. ) ;
#245 = CARTESIAN_POINT ( 'NONE',  ( 0.06249999999999986122, 1.500000000000000222, 7.654042494670917485E-18 ) ) ;
#246 = CARTESIAN_POINT ( 'NONE',  ( 0.06249999999999995143, 1.500000000000000222, 0.000000000000000000 ) ) ;
#247 = ORIENTED_EDGE ( 'NONE', *, *, #13, .T. ) ;
#248 = LINE ( 'NONE', #66, #100 ) ;
#249 = DIRECTION ( 'NONE',  ( -1.246097681992569904E-16, 1.000000000000000000, -0.000000000000000000 ) ) ;
#250 = PRESENTATION_LAYER_ASSIGNMENT (  '', '', ( #186 ) ) ;
#251 = CONICAL_SURFACE ( 'NONE', #132, 39.37007874015758091, 0.7853981633974495002 ) ;
#252 = ORIENTED_EDGE ( 'NONE', *, *, #189, .T. ) ;
#253 = UNCERTAINTY_MEASURE_WITH_UNIT (LENGTH_MEASURE( 1.000000000000000082E-05 ), #225, 'distance_accuracy_value', 'NONE');
#254 = CARTESIAN_POINT ( 'NONE',  ( -7.570719237730568091E-15, 39.37007874015748143, 0.000000000000000000 ) ) ;
#255 = EDGE_LOOP ( 'NONE', ( #88, #151 ) ) ;
#256 = DIRECTION ( 'NONE',  ( 1.000000000000000000, 1.365923996832132595E-16, 0.000000000000000000 ) ) ;
#257 = CARTESIAN_POINT ( 'NONE',  ( 1.836970198721030181E-16, 1.500000000000000222, 0.000000000000000000 ) ) ;
#258 = AXIS2_PLACEMENT_3D ( 'NONE', #59, #137, #214 ) ;
#259 = FILL_AREA_STYLE_COLOUR ( '', #162 ) ;
#260 = APPLICATION_CONTEXT ( 'automotive_design' ) ;
#261 = FILL_AREA_STYLE ('',( #259 ) ) ;
#262 =( NAMED_UNIT ( * ) SI_UNIT ( $, .STERADIAN. ) SOLID_ANGLE_UNIT ( ) );
#263 =( LENGTH_UNIT ( ) NAMED_UNIT ( * ) SI_UNIT ( $, .METRE. ) );
#264 = CIRCLE ( 'NONE', #142, 0.06249999999999956979 ) ;
#265 = CIRCLE ( 'NONE', #200, 0.06249999999999956979 ) ;
ENDSEC;
END-ISO-10303-21;
