ISO-10303-21;
HEADER;
FILE_DESCRIPTION (( 'STEP AP214' ),
    '1' );
FILE_NAME ('Micro_GEM-375-2X.STEP',
    '2021-09-01T20:35:38',
    ( '' ),
    ( '' ),
    'SwSTEP 2.0',
    'SolidWorks 2020',
    '' );
FILE_SCHEMA (( 'AUTOMOTIVE_DESIGN' ));
ENDSEC;

DATA;
#1 = AXIS2_PLACEMENT_3D ( 'NONE', #140, #160, #291 ) ;
#2 = VERTEX_POINT ( 'NONE', #215 ) ;
#3 = LINE ( 'NONE', #93, #99 ) ;
#4 = EDGE_CURVE ( 'NONE', #257, #10, #113, .T. ) ;
#5 = DIRECTION ( 'NONE',  ( -0.7071067811865385799, 0.0000000000000000000, -0.7071067811865563435 ) ) ;
#6 = LENGTH_MEASURE_WITH_UNIT ( LENGTH_MEASURE( 0.02539999999999999897 ), #100 );
#7 = EDGE_CURVE ( 'NONE', #257, #196, #106, .T. ) ;
#8 = DIRECTION ( 'NONE',  ( -0.0000000000000000000, -0.0000000000000000000, -1.000000000000000000 ) ) ;
#9 = DIMENSIONAL_EXPONENTS ( 1.000000000000000000, 0.0000000000000000000, 0.0000000000000000000, 0.0000000000000000000, 0.0000000000000000000, 0.0000000000000000000, 0.0000000000000000000 ) ;
#10 = VERTEX_POINT ( 'NONE', #282 ) ;
#11 = COLOUR_RGB ( '',0.7921568627450980005, 0.8196078431372548767, 0.9333333333333333481 ) ;
#12 = CARTESIAN_POINT ( 'NONE',  ( -0.1873124999999999096, 2.293916535652885904E-17, 0.8750000000000000000 ) ) ;
#13 = ADVANCED_FACE ( 'NONE', ( #152 ), #237, .T. ) ;
#14 = ORIENTED_EDGE ( 'NONE', *, *, #111, .T. ) ;
#15 = DIRECTION ( 'NONE',  ( 0.0000000000000000000, 0.0000000000000000000, 1.000000000000000000 ) ) ;
#16 = LINE ( 'NONE', #178, #241 ) ;
#17 = PRESENTATION_STYLE_ASSIGNMENT (( #242 ) ) ;
#18 = CARTESIAN_POINT ( 'NONE',  ( 0.0000000000000000000, 0.0000000000000000000, 2.500000000000000000 ) ) ;
#19 = CARTESIAN_POINT ( 'NONE',  ( 0.0000000000000000000, 0.0000000000000000000, 0.0000000000000000000 ) ) ;
#20 = EDGE_CURVE ( 'NONE', #128, #198, #124, .T. ) ;
#21 = DIRECTION ( 'NONE',  ( 1.000000000000000000, 0.0000000000000000000, -0.0000000000000000000 ) ) ;
#22 = DIRECTION ( 'NONE',  ( -1.224646799147353207E-16, -0.0000000000000000000, -1.000000000000000000 ) ) ;
#23 = ORIENTED_EDGE ( 'NONE', *, *, #42, .T. ) ;
#24 = CONICAL_SURFACE ( 'NONE', #274, 0.1873125000000000207, 0.1745329251994338915 ) ;
#25 = CARTESIAN_POINT ( 'NONE',  ( -0.1873124999999999096, 2.295064642027087123E-17, 0.8750000000000000000 ) ) ;
#26 = DIRECTION ( 'NONE',  ( 1.000000000000000000, 0.0000000000000000000, 0.0000000000000000000 ) ) ;
#27 = ORIENTED_EDGE ( 'NONE', *, *, #161, .T. ) ;
#28 = AXIS2_PLACEMENT_3D ( 'NONE', #127, #8, #103 ) ;
#29 = CYLINDRICAL_SURFACE ( 'NONE', #28, 0.1875000000000000278 ) ;
#30 = ORIENTED_EDGE ( 'NONE', *, *, #7, .T. ) ;
#31 = ADVANCED_FACE ( 'NONE', ( #148 ), #175, .T. ) ;
#32 = CARTESIAN_POINT ( 'NONE',  ( 0.1875000000000000278, 2.296212748401287726E-17, 2.500000000000000000 ) ) ;
#33 = AXIS2_PLACEMENT_3D ( 'NONE', #19, #199, #37 ) ;
#34 =( GEOMETRIC_REPRESENTATION_CONTEXT ( 3 ) GLOBAL_UNCERTAINTY_ASSIGNED_CONTEXT ( ( #209 ) ) GLOBAL_UNIT_ASSIGNED_CONTEXT ( ( #174, #146, #102 ) ) REPRESENTATION_CONTEXT ( 'NONE', 'WORKASPACE' ) );
#35 = EDGE_LOOP ( 'NONE', ( #250, #30, #208, #132 ) ) ;
#36 = EDGE_LOOP ( 'NONE', ( #264, #235, #27, #134 ) ) ;
#37 = DIRECTION ( 'NONE',  ( 1.000000000000000000, 0.0000000000000000000, -0.0000000000000000000 ) ) ;
#38 = CIRCLE ( 'NONE', #1, 0.1875000000000000278 ) ;
#39 = DIRECTION ( 'NONE',  ( 1.224646799147353207E-16, 0.0000000000000000000, 1.000000000000000000 ) ) ;
#40 = DIRECTION ( 'NONE',  ( 1.000000000000000000, 0.0000000000000000000, 0.0000000000000000000 ) ) ;
#41 = DIRECTION ( 'NONE',  ( 0.1736481776669313859, 0.0000000000000000000, 0.9848077530122077983 ) ) ;
#42 = EDGE_CURVE ( 'NONE', #198, #153, #176, .T. ) ;
#43 = STYLED_ITEM ( 'NONE', ( #195 ), #181 ) ;
#44 = CARTESIAN_POINT ( 'NONE',  ( 0.0000000000000000000, 0.0000000000000000000, 2.500000000000000000 ) ) ;
#45 = ADVANCED_FACE ( 'NONE', ( #234 ), #29, .T. ) ;
#46 = CARTESIAN_POINT ( 'NONE',  ( 0.0000000000000000000, 0.0000000000000000000, 2.500000000000000000 ) ) ;
#47 = EDGE_LOOP ( 'NONE', ( #276, #14, #197, #96 ) ) ;
#48 = ORIENTED_EDGE ( 'NONE', *, *, #89, .F. ) ;
#49 = PRODUCT_RELATED_PRODUCT_CATEGORY ( 'part', '', ( #294 ) ) ;
#50 = ORIENTED_EDGE ( 'NONE', *, *, #298, .F. ) ;
#51 = CIRCLE ( 'NONE', #210, 0.1873124999999999929 ) ;
#52 = DIRECTION ( 'NONE',  ( -1.224646799147353207E-16, -0.0000000000000000000, -1.000000000000000000 ) ) ;
#53 = CARTESIAN_POINT ( 'NONE',  ( 1.071565949253934025E-16, 0.0000000000000000000, 0.8750000000000000000 ) ) ;
#54 = ORIENTED_EDGE ( 'NONE', *, *, #142, .F. ) ;
#55 = VECTOR ( 'NONE', #79, 39.37007874015747433 ) ;
#56 = AXIS2_PLACEMENT_3D ( 'NONE', #119, #232, #21 ) ;
#57 = ORIENTED_EDGE ( 'NONE', *, *, #265, .F. ) ;
#58 = FILL_AREA_STYLE ('',( #60 ) ) ;
#59 = EDGE_CURVE ( 'NONE', #289, #82, #166, .T. ) ;
#60 = FILL_AREA_STYLE_COLOUR ( '', #170 ) ;
#61 = CIRCLE ( 'NONE', #206, 0.1875000000000000278 ) ;
#62 = DIRECTION ( 'NONE',  ( -1.000000000000000000, 0.0000000000000000000, 1.224646799147352961E-16 ) ) ;
#63 = ADVANCED_FACE ( 'NONE', ( #293 ), #240, .F. ) ;
#64 = LINE ( 'NONE', #159, #216 ) ;
#65 = CARTESIAN_POINT ( 'NONE',  ( 0.1875000000000000833, 2.296212748401288650E-17, 0.8760633653411783461 ) ) ;
#66 = CONICAL_SURFACE ( 'NONE', #233, 0.1724999999999995981, 0.7853981633974357335 ) ;
#67 = SURFACE_STYLE_FILL_AREA ( #256 ) ;
#68 =( CONVERSION_BASED_UNIT ( 'INCH', #165 ) LENGTH_UNIT ( ) NAMED_UNIT ( #286 ) );
#69 = ORIENTED_EDGE ( 'NONE', *, *, #192, .F. ) ;
#70 = AXIS2_PLACEMENT_3D ( 'NONE', #225, #182, #135 ) ;
#71 = ADVANCED_FACE ( 'NONE', ( #243 ), #24, .T. ) ;
#72 = LINE ( 'NONE', #207, #190 ) ;
#73 = DIMENSIONAL_EXPONENTS ( 1.000000000000000000, 0.0000000000000000000, 0.0000000000000000000, 0.0000000000000000000, 0.0000000000000000000, 0.0000000000000000000, 0.0000000000000000000 ) ;
#74 = EDGE_LOOP ( 'NONE', ( #238, #266 ) ) ;
#75 = SHAPE_DEFINITION_REPRESENTATION ( #244, #181 ) ;
#76 = DIRECTION ( 'NONE',  ( 0.0000000000000000000, 0.0000000000000000000, -1.000000000000000000 ) ) ;
#77 = APPLICATION_PROTOCOL_DEFINITION ( 'draft international standard', 'automotive_design', 1998, #191 ) ;
#78 = AXIS2_PLACEMENT_3D ( 'NONE', #88, #158, #62 ) ;
#79 = DIRECTION ( 'NONE',  ( -0.1736481776669311916, 2.126576849575783316E-17, 0.9848077530122080203 ) ) ;
#80 = DIRECTION ( 'NONE',  ( -1.000000000000000000, 0.0000000000000000000, 1.224646799147352961E-16 ) ) ;
#81 = SURFACE_STYLE_USAGE ( .BOTH. , #211 ) ;
#82 = VERTEX_POINT ( 'NONE', #138 ) ;
#83 = DIRECTION ( 'NONE',  ( 1.224646799147353207E-16, 0.0000000000000000000, 1.000000000000000000 ) ) ;
#84 =( GEOMETRIC_REPRESENTATION_CONTEXT ( 3 ) GLOBAL_UNCERTAINTY_ASSIGNED_CONTEXT ( ( #122 ) ) GLOBAL_UNIT_ASSIGNED_CONTEXT ( ( #68, #167, #143 ) ) REPRESENTATION_CONTEXT ( 'NONE', 'WORKASPACE' ) );
#85 = PRODUCT_DEFINITION ( 'UNKNOWN', '', #131, #90 ) ;
#86 = CYLINDRICAL_SURFACE ( 'NONE', #162, 0.1875000000000000278 ) ;
#87 = DIRECTION ( 'NONE',  ( -1.000000000000000000, 0.0000000000000000000, 1.224646799147352961E-16 ) ) ;
#88 = CARTESIAN_POINT ( 'NONE',  ( 2.809237542898491532E-33, 0.0000000000000000000, 2.293916535652885596E-17 ) ) ;
#89 = EDGE_CURVE ( 'NONE', #193, #198, #201, .T. ) ;
#90 = PRODUCT_DEFINITION_CONTEXT ( 'detailed design', #191, 'design' ) ;
#91 = CARTESIAN_POINT ( 'NONE',  ( -0.1875000000000000278, 0.0000000000000000000, 2.484999999999999432 ) ) ;
#92 = DIRECTION ( 'NONE',  ( 0.0000000000000000000, 0.0000000000000000000, -1.000000000000000000 ) ) ;
#93 = CARTESIAN_POINT ( 'NONE',  ( -0.1875000000000000278, 0.0000000000000000000, 2.500000000000000000 ) ) ;
#94 = VECTOR ( 'NONE', #139, 39.37007874015748854 ) ;
#95 = DIRECTION ( 'NONE',  ( -0.0000000000000000000, -0.0000000000000000000, -1.000000000000000000 ) ) ;
#96 = ORIENTED_EDGE ( 'NONE', *, *, #253, .F. ) ;
#97 = DIRECTION ( 'NONE',  ( 1.000000000000000000, 0.0000000000000000000, 0.0000000000000000000 ) ) ;
#98 = ORIENTED_EDGE ( 'NONE', *, *, #133, .F. ) ;
#99 = VECTOR ( 'NONE', #95, 39.37007874015748143 ) ;
#100 =( LENGTH_UNIT ( ) NAMED_UNIT ( * ) SI_UNIT ( $, .METRE. ) );
#101 = EDGE_LOOP ( 'NONE', ( #218, #23, #69, #168 ) ) ;
#102 =( NAMED_UNIT ( * ) SI_UNIT ( $, .STERADIAN. ) SOLID_ANGLE_UNIT ( ) );
#103 = DIRECTION ( 'NONE',  ( -1.000000000000000000, 0.0000000000000000000, 0.0000000000000000000 ) ) ;
#104 = CARTESIAN_POINT ( 'NONE',  ( 0.0000000000000000000, 0.0000000000000000000, 0.0000000000000000000 ) ) ;
#105 = PRESENTATION_LAYER_ASSIGNMENT (  '', '', ( #43 ) ) ;
#106 = LINE ( 'NONE', #12, #55 ) ;
#107 = EDGE_CURVE ( 'NONE', #193, #2, #136, .T. ) ;
#108 = PRODUCT_CONTEXT ( 'NONE', #275, 'mechanical' ) ;
#109 = DIRECTION ( 'NONE',  ( -0.0000000000000000000, -0.0000000000000000000, -1.000000000000000000 ) ) ;
#110 = ORIENTED_EDGE ( 'NONE', *, *, #4, .T. ) ;
#111 = EDGE_CURVE ( 'NONE', #198, #128, #61, .T. ) ;
#112 = DIRECTION ( 'NONE',  ( -1.000000000000000000, 0.0000000000000000000, 1.224646799147352961E-16 ) ) ;
#113 = CIRCLE ( 'NONE', #189, 0.1873125000000000207 ) ;
#114 = CARTESIAN_POINT ( 'NONE',  ( 0.0000000000000000000, 0.0000000000000000000, 2.484999999999999432 ) ) ;
#115 = CYLINDRICAL_SURFACE ( 'NONE', #147, 0.1873124999999999929 ) ;
#116 = DIRECTION ( 'NONE',  ( -1.224646799147353207E-16, -0.0000000000000000000, -1.000000000000000000 ) ) ;
#117 = VECTOR ( 'NONE', #109, 39.37007874015748143 ) ;
#118 = DIRECTION ( 'NONE',  ( -1.000000000000000000, 0.0000000000000000000, 0.0000000000000000000 ) ) ;
#119 = CARTESIAN_POINT ( 'NONE',  ( 0.0000000000000000000, 0.0000000000000000000, 2.500000000000000000 ) ) ;
#120 = DIRECTION ( 'NONE',  ( 0.0000000000000000000, 0.0000000000000000000, -1.000000000000000000 ) ) ;
#121 = CARTESIAN_POINT ( 'NONE',  ( 1.071565949253934025E-16, 0.0000000000000000000, 0.8750000000000000000 ) ) ;
#122 = UNCERTAINTY_MEASURE_WITH_UNIT (LENGTH_MEASURE( 1.000000000000000082E-05 ), #68, 'distance_accuracy_value', 'NONE');
#123 = DIRECTION ( 'NONE',  ( -1.224646799147353207E-16, -0.0000000000000000000, -1.000000000000000000 ) ) ;
#124 = CIRCLE ( 'NONE', #129, 0.1875000000000000278 ) ;
#125 = PRESENTATION_LAYER_ASSIGNMENT (  '', '', ( #290 ) ) ;
#126 = CLOSED_SHELL ( 'NONE', ( #144, #31, #261, #45, #214, #239, #220, #71, #13, #63 ) ) ;
#127 = CARTESIAN_POINT ( 'NONE',  ( 0.0000000000000000000, 0.0000000000000000000, 2.500000000000000000 ) ) ;
#128 = VERTEX_POINT ( 'NONE', #91 ) ;
#129 = AXIS2_PLACEMENT_3D ( 'NONE', #236, #76, #172 ) ;
#130 = EDGE_LOOP ( 'NONE', ( #110, #260, #54, #287 ) ) ;
#131 = PRODUCT_DEFINITION_FORMATION_WITH_SPECIFIED_SOURCE ( 'ANY', '', #294, .NOT_KNOWN. ) ;
#132 = ORIENTED_EDGE ( 'NONE', *, *, #161, .F. ) ;
#133 = EDGE_CURVE ( 'NONE', #2, #193, #279, .T. ) ;
#134 = ORIENTED_EDGE ( 'NONE', *, *, #253, .T. ) ;
#135 = DIRECTION ( 'NONE',  ( 1.000000000000000000, 0.0000000000000000000, 0.0000000000000000000 ) ) ;
#136 = CIRCLE ( 'NONE', #70, 0.1724999999999995981 ) ;
#137 = VECTOR ( 'NONE', #123, 39.37007874015748143 ) ;
#138 = CARTESIAN_POINT ( 'NONE',  ( -0.1873124999999999929, 0.0000000000000000000, 4.587833071305771192E-17 ) ) ;
#139 = DIRECTION ( 'NONE',  ( 0.7071067811865385799, 8.659560562354823157E-17, -0.7071067811865563435 ) ) ;
#140 = CARTESIAN_POINT ( 'NONE',  ( 1.072868196215332272E-16, 0.0000000000000000000, 0.8760633653411783461 ) ) ;
#141 = DIRECTION ( 'NONE',  ( 1.000000000000000000, 0.0000000000000000000, 0.0000000000000000000 ) ) ;
#142 = EDGE_CURVE ( 'NONE', #82, #289, #51, .T. ) ;
#143 =( NAMED_UNIT ( * ) SI_UNIT ( $, .STERADIAN. ) SOLID_ANGLE_UNIT ( ) );
#144 = ADVANCED_FACE ( 'NONE', ( #272 ), #115, .T. ) ;
#145 = CARTESIAN_POINT ( 'NONE',  ( 1.072868196215332272E-16, 0.0000000000000000000, 0.8760633653411783461 ) ) ;
#146 =( NAMED_UNIT ( * ) PLANE_ANGLE_UNIT ( ) SI_UNIT ( $, .RADIAN. ) );
#147 = AXIS2_PLACEMENT_3D ( 'NONE', #223, #271, #87 ) ;
#148 = FACE_OUTER_BOUND ( 'NONE', #35, .T. ) ;
#149 = DIRECTION ( 'NONE',  ( -1.224646799147353207E-16, -0.0000000000000000000, -1.000000000000000000 ) ) ;
#150 = ORIENTED_EDGE ( 'NONE', *, *, #157, .T. ) ;
#151 = CIRCLE ( 'NONE', #230, 0.1875000000000000278 ) ;
#152 = FACE_OUTER_BOUND ( 'NONE', #281, .T. ) ;
#153 = VERTEX_POINT ( 'NONE', #65 ) ;
#154 = SURFACE_STYLE_FILL_AREA ( #58 ) ;
#155 = SURFACE_SIDE_STYLE ('',( #154 ) ) ;
#156 = AXIS2_PLACEMENT_3D ( 'NONE', #18, #15, #180 ) ;
#157 = EDGE_CURVE ( 'NONE', #257, #82, #64, .T. ) ;
#158 = DIRECTION ( 'NONE',  ( -1.224646799147353207E-16, -0.0000000000000000000, -1.000000000000000000 ) ) ;
#159 = CARTESIAN_POINT ( 'NONE',  ( -0.1873124999999999929, 0.0000000000000000000, 2.293916535652885596E-17 ) ) ;
#160 = DIRECTION ( 'NONE',  ( -1.224646799147353207E-16, -0.0000000000000000000, -1.000000000000000000 ) ) ;
#161 = EDGE_CURVE ( 'NONE', #10, #153, #16, .T. ) ;
#162 = AXIS2_PLACEMENT_3D ( 'NONE', #44, #226, #118 ) ;
#163 = DIRECTION ( 'NONE',  ( -1.000000000000000000, 0.0000000000000000000, 0.0000000000000000000 ) ) ;
#164 = ORIENTED_EDGE ( 'NONE', *, *, #251, .T. ) ;
#165 = LENGTH_MEASURE_WITH_UNIT ( LENGTH_MEASURE( 0.02539999999999999897 ), #227 );
#166 = CIRCLE ( 'NONE', #78, 0.1873124999999999929 ) ;
#167 =( NAMED_UNIT ( * ) PLANE_ANGLE_UNIT ( ) SI_UNIT ( $, .RADIAN. ) );
#168 = ORIENTED_EDGE ( 'NONE', *, *, #288, .F. ) ;
#169 = ORIENTED_EDGE ( 'NONE', *, *, #20, .F. ) ;
#170 = COLOUR_RGB ( '',0.7921568627450980005, 0.8196078431372548767, 0.9333333333333333481 ) ;
#171 = ORIENTED_EDGE ( 'NONE', *, *, #111, .F. ) ;
#172 = DIRECTION ( 'NONE',  ( 1.000000000000000000, 0.0000000000000000000, 0.0000000000000000000 ) ) ;
#173 = ORIENTED_EDGE ( 'NONE', *, *, #133, .T. ) ;
#174 =( CONVERSION_BASED_UNIT ( 'INCH', #6 ) LENGTH_UNIT ( ) NAMED_UNIT ( #73 ) );
#175 = CONICAL_SURFACE ( 'NONE', #295, 0.1873125000000000207, 0.1745329251994338915 ) ;
#176 = LINE ( 'NONE', #32, #117 ) ;
#177 = DIRECTION ( 'NONE',  ( -1.000000000000000000, 0.0000000000000000000, 0.0000000000000000000 ) ) ;
#178 = CARTESIAN_POINT ( 'NONE',  ( 0.1873125000000001317, 0.0000000000000000000, 0.8750000000000000000 ) ) ;
#179 = CARTESIAN_POINT ( 'NONE',  ( 0.1724999999999995981, 2.112515728529179297E-17, 2.500000000000000000 ) ) ;
#180 = DIRECTION ( 'NONE',  ( 1.000000000000000000, 0.0000000000000000000, 0.0000000000000000000 ) ) ;
#181 = ADVANCED_BREP_SHAPE_REPRESENTATION ( 'Micro_GEM-375-2X', ( #228, #248 ), #284 ) ;
#182 = DIRECTION ( 'NONE',  ( 0.0000000000000000000, 0.0000000000000000000, 1.000000000000000000 ) ) ;
#183 =( LENGTH_UNIT ( ) NAMED_UNIT ( * ) SI_UNIT ( $, .METRE. ) );
#184 = EDGE_LOOP ( 'NONE', ( #173, #255 ) ) ;
#185 =( NAMED_UNIT ( * ) PLANE_ANGLE_UNIT ( ) SI_UNIT ( $, .RADIAN. ) );
#186 = FACE_OUTER_BOUND ( 'NONE', #184, .T. ) ;
#187 = CARTESIAN_POINT ( 'NONE',  ( 0.1873124999999999929, 2.293916535652885596E-17, -2.293916535652885596E-17 ) ) ;
#188 = EDGE_LOOP ( 'NONE', ( #48, #98, #262, #171 ) ) ;
#189 = AXIS2_PLACEMENT_3D ( 'NONE', #283, #52, #217 ) ;
#190 = VECTOR ( 'NONE', #5, 39.37007874015748854 ) ;
#191 = APPLICATION_CONTEXT ( 'automotive_design' ) ;
#192 = EDGE_CURVE ( 'NONE', #196, #153, #38, .T. ) ;
#193 = VERTEX_POINT ( 'NONE', #297 ) ;
#194 = EDGE_LOOP ( 'NONE', ( #212, #278, #169, #57 ) ) ;
#195 = PRESENTATION_STYLE_ASSIGNMENT (( #81 ) ) ;
#196 = VERTEX_POINT ( 'NONE', #200 ) ;
#197 = ORIENTED_EDGE ( 'NONE', *, *, #288, .T. ) ;
#198 = VERTEX_POINT ( 'NONE', #246 ) ;
#199 = DIRECTION ( 'NONE',  ( 0.0000000000000000000, 0.0000000000000000000, 1.000000000000000000 ) ) ;
#200 = CARTESIAN_POINT ( 'NONE',  ( -0.1874999999999999167, 0.0000000000000000000, 0.8760633653411783461 ) ) ;
#201 = LINE ( 'NONE', #179, #94 ) ;
#202 = CONICAL_SURFACE ( 'NONE', #247, 0.1724999999999995981, 0.7853981633974357335 ) ;
#203 = FACE_OUTER_BOUND ( 'NONE', #188, .T. ) ;
#204 = DIRECTION ( 'NONE',  ( -1.224646799147353207E-16, -0.0000000000000000000, -1.000000000000000000 ) ) ;
#205 = LENGTH_MEASURE_WITH_UNIT ( LENGTH_MEASURE( 0.02539999999999999897 ), #183 );
#206 = AXIS2_PLACEMENT_3D ( 'NONE', #114, #296, #141 ) ;
#207 = CARTESIAN_POINT ( 'NONE',  ( -0.1724999999999995981, 0.0000000000000000000, 2.500000000000000000 ) ) ;
#208 = ORIENTED_EDGE ( 'NONE', *, *, #192, .T. ) ;
#209 = UNCERTAINTY_MEASURE_WITH_UNIT (LENGTH_MEASURE( 1.000000000000000082E-05 ), #174, 'distance_accuracy_value', 'NONE');
#210 = AXIS2_PLACEMENT_3D ( 'NONE', #270, #116, #112 ) ;
#211 = SURFACE_SIDE_STYLE ('',( #67 ) ) ;
#212 = ORIENTED_EDGE ( 'NONE', *, *, #107, .F. ) ;
#213 = DIRECTION ( 'NONE',  ( 0.0000000000000000000, 0.0000000000000000000, 1.000000000000000000 ) ) ;
#214 = ADVANCED_FACE ( 'NONE', ( #292 ), #86, .T. ) ;
#215 = CARTESIAN_POINT ( 'NONE',  ( -0.1724999999999995981, 0.0000000000000000000, 2.500000000000000000 ) ) ;
#216 = VECTOR ( 'NONE', #245, 39.37007874015748143 ) ;
#217 = DIRECTION ( 'NONE',  ( -1.000000000000000000, 0.0000000000000000000, 0.0000000000000000000 ) ) ;
#218 = ORIENTED_EDGE ( 'NONE', *, *, #20, .T. ) ;
#219 = ORIENTED_EDGE ( 'NONE', *, *, #59, .F. ) ;
#220 = ADVANCED_FACE ( 'NONE', ( #203 ), #202, .T. ) ;
#221 = AXIS2_PLACEMENT_3D ( 'NONE', #285, #149, #80 ) ;
#222 = CIRCLE ( 'NONE', #259, 0.1873125000000000207 ) ;
#223 = CARTESIAN_POINT ( 'NONE',  ( 0.0000000000000000000, 0.0000000000000000000, 0.0000000000000000000 ) ) ;
#224 = CARTESIAN_POINT ( 'NONE',  ( 1.071565949253934025E-16, 0.0000000000000000000, 0.8750000000000000000 ) ) ;
#225 = CARTESIAN_POINT ( 'NONE',  ( 0.0000000000000000000, 0.0000000000000000000, 2.500000000000000000 ) ) ;
#226 = DIRECTION ( 'NONE',  ( -0.0000000000000000000, -0.0000000000000000000, -1.000000000000000000 ) ) ;
#227 =( LENGTH_UNIT ( ) NAMED_UNIT ( * ) SI_UNIT ( $, .METRE. ) );
#228 = MANIFOLD_SOLID_BREP ( 'Cut-Revolve1', #126 ) ;
#229 =( CONVERSION_BASED_UNIT ( 'INCH', #205 ) LENGTH_UNIT ( ) NAMED_UNIT ( #9 ) );
#230 = AXIS2_PLACEMENT_3D ( 'NONE', #145, #204, #97 ) ;
#231 = CARTESIAN_POINT ( 'NONE',  ( 0.1873124999999999929, 2.293916535652885596E-17, 0.0000000000000000000 ) ) ;
#232 = DIRECTION ( 'NONE',  ( 0.0000000000000000000, 0.0000000000000000000, 1.000000000000000000 ) ) ;
#233 = AXIS2_PLACEMENT_3D ( 'NONE', #46, #120, #277 ) ;
#234 = FACE_OUTER_BOUND ( 'NONE', #101, .T. ) ;
#235 = ORIENTED_EDGE ( 'NONE', *, *, #251, .F. ) ;
#236 = CARTESIAN_POINT ( 'NONE',  ( 0.0000000000000000000, 0.0000000000000000000, 2.484999999999999432 ) ) ;
#237 = CYLINDRICAL_SURFACE ( 'NONE', #221, 0.1873124999999999929 ) ;
#238 = ORIENTED_EDGE ( 'NONE', *, *, #142, .T. ) ;
#239 = ADVANCED_FACE ( 'NONE', ( #186 ), #267, .T. ) ;
#240 = PLANE ( 'NONE',  #33 ) ;
#241 = VECTOR ( 'NONE', #41, 39.37007874015748143 ) ;
#242 = SURFACE_STYLE_USAGE ( .BOTH. , #155 ) ;
#243 = FACE_OUTER_BOUND ( 'NONE', #36, .T. ) ;
#244 = PRODUCT_DEFINITION_SHAPE ( 'NONE', 'NONE',  #85 ) ;
#245 = DIRECTION ( 'NONE',  ( -1.224646799147353207E-16, -0.0000000000000000000, -1.000000000000000000 ) ) ;
#246 = CARTESIAN_POINT ( 'NONE',  ( 0.1875000000000000278, 2.296212748401287726E-17, 2.484999999999999432 ) ) ;
#247 = AXIS2_PLACEMENT_3D ( 'NONE', #268, #92, #177 ) ;
#248 = AXIS2_PLACEMENT_3D ( 'NONE', #104, #213, #26 ) ;
#249 = FACE_OUTER_BOUND ( 'NONE', #194, .T. ) ;
#250 = ORIENTED_EDGE ( 'NONE', *, *, #4, .F. ) ;
#251 = EDGE_CURVE ( 'NONE', #10, #257, #222, .T. ) ;
#252 = MECHANICAL_DESIGN_GEOMETRIC_PRESENTATION_REPRESENTATION (  '', ( #290 ), #84 ) ;
#253 = EDGE_CURVE ( 'NONE', #153, #196, #151, .T. ) ;
#254 =( NAMED_UNIT ( * ) SI_UNIT ( $, .STERADIAN. ) SOLID_ANGLE_UNIT ( ) );
#255 = ORIENTED_EDGE ( 'NONE', *, *, #107, .T. ) ;
#256 = FILL_AREA_STYLE ('',( #280 ) ) ;
#257 = VERTEX_POINT ( 'NONE', #25 ) ;
#258 = DIRECTION ( 'NONE',  ( 1.000000000000000000, 0.0000000000000000000, 0.0000000000000000000 ) ) ;
#259 = AXIS2_PLACEMENT_3D ( 'NONE', #121, #22, #163 ) ;
#260 = ORIENTED_EDGE ( 'NONE', *, *, #298, .T. ) ;
#261 = ADVANCED_FACE ( 'NONE', ( #249 ), #66, .T. ) ;
#262 = ORIENTED_EDGE ( 'NONE', *, *, #265, .T. ) ;
#263 = UNCERTAINTY_MEASURE_WITH_UNIT (LENGTH_MEASURE( 1.000000000000000082E-05 ), #229, 'distance_accuracy_value', 'NONE');
#264 = ORIENTED_EDGE ( 'NONE', *, *, #7, .F. ) ;
#265 = EDGE_CURVE ( 'NONE', #2, #128, #72, .T. ) ;
#266 = ORIENTED_EDGE ( 'NONE', *, *, #59, .T. ) ;
#267 = PLANE ( 'NONE',  #56 ) ;
#268 = CARTESIAN_POINT ( 'NONE',  ( 0.0000000000000000000, 0.0000000000000000000, 2.500000000000000000 ) ) ;
#269 = MECHANICAL_DESIGN_GEOMETRIC_PRESENTATION_REPRESENTATION (  '', ( #43 ), #34 ) ;
#270 = CARTESIAN_POINT ( 'NONE',  ( 2.809237542898491532E-33, 0.0000000000000000000, 2.293916535652885596E-17 ) ) ;
#271 = DIRECTION ( 'NONE',  ( -1.224646799147353207E-16, -0.0000000000000000000, -1.000000000000000000 ) ) ;
#272 = FACE_OUTER_BOUND ( 'NONE', #130, .T. ) ;
#273 = APPLICATION_PROTOCOL_DEFINITION ( 'draft international standard', 'automotive_design', 1998, #275 ) ;
#274 = AXIS2_PLACEMENT_3D ( 'NONE', #224, #39, #40 ) ;
#275 = APPLICATION_CONTEXT ( 'automotive_design' ) ;
#276 = ORIENTED_EDGE ( 'NONE', *, *, #42, .F. ) ;
#277 = DIRECTION ( 'NONE',  ( -1.000000000000000000, 0.0000000000000000000, 0.0000000000000000000 ) ) ;
#278 = ORIENTED_EDGE ( 'NONE', *, *, #89, .T. ) ;
#279 = CIRCLE ( 'NONE', #156, 0.1724999999999995981 ) ;
#280 = FILL_AREA_STYLE_COLOUR ( '', #11 ) ;
#281 = EDGE_LOOP ( 'NONE', ( #50, #164, #150, #219 ) ) ;
#282 = CARTESIAN_POINT ( 'NONE',  ( 0.1873125000000001317, 0.0000000000000000000, 0.8750000000000000000 ) ) ;
#283 = CARTESIAN_POINT ( 'NONE',  ( 1.071565949253934025E-16, 0.0000000000000000000, 0.8750000000000000000 ) ) ;
#284 =( GEOMETRIC_REPRESENTATION_CONTEXT ( 3 ) GLOBAL_UNCERTAINTY_ASSIGNED_CONTEXT ( ( #263 ) ) GLOBAL_UNIT_ASSIGNED_CONTEXT ( ( #229, #185, #254 ) ) REPRESENTATION_CONTEXT ( 'NONE', 'WORKASPACE' ) );
#285 = CARTESIAN_POINT ( 'NONE',  ( 0.0000000000000000000, 0.0000000000000000000, 0.0000000000000000000 ) ) ;
#286 = DIMENSIONAL_EXPONENTS ( 1.000000000000000000, 0.0000000000000000000, 0.0000000000000000000, 0.0000000000000000000, 0.0000000000000000000, 0.0000000000000000000, 0.0000000000000000000 ) ;
#287 = ORIENTED_EDGE ( 'NONE', *, *, #157, .F. ) ;
#288 = EDGE_CURVE ( 'NONE', #128, #196, #3, .T. ) ;
#289 = VERTEX_POINT ( 'NONE', #231 ) ;
#290 = STYLED_ITEM ( 'NONE', ( #17 ), #228 ) ;
#291 = DIRECTION ( 'NONE',  ( 1.000000000000000000, 0.0000000000000000000, 0.0000000000000000000 ) ) ;
#292 = FACE_OUTER_BOUND ( 'NONE', #47, .T. ) ;
#293 = FACE_OUTER_BOUND ( 'NONE', #74, .T. ) ;
#294 = PRODUCT ( 'Micro_GEM-375-2X', 'Micro_GEM-375-2X', '', ( #108 ) ) ;
#295 = AXIS2_PLACEMENT_3D ( 'NONE', #53, #83, #258 ) ;
#296 = DIRECTION ( 'NONE',  ( 0.0000000000000000000, 0.0000000000000000000, -1.000000000000000000 ) ) ;
#297 = CARTESIAN_POINT ( 'NONE',  ( 0.1724999999999995981, 2.204364238465233357E-17, 2.500000000000000000 ) ) ;
#298 = EDGE_CURVE ( 'NONE', #10, #289, #299, .T. ) ;
#299 = LINE ( 'NONE', #187, #137 ) ;
ENDSEC;
END-ISO-10303-21;
