ISO-10303-21;
HEADER;
FILE_DESCRIPTION (( 'STEP AP214' ),
    '1' );
FILE_NAME ('Micro_BMRM-020-2.STEP',
    '2021-09-03T14:34:40',
    ( '' ),
    ( '' ),
    'SwSTEP 2.0',
    'SolidWorks 2020',
    '' );
FILE_SCHEMA (( 'AUTOMOTIVE_DESIGN' ));
ENDSEC;

DATA;
#1 = DIRECTION ( 'NONE',  ( 1.000000000000000000, 0.0000000000000000000, 0.0000000000000000000 ) ) ;
#2 = CARTESIAN_POINT ( 'NONE',  ( 0.07874000000000004607, 9.642868896486264672E-18, 0.4597216436035863052 ) ) ;
#3 = FILL_AREA_STYLE_COLOUR ( '', #50 ) ;
#4 = CIRCLE ( 'NONE', #32, 0.03933062999999999837 ) ;
#5 = CIRCLE ( 'NONE', #204, 0.07874000000000000443 ) ;
#6 = CARTESIAN_POINT ( 'NONE',  ( 4.816613013794885432E-18, 0.0000000000000000000, 0.03933062999999999837 ) ) ;
#7 = DIRECTION ( 'NONE',  ( 0.0000000000000000000, -1.000000000000000000, 0.0000000000000000000 ) ) ;
#8 =( LENGTH_UNIT ( ) NAMED_UNIT ( * ) SI_UNIT ( $, .METRE. ) );
#9 = ORIENTED_EDGE ( 'NONE', *, *, #325, .T. ) ;
#10 = CARTESIAN_POINT ( 'NONE',  ( -0.03933062999999997061, 4.816613013794885432E-18, 0.2362200000000000133 ) ) ;
#11 = STYLED_ITEM ( 'NONE', ( #215 ), #202 ) ;
#12 = LENGTH_MEASURE_WITH_UNIT ( LENGTH_MEASURE( 0.02539999999999999897 ), #8 );
#13 = EDGE_LOOP ( 'NONE', ( #89, #313, #180, #252 ) ) ;
#14 = DIRECTION ( 'NONE',  ( -1.224646799147353207E-16, -0.0000000000000000000, -1.000000000000000000 ) ) ;
#15 = ORIENTED_EDGE ( 'NONE', *, *, #151, .T. ) ;
#16 = CIRCLE ( 'NONE', #38, 0.06374000000000018540 ) ;
#17 = EDGE_CURVE ( 'NONE', #249, #91, #46, .T. ) ;
#18 = EDGE_LOOP ( 'NONE', ( #122, #203, #148, #268 ) ) ;
#19 =( CONVERSION_BASED_UNIT ( 'INCH', #67 ) LENGTH_UNIT ( ) NAMED_UNIT ( #253 ) );
#20 = DIRECTION ( 'NONE',  ( -1.000000000000000000, 0.0000000000000000000, 0.0000000000000000000 ) ) ;
#21 = CARTESIAN_POINT ( 'NONE',  ( -0.03933062999999999837, 0.0000000000000000000, 4.816613013794885432E-18 ) ) ;
#22 = ORIENTED_EDGE ( 'NONE', *, *, #23, .F. ) ;
#23 = EDGE_CURVE ( 'NONE', #91, #224, #228, .T. ) ;
#24 = DIRECTION ( 'NONE',  ( 0.0000000000000000000, 0.0000000000000000000, -1.000000000000000000 ) ) ;
#25 = LENGTH_MEASURE_WITH_UNIT ( LENGTH_MEASURE( 0.02539999999999999897 ), #156 );
#26 = PRODUCT_DEFINITION_SHAPE ( 'NONE', 'NONE',  #230 ) ;
#27 = EDGE_CURVE ( 'NONE', #64, #36, #317, .T. ) ;
#28 = DIRECTION ( 'NONE',  ( 0.0000000000000000000, 0.0000000000000000000, -1.000000000000000000 ) ) ;
#29 = ADVANCED_FACE ( 'NONE', ( #257 ), #125, .T. ) ;
#30 = CARTESIAN_POINT ( 'NONE',  ( 0.0000000000000000000, 0.0000000000000000000, 1.968503999999999809 ) ) ;
#31 = CARTESIAN_POINT ( 'NONE',  ( 0.0000000000000000000, 0.0000000000000000000, 1.968503999999999809 ) ) ;
#32 = AXIS2_PLACEMENT_3D ( 'NONE', #165, #239, #185 ) ;
#33 = LINE ( 'NONE', #10, #306 ) ;
#34 = VERTEX_POINT ( 'NONE', #98 ) ;
#35 = SURFACE_SIDE_STYLE ('',( #194 ) ) ;
#36 = VERTEX_POINT ( 'NONE', #2 ) ;
#37 = DIRECTION ( 'NONE',  ( -1.000000000000000000, 0.0000000000000000000, 1.224646799147352961E-16 ) ) ;
#38 = AXIS2_PLACEMENT_3D ( 'NONE', #30, #107, #77 ) ;
#39 = CARTESIAN_POINT ( 'NONE',  ( 0.03933063000000001919, 0.0000000000000000000, 0.2362200000000000133 ) ) ;
#40 = ADVANCED_FACE ( 'NONE', ( #303 ), #283, .T. ) ;
#41 = EDGE_LOOP ( 'NONE', ( #68, #167, #22 ) ) ;
#42 = AXIS2_PLACEMENT_3D ( 'NONE', #290, #14, #59 ) ;
#43 = CARTESIAN_POINT ( 'NONE',  ( 5.629966393378922948E-17, 0.0000000000000000000, 0.4597216436035863052 ) ) ;
#44 = DIRECTION ( 'NONE',  ( 1.224646799147353207E-16, 0.0000000000000000000, 1.000000000000000000 ) ) ;
#45 = CONICAL_SURFACE ( 'NONE', #197, 0.03933062999999999837, 0.1745329251994339470 ) ;
#46 = LINE ( 'NONE', #21, #176 ) ;
#47 = FACE_OUTER_BOUND ( 'NONE', #92, .T. ) ;
#48 = DIRECTION ( 'NONE',  ( 1.000000000000000000, 0.0000000000000000000, 0.0000000000000000000 ) ) ;
#49 = DIRECTION ( 'NONE',  ( -1.224646799147353207E-16, -0.0000000000000000000, -1.000000000000000000 ) ) ;
#50 = COLOUR_RGB ( '',0.7921568627450980005, 0.8196078431372548767, 0.9333333333333333481 ) ;
#51 = DIRECTION ( 'NONE',  ( -0.0000000000000000000, -0.0000000000000000000, -1.000000000000000000 ) ) ;
#52 = EDGE_CURVE ( 'NONE', #153, #143, #101, .T. ) ;
#53 = DIRECTION ( 'NONE',  ( 1.000000000000000000, 0.0000000000000000000, 0.0000000000000000000 ) ) ;
#54 = FACE_OUTER_BOUND ( 'NONE', #141, .T. ) ;
#55 = PRESENTATION_LAYER_ASSIGNMENT (  '', '', ( #11 ) ) ;
#56 = VECTOR ( 'NONE', #155, 39.37007874015748143 ) ;
#57 = APPLICATION_PROTOCOL_DEFINITION ( 'draft international standard', 'automotive_design', 1998, #275 ) ;
#58 = ADVANCED_FACE ( 'NONE', ( #138 ), #45, .T. ) ;
#59 = DIRECTION ( 'NONE',  ( 1.000000000000000000, 0.0000000000000000000, 0.0000000000000000000 ) ) ;
#60 =( NAMED_UNIT ( * ) PLANE_ANGLE_UNIT ( ) SI_UNIT ( $, .RADIAN. ) );
#61 = EDGE_CURVE ( 'NONE', #224, #91, #4, .T. ) ;
#62 = AXIS2_PLACEMENT_3D ( 'NONE', #157, #259, #37 ) ;
#63 = ORIENTED_EDGE ( 'NONE', *, *, #52, .F. ) ;
#64 = VERTEX_POINT ( 'NONE', #158 ) ;
#65 = EDGE_LOOP ( 'NONE', ( #117, #63, #271, #322 ) ) ;
#66 = ORIENTED_EDGE ( 'NONE', *, *, #151, .F. ) ;
#67 = LENGTH_MEASURE_WITH_UNIT ( LENGTH_MEASURE( 0.02539999999999999897 ), #267 );
#68 = ORIENTED_EDGE ( 'NONE', *, *, #325, .F. ) ;
#69 = ADVANCED_FACE ( 'NONE', ( #216 ), #136, .T. ) ;
#70 = CARTESIAN_POINT ( 'NONE',  ( 0.0000000000000000000, 0.0000000000000000000, 1.953504000000000129 ) ) ;
#71 = VECTOR ( 'NONE', #321, 39.37007874015748854 ) ;
#72 = DIRECTION ( 'NONE',  ( -1.000000000000000000, 0.0000000000000000000, 0.0000000000000000000 ) ) ;
#73 = FACE_OUTER_BOUND ( 'NONE', #256, .T. ) ;
#74 = DIRECTION ( 'NONE',  ( 1.224646799147353207E-16, 0.0000000000000000000, 1.000000000000000000 ) ) ;
#75 = UNCERTAINTY_MEASURE_WITH_UNIT (LENGTH_MEASURE( 1.000000000000000082E-05 ), #196, 'distance_accuracy_value', 'NONE');
#76 = AXIS2_PLACEMENT_3D ( 'NONE', #6, #310, #85 ) ;
#77 = DIRECTION ( 'NONE',  ( 1.000000000000000000, 0.0000000000000000000, 0.0000000000000000000 ) ) ;
#78 = DIRECTION ( 'NONE',  ( 0.0000000000000000000, 0.0000000000000000000, -1.000000000000000000 ) ) ;
#79 = CARTESIAN_POINT ( 'NONE',  ( 0.0000000000000000000, 0.0000000000000000000, 1.968503999999999809 ) ) ;
#80 = DIRECTION ( 'NONE',  ( 0.0000000000000000000, 1.000000000000000000, 0.0000000000000000000 ) ) ;
#81 = FILL_AREA_STYLE ('',( #193 ) ) ;
#82 = CONICAL_SURFACE ( 'NONE', #315, 0.06374000000000018540, 0.7853981633974522758 ) ;
#83 = PRESENTATION_STYLE_ASSIGNMENT (( #269 ) ) ;
#84 = ORIENTED_EDGE ( 'NONE', *, *, #316, .T. ) ;
#85 = DIRECTION ( 'NONE',  ( 1.000000000000000000, 0.0000000000000000000, 0.0000000000000000000 ) ) ;
#86 = ADVANCED_FACE ( 'NONE', ( #242 ), #302, .T. ) ;
#87 = CARTESIAN_POINT ( 'NONE',  ( 0.03933063000000001919, 0.0000000000000000000, 0.2362200000000000133 ) ) ;
#88 = VECTOR ( 'NONE', #51, 39.37007874015748143 ) ;
#89 = ORIENTED_EDGE ( 'NONE', *, *, #27, .F. ) ;
#90 = SHAPE_DEFINITION_REPRESENTATION ( #26, #113 ) ;
#91 = VERTEX_POINT ( 'NONE', #161 ) ;
#92 = EDGE_LOOP ( 'NONE', ( #296, #96, #233, #97 ) ) ;
#93 = APPLICATION_PROTOCOL_DEFINITION ( 'draft international standard', 'automotive_design', 1998, #214 ) ;
#94 = CARTESIAN_POINT ( 'NONE',  ( -0.06374000000000018540, 0.0000000000000000000, 1.968503999999999809 ) ) ;
#95 = ORIENTED_EDGE ( 'NONE', *, *, #311, .F. ) ;
#96 = ORIENTED_EDGE ( 'NONE', *, *, #127, .T. ) ;
#97 = ORIENTED_EDGE ( 'NONE', *, *, #23, .T. ) ;
#98 = CARTESIAN_POINT ( 'NONE',  ( -0.07873999999999994892, 0.0000000000000000000, 0.4597216436035863052 ) ) ;
#99 = CARTESIAN_POINT ( 'NONE',  ( 0.0000000000000000000, 0.0000000000000000000, 0.0000000000000000000 ) ) ;
#100 = CIRCLE ( 'NONE', #42, 0.07874000000000000443 ) ;
#101 = CIRCLE ( 'NONE', #217, 0.06374000000000018540 ) ;
#102 = DIRECTION ( 'NONE',  ( -1.000000000000000000, 0.0000000000000000000, 0.0000000000000000000 ) ) ;
#103 = CARTESIAN_POINT ( 'NONE',  ( 0.0000000000000000000, 0.0000000000000000000, 1.968503999999999809 ) ) ;
#104 = EDGE_CURVE ( 'NONE', #128, #224, #219, .T. ) ;
#105 = LINE ( 'NONE', #288, #88 ) ;
#106 = CARTESIAN_POINT ( 'NONE',  ( 4.816613013794885432E-18, 0.0000000000000000000, 0.03933062999999999837 ) ) ;
#107 = DIRECTION ( 'NONE',  ( 0.0000000000000000000, 0.0000000000000000000, 1.000000000000000000 ) ) ;
#108 = CARTESIAN_POINT ( 'NONE',  ( 0.0000000000000000000, 0.0000000000000000000, 1.953504000000000129 ) ) ;
#109 = STYLED_ITEM ( 'NONE', ( #83 ), #113 ) ;
#110 = DIRECTION ( 'NONE',  ( 1.224646799147353207E-16, 1.000000000000000000, -0.0000000000000000000 ) ) ;
#111 = EDGE_CURVE ( 'NONE', #143, #153, #16, .T. ) ;
#112 = ORIENTED_EDGE ( 'NONE', *, *, #104, .F. ) ;
#113 = ADVANCED_BREP_SHAPE_REPRESENTATION ( 'Micro_BMRM-020-2', ( #202, #198 ), #286 ) ;
#114 =( GEOMETRIC_REPRESENTATION_CONTEXT ( 3 ) GLOBAL_UNCERTAINTY_ASSIGNED_CONTEXT ( ( #282 ) ) GLOBAL_UNIT_ASSIGNED_CONTEXT ( ( #135, #159, #186 ) ) REPRESENTATION_CONTEXT ( 'NONE', 'WORKASPACE' ) );
#115 = ORIENTED_EDGE ( 'NONE', *, *, #316, .F. ) ;
#116 = DIRECTION ( 'NONE',  ( 1.000000000000000000, 0.0000000000000000000, 0.0000000000000000000 ) ) ;
#117 = ORIENTED_EDGE ( 'NONE', *, *, #189, .F. ) ;
#118 = CARTESIAN_POINT ( 'NONE',  ( -0.07874000000000000443, 0.0000000000000000000, 1.953504000000000129 ) ) ;
#119 = ORIENTED_EDGE ( 'NONE', *, *, #213, .F. ) ;
#120 = VECTOR ( 'NONE', #164, 39.37007874015748143 ) ;
#121 = ADVANCED_FACE ( 'NONE', ( #47 ), #190, .T. ) ;
#122 = ORIENTED_EDGE ( 'NONE', *, *, #111, .F. ) ;
#123 = FACE_OUTER_BOUND ( 'NONE', #41, .T. ) ;
#124 = DIRECTION ( 'NONE',  ( -1.224646799147353207E-16, -0.0000000000000000000, -1.000000000000000000 ) ) ;
#125 = PLANE ( 'NONE',  #251 ) ;
#126 = CIRCLE ( 'NONE', #232, 0.03933062999999999837 ) ;
#127 = EDGE_CURVE ( 'NONE', #179, #249, #298, .T. ) ;
#128 = VERTEX_POINT ( 'NONE', #134 ) ;
#129 = CARTESIAN_POINT ( 'NONE',  ( 0.0000000000000000000, 0.0000000000000000000, 1.968503999999999809 ) ) ;
#130 = DIRECTION ( 'NONE',  ( 1.000000000000000000, 0.0000000000000000000, 0.0000000000000000000 ) ) ;
#131 = CIRCLE ( 'NONE', #178, 0.03933062999999999837 ) ;
#132 = SPHERICAL_SURFACE ( 'NONE', #255, 0.03933062999999999837 ) ;
#133 = DIRECTION ( 'NONE',  ( 1.224646799147353207E-16, 0.0000000000000000000, 1.000000000000000000 ) ) ;
#134 = CARTESIAN_POINT ( 'NONE',  ( 7.224919520692328148E-18, 0.0000000000000000000, 0.0000000000000000000 ) ) ;
#135 =( CONVERSION_BASED_UNIT ( 'INCH', #25 ) LENGTH_UNIT ( ) NAMED_UNIT ( #229 ) );
#136 = CONICAL_SURFACE ( 'NONE', #227, 0.06374000000000018540, 0.7853981633974522758 ) ;
#137 =( GEOMETRIC_REPRESENTATION_CONTEXT ( 3 ) GLOBAL_UNCERTAINTY_ASSIGNED_CONTEXT ( ( #301 ) ) GLOBAL_UNIT_ASSIGNED_CONTEXT ( ( #19, #152, #248 ) ) REPRESENTATION_CONTEXT ( 'NONE', 'WORKASPACE' ) );
#138 = FACE_OUTER_BOUND ( 'NONE', #300, .T. ) ;
#139 = ORIENTED_EDGE ( 'NONE', *, *, #311, .T. ) ;
#140 = DIRECTION ( 'NONE',  ( -0.0000000000000000000, -0.0000000000000000000, -1.000000000000000000 ) ) ;
#141 = EDGE_LOOP ( 'NONE', ( #112, #9, #210 ) ) ;
#142 = FACE_OUTER_BOUND ( 'NONE', #18, .T. ) ;
#143 = VERTEX_POINT ( 'NONE', #238 ) ;
#144 = ORIENTED_EDGE ( 'NONE', *, *, #52, .T. ) ;
#145 = CARTESIAN_POINT ( 'NONE',  ( 0.0000000000000000000, 0.0000000000000000000, 0.0000000000000000000 ) ) ;
#146 = DIRECTION ( 'NONE',  ( -1.224646799147353207E-16, -0.0000000000000000000, -1.000000000000000000 ) ) ;
#147 = AXIS2_PLACEMENT_3D ( 'NONE', #99, #49, #237 ) ;
#148 = ORIENTED_EDGE ( 'NONE', *, *, #226, .F. ) ;
#149 = EDGE_CURVE ( 'NONE', #153, #244, #309, .T. ) ;
#150 = CARTESIAN_POINT ( 'NONE',  ( 2.892860668945878169E-17, 0.0000000000000000000, 0.2362200000000000133 ) ) ;
#151 = EDGE_CURVE ( 'NONE', #34, #36, #264, .T. ) ;
#152 =( NAMED_UNIT ( * ) PLANE_ANGLE_UNIT ( ) SI_UNIT ( $, .RADIAN. ) );
#153 = VERTEX_POINT ( 'NONE', #199 ) ;
#154 = MECHANICAL_DESIGN_GEOMETRIC_PRESENTATION_REPRESENTATION (  '', ( #109 ), #137 ) ;
#155 = DIRECTION ( 'NONE',  ( -0.0000000000000000000, -0.0000000000000000000, -1.000000000000000000 ) ) ;
#156 =( LENGTH_UNIT ( ) NAMED_UNIT ( * ) SI_UNIT ( $, .METRE. ) );
#157 = CARTESIAN_POINT ( 'NONE',  ( 0.0000000000000000000, 0.0000000000000000000, 0.0000000000000000000 ) ) ;
#158 = CARTESIAN_POINT ( 'NONE',  ( 0.07874000000000000443, 9.642868896486258509E-18, 1.953504000000000129 ) ) ;
#159 =( NAMED_UNIT ( * ) PLANE_ANGLE_UNIT ( ) SI_UNIT ( $, .RADIAN. ) );
#160 = CIRCLE ( 'NONE', #181, 0.07874000000000000443 ) ;
#161 = CARTESIAN_POINT ( 'NONE',  ( -0.03933062999999998449, 0.0000000000000000000, 0.03933063000000000531 ) ) ;
#162 = CARTESIAN_POINT ( 'NONE',  ( 0.03933063000000000531, 4.816613013794885432E-18, 0.03933062999999998449 ) ) ;
#163 = EDGE_CURVE ( 'NONE', #249, #179, #126, .T. ) ;
#164 = DIRECTION ( 'NONE',  ( -1.224646799147353207E-16, -0.0000000000000000000, -1.000000000000000000 ) ) ;
#165 = CARTESIAN_POINT ( 'NONE',  ( 4.816613013794885432E-18, 0.0000000000000000000, 0.03933062999999999837 ) ) ;
#166 = DIRECTION ( 'NONE',  ( 0.0000000000000000000, 0.0000000000000000000, -1.000000000000000000 ) ) ;
#167 = ORIENTED_EDGE ( 'NONE', *, *, #104, .T. ) ;
#168 = EDGE_LOOP ( 'NONE', ( #144, #175 ) ) ;
#169 = CARTESIAN_POINT ( 'NONE',  ( 0.0000000000000000000, 0.0000000000000000000, 1.968503999999999809 ) ) ;
#170 = DIRECTION ( 'NONE',  ( -1.000000000000000000, 0.0000000000000000000, 0.0000000000000000000 ) ) ;
#171 = VECTOR ( 'NONE', #289, 39.37007874015748854 ) ;
#172 = FACE_OUTER_BOUND ( 'NONE', #13, .T. ) ;
#173 = ADVANCED_FACE ( 'NONE', ( #123 ), #132, .T. ) ;
#174 = EDGE_LOOP ( 'NONE', ( #115, #273, #139, #247 ) ) ;
#175 = ORIENTED_EDGE ( 'NONE', *, *, #111, .T. ) ;
#176 = VECTOR ( 'NONE', #124, 39.37007874015748143 ) ;
#177 = DIRECTION ( 'NONE',  ( 1.000000000000000000, 0.0000000000000000000, 0.0000000000000000000 ) ) ;
#178 = AXIS2_PLACEMENT_3D ( 'NONE', #218, #110, #292 ) ;
#179 = VERTEX_POINT ( 'NONE', #39 ) ;
#180 = ORIENTED_EDGE ( 'NONE', *, *, #213, .T. ) ;
#181 = AXIS2_PLACEMENT_3D ( 'NONE', #108, #166, #116 ) ;
#182 = SURFACE_STYLE_USAGE ( .BOTH. , #236 ) ;
#183 = DIRECTION ( 'NONE',  ( 0.0000000000000000000, 0.0000000000000000000, 1.000000000000000000 ) ) ;
#184 = EDGE_CURVE ( 'NONE', #64, #244, #5, .T. ) ;
#185 = DIRECTION ( 'NONE',  ( -1.000000000000000000, 0.0000000000000000000, 2.170579261049422102E-16 ) ) ;
#186 =( NAMED_UNIT ( * ) SI_UNIT ( $, .STERADIAN. ) SOLID_ANGLE_UNIT ( ) );
#187 = DIRECTION ( 'NONE',  ( -1.000000000000000000, 0.0000000000000000000, 0.0000000000000000000 ) ) ;
#188 = AXIS2_PLACEMENT_3D ( 'NONE', #287, #133, #53 ) ;
#189 = EDGE_CURVE ( 'NONE', #143, #64, #211, .T. ) ;
#190 = CYLINDRICAL_SURFACE ( 'NONE', #62, 0.03933062999999999837 ) ;
#191 = DIRECTION ( 'NONE',  ( -1.224646799147353207E-16, -0.0000000000000000000, -1.000000000000000000 ) ) ;
#192 = EDGE_CURVE ( 'NONE', #179, #224, #235, .T. ) ;
#193 = FILL_AREA_STYLE_COLOUR ( '', #318 ) ;
#194 = SURFACE_STYLE_FILL_AREA ( #81 ) ;
#195 = SPHERICAL_SURFACE ( 'NONE', #76, 0.03933062999999999837 ) ;
#196 =( CONVERSION_BASED_UNIT ( 'INCH', #12 ) LENGTH_UNIT ( ) NAMED_UNIT ( #220 ) );
#197 = AXIS2_PLACEMENT_3D ( 'NONE', #280, #74, #1 ) ;
#198 = AXIS2_PLACEMENT_3D ( 'NONE', #145, #201, #225 ) ;
#199 = CARTESIAN_POINT ( 'NONE',  ( -0.06374000000000018540, 0.0000000000000000000, 1.968503999999999809 ) ) ;
#200 = ORIENTED_EDGE ( 'NONE', *, *, #61, .T. ) ;
#201 = DIRECTION ( 'NONE',  ( 0.0000000000000000000, 0.0000000000000000000, 1.000000000000000000 ) ) ;
#202 = MANIFOLD_SOLID_BREP ( 'Fillet1', #277 ) ;
#203 = ORIENTED_EDGE ( 'NONE', *, *, #189, .T. ) ;
#204 = AXIS2_PLACEMENT_3D ( 'NONE', #70, #78, #130 ) ;
#205 = ORIENTED_EDGE ( 'NONE', *, *, #17, .F. ) ;
#206 = DIRECTION ( 'NONE',  ( -1.000000000000000000, 0.0000000000000000000, 2.170579261049422102E-16 ) ) ;
#207 = FILL_AREA_STYLE ('',( #3 ) ) ;
#208 = ADVANCED_FACE ( 'NONE', ( #73 ), #258, .T. ) ;
#209 = AXIS2_PLACEMENT_3D ( 'NONE', #43, #319, #177 ) ;
#210 = ORIENTED_EDGE ( 'NONE', *, *, #61, .F. ) ;
#211 = LINE ( 'NONE', #284, #171 ) ;
#212 = AXIS2_PLACEMENT_3D ( 'NONE', #231, #44, #206 ) ;
#213 = EDGE_CURVE ( 'NONE', #244, #34, #105, .T. ) ;
#214 = APPLICATION_CONTEXT ( 'automotive_design' ) ;
#215 = PRESENTATION_STYLE_ASSIGNMENT (( #182 ) ) ;
#216 = FACE_OUTER_BOUND ( 'NONE', #65, .T. ) ;
#217 = AXIS2_PLACEMENT_3D ( 'NONE', #79, #183, #48 ) ;
#218 = CARTESIAN_POINT ( 'NONE',  ( 4.816613013794885432E-18, 0.0000000000000000000, 0.03933062999999999837 ) ) ;
#219 = CIRCLE ( 'NONE', #240, 0.03933062999999999837 ) ;
#220 = DIMENSIONAL_EXPONENTS ( 1.000000000000000000, 0.0000000000000000000, 0.0000000000000000000, 0.0000000000000000000, 0.0000000000000000000, 0.0000000000000000000, 0.0000000000000000000 ) ;
#221 = LINE ( 'NONE', #87, #274 ) ;
#222 = ORIENTED_EDGE ( 'NONE', *, *, #163, .F. ) ;
#223 = CYLINDRICAL_SURFACE ( 'NONE', #324, 0.07874000000000000443 ) ;
#224 = VERTEX_POINT ( 'NONE', #162 ) ;
#225 = DIRECTION ( 'NONE',  ( 1.000000000000000000, 0.0000000000000000000, 0.0000000000000000000 ) ) ;
#226 = EDGE_CURVE ( 'NONE', #244, #64, #160, .T. ) ;
#227 = AXIS2_PLACEMENT_3D ( 'NONE', #103, #28, #187 ) ;
#228 = CIRCLE ( 'NONE', #212, 0.03933062999999999837 ) ;
#229 = DIMENSIONAL_EXPONENTS ( 1.000000000000000000, 0.0000000000000000000, 0.0000000000000000000, 0.0000000000000000000, 0.0000000000000000000, 0.0000000000000000000, 0.0000000000000000000 ) ;
#230 = PRODUCT_DEFINITION ( 'UNKNOWN', '', #308, #320 ) ;
#231 = CARTESIAN_POINT ( 'NONE',  ( 4.816613013794885432E-18, 0.0000000000000000000, 0.03933062999999999837 ) ) ;
#232 = AXIS2_PLACEMENT_3D ( 'NONE', #150, #146, #20 ) ;
#233 = ORIENTED_EDGE ( 'NONE', *, *, #17, .T. ) ;
#234 = DIRECTION ( 'NONE',  ( 0.0000000000000000000, 0.0000000000000000000, 1.000000000000000000 ) ) ;
#235 = LINE ( 'NONE', #260, #120 ) ;
#236 = SURFACE_SIDE_STYLE ('',( #263 ) ) ;
#237 = DIRECTION ( 'NONE',  ( -1.000000000000000000, 0.0000000000000000000, 1.224646799147352961E-16 ) ) ;
#238 = CARTESIAN_POINT ( 'NONE',  ( 0.06374000000000018540, 8.724383797125754882E-18, 1.968503999999999809 ) ) ;
#239 = DIRECTION ( 'NONE',  ( 1.224646799147353207E-16, 0.0000000000000000000, 1.000000000000000000 ) ) ;
#240 = AXIS2_PLACEMENT_3D ( 'NONE', #262, #7, #24 ) ;
#241 = DIRECTION ( 'NONE',  ( 0.1736481776669314414, 0.0000000000000000000, 0.9848077530122077983 ) ) ;
#242 = FACE_OUTER_BOUND ( 'NONE', #174, .T. ) ;
#243 = CARTESIAN_POINT ( 'NONE',  ( 0.0000000000000000000, 0.0000000000000000000, 1.968503999999999809 ) ) ;
#244 = VERTEX_POINT ( 'NONE', #118 ) ;
#245 = CARTESIAN_POINT ( 'NONE',  ( -0.03933062999999997061, 7.229740955140570430E-18, 0.2362200000000000133 ) ) ;
#246 = ORIENTED_EDGE ( 'NONE', *, *, #163, .T. ) ;
#247 = ORIENTED_EDGE ( 'NONE', *, *, #276, .T. ) ;
#248 =( NAMED_UNIT ( * ) SI_UNIT ( $, .STERADIAN. ) SOLID_ANGLE_UNIT ( ) );
#249 = VERTEX_POINT ( 'NONE', #245 ) ;
#250 = MECHANICAL_DESIGN_GEOMETRIC_PRESENTATION_REPRESENTATION (  '', ( #11 ), #114 ) ;
#251 = AXIS2_PLACEMENT_3D ( 'NONE', #129, #234, #323 ) ;
#252 = ORIENTED_EDGE ( 'NONE', *, *, #276, .F. ) ;
#253 = DIMENSIONAL_EXPONENTS ( 1.000000000000000000, 0.0000000000000000000, 0.0000000000000000000, 0.0000000000000000000, 0.0000000000000000000, 0.0000000000000000000, 0.0000000000000000000 ) ;
#254 = ORIENTED_EDGE ( 'NONE', *, *, #226, .T. ) ;
#255 = AXIS2_PLACEMENT_3D ( 'NONE', #106, #80, #297 ) ;
#256 = EDGE_LOOP ( 'NONE', ( #246, #266, #200, #205 ) ) ;
#257 = FACE_OUTER_BOUND ( 'NONE', #168, .T. ) ;
#258 = CYLINDRICAL_SURFACE ( 'NONE', #147, 0.03933062999999999837 ) ;
#259 = DIRECTION ( 'NONE',  ( -1.224646799147353207E-16, -0.0000000000000000000, -1.000000000000000000 ) ) ;
#260 = CARTESIAN_POINT ( 'NONE',  ( 0.03933062999999999837, 4.816613013794885432E-18, -4.816613013794885432E-18 ) ) ;
#261 = AXIS2_PLACEMENT_3D ( 'NONE', #294, #191, #102 ) ;
#262 = CARTESIAN_POINT ( 'NONE',  ( 4.816613013794885432E-18, 0.0000000000000000000, 0.03933062999999999837 ) ) ;
#263 = SURFACE_STYLE_FILL_AREA ( #207 ) ;
#264 = CIRCLE ( 'NONE', #209, 0.07874000000000000443 ) ;
#265 = DIRECTION ( 'NONE',  ( -0.1736481776669312194, 2.126576849575783625E-17, 0.9848077530122077983 ) ) ;
#266 = ORIENTED_EDGE ( 'NONE', *, *, #192, .T. ) ;
#267 =( LENGTH_UNIT ( ) NAMED_UNIT ( * ) SI_UNIT ( $, .METRE. ) );
#268 = ORIENTED_EDGE ( 'NONE', *, *, #149, .F. ) ;
#269 = SURFACE_STYLE_USAGE ( .BOTH. , #35 ) ;
#270 = PRESENTATION_LAYER_ASSIGNMENT (  '', '', ( #109 ) ) ;
#271 = ORIENTED_EDGE ( 'NONE', *, *, #149, .T. ) ;
#272 = DIRECTION ( 'NONE',  ( 0.0000000000000000000, 0.0000000000000000000, -1.000000000000000000 ) ) ;
#273 = ORIENTED_EDGE ( 'NONE', *, *, #127, .F. ) ;
#274 = VECTOR ( 'NONE', #241, 39.37007874015748143 ) ;
#275 = APPLICATION_CONTEXT ( 'automotive_design' ) ;
#276 = EDGE_CURVE ( 'NONE', #36, #34, #100, .T. ) ;
#277 = CLOSED_SHELL ( 'NONE', ( #278, #208, #58, #304, #40, #293, #29, #69, #86, #121, #173 ) ) ;
#278 = ADVANCED_FACE ( 'NONE', ( #54 ), #195, .T. ) ;
#279 = ORIENTED_EDGE ( 'NONE', *, *, #27, .T. ) ;
#280 = CARTESIAN_POINT ( 'NONE',  ( 2.892860668945878169E-17, 0.0000000000000000000, 0.2362200000000000133 ) ) ;
#281 = PRODUCT ( 'Micro_BMRM-020-2', 'Micro_BMRM-020-2', '', ( #314 ) ) ;
#282 = UNCERTAINTY_MEASURE_WITH_UNIT (LENGTH_MEASURE( 1.000000000000000082E-05 ), #135, 'distance_accuracy_value', 'NONE');
#283 = CYLINDRICAL_SURFACE ( 'NONE', #291, 0.07874000000000000443 ) ;
#284 = CARTESIAN_POINT ( 'NONE',  ( 0.06374000000000018540, 7.805898697765251255E-18, 1.968503999999999809 ) ) ;
#285 = PRODUCT_RELATED_PRODUCT_CATEGORY ( 'part', '', ( #281 ) ) ;
#286 =( GEOMETRIC_REPRESENTATION_CONTEXT ( 3 ) GLOBAL_UNCERTAINTY_ASSIGNED_CONTEXT ( ( #75 ) ) GLOBAL_UNIT_ASSIGNED_CONTEXT ( ( #196, #60, #295 ) ) REPRESENTATION_CONTEXT ( 'NONE', 'WORKASPACE' ) );
#287 = CARTESIAN_POINT ( 'NONE',  ( 2.892860668945878169E-17, 0.0000000000000000000, 0.2362200000000000133 ) ) ;
#288 = CARTESIAN_POINT ( 'NONE',  ( -0.07874000000000000443, 0.0000000000000000000, 1.968503999999999809 ) ) ;
#289 = DIRECTION ( 'NONE',  ( 0.7071067811865502373, 8.659560562354966138E-17, -0.7071067811865446862 ) ) ;
#290 = CARTESIAN_POINT ( 'NONE',  ( 5.629966393378922948E-17, 0.0000000000000000000, 0.4597216436035863052 ) ) ;
#291 = AXIS2_PLACEMENT_3D ( 'NONE', #31, #305, #72 ) ;
#292 = DIRECTION ( 'NONE',  ( -1.000000000000000000, 1.224646799147352961E-16, 0.0000000000000000000 ) ) ;
#293 = ADVANCED_FACE ( 'NONE', ( #172 ), #223, .T. ) ;
#294 = CARTESIAN_POINT ( 'NONE',  ( 2.892860668945878169E-17, 0.0000000000000000000, 0.2362200000000000133 ) ) ;
#295 =( NAMED_UNIT ( * ) SI_UNIT ( $, .STERADIAN. ) SOLID_ANGLE_UNIT ( ) );
#296 = ORIENTED_EDGE ( 'NONE', *, *, #192, .F. ) ;
#297 = DIRECTION ( 'NONE',  ( 1.000000000000000000, 0.0000000000000000000, 0.0000000000000000000 ) ) ;
#298 = CIRCLE ( 'NONE', #261, 0.03933062999999999837 ) ;
#299 = CARTESIAN_POINT ( 'NONE',  ( 0.07874000000000000443, 9.642868896486258509E-18, 1.968503999999999809 ) ) ;
#300 = EDGE_LOOP ( 'NONE', ( #222, #84, #15, #95 ) ) ;
#301 = UNCERTAINTY_MEASURE_WITH_UNIT (LENGTH_MEASURE( 1.000000000000000082E-05 ), #19, 'distance_accuracy_value', 'NONE');
#302 = CONICAL_SURFACE ( 'NONE', #188, 0.03933062999999999837, 0.1745329251994339470 ) ;
#303 = FACE_OUTER_BOUND ( 'NONE', #307, .T. ) ;
#304 = ADVANCED_FACE ( 'NONE', ( #142 ), #82, .T. ) ;
#305 = DIRECTION ( 'NONE',  ( -0.0000000000000000000, -0.0000000000000000000, -1.000000000000000000 ) ) ;
#306 = VECTOR ( 'NONE', #265, 39.37007874015748143 ) ;
#307 = EDGE_LOOP ( 'NONE', ( #254, #279, #66, #119 ) ) ;
#308 = PRODUCT_DEFINITION_FORMATION_WITH_SPECIFIED_SOURCE ( 'ANY', '', #281, .NOT_KNOWN. ) ;
#309 = LINE ( 'NONE', #94, #71 ) ;
#310 = DIRECTION ( 'NONE',  ( 0.0000000000000000000, 1.000000000000000000, 0.0000000000000000000 ) ) ;
#311 = EDGE_CURVE ( 'NONE', #179, #36, #221, .T. ) ;
#312 = DIRECTION ( 'NONE',  ( -1.000000000000000000, 0.0000000000000000000, 0.0000000000000000000 ) ) ;
#313 = ORIENTED_EDGE ( 'NONE', *, *, #184, .T. ) ;
#314 = PRODUCT_CONTEXT ( 'NONE', #275, 'mechanical' ) ;
#315 = AXIS2_PLACEMENT_3D ( 'NONE', #243, #272, #312 ) ;
#316 = EDGE_CURVE ( 'NONE', #249, #34, #33, .T. ) ;
#317 = LINE ( 'NONE', #299, #56 ) ;
#318 = COLOUR_RGB ( '',0.7921568627450980005, 0.8196078431372548767, 0.9333333333333333481 ) ;
#319 = DIRECTION ( 'NONE',  ( -1.224646799147353207E-16, -0.0000000000000000000, -1.000000000000000000 ) ) ;
#320 = PRODUCT_DEFINITION_CONTEXT ( 'detailed design', #214, 'design' ) ;
#321 = DIRECTION ( 'NONE',  ( -0.7071067811865502373, 0.0000000000000000000, -0.7071067811865446862 ) ) ;
#322 = ORIENTED_EDGE ( 'NONE', *, *, #184, .F. ) ;
#323 = DIRECTION ( 'NONE',  ( 1.000000000000000000, 0.0000000000000000000, -0.0000000000000000000 ) ) ;
#324 = AXIS2_PLACEMENT_3D ( 'NONE', #169, #140, #170 ) ;
#325 = EDGE_CURVE ( 'NONE', #128, #91, #131, .T. ) ;
ENDSEC;
END-ISO-10303-21;
