ISO-10303-21;
HEADER;
FILE_DESCRIPTION (( 'STEP AP214' ),
    '1' );
FILE_NAME ('Micro_GEMM-030-2.STEP',
    '2021-09-01T21:22:55',
    ( '' ),
    ( '' ),
    'SwSTEP 2.0',
    'SolidWorks 2020',
    '' );
FILE_SCHEMA (( 'AUTOMOTIVE_DESIGN' ));
ENDSEC;

DATA;
#1 = EDGE_LOOP ( 'NONE', ( #130, #157 ) ) ;
#2 = VECTOR ( 'NONE', #218, 39.37007874015748143 ) ;
#3 = DIRECTION ( 'NONE',  ( -1.224646799147352961E-16, -0.0000000000000000000, -1.000000000000000000 ) ) ;
#4 = CARTESIAN_POINT ( 'NONE',  ( 0.0000000000000000000, 0.0000000000000000000, 1.481063000000000240 ) ) ;
#5 = VERTEX_POINT ( 'NONE', #50 ) ;
#6 = PRODUCT_DEFINITION_SHAPE ( 'NONE', 'NONE',  #63 ) ;
#7 = EDGE_CURVE ( 'NONE', #23, #5, #225, .T. ) ;
#8 = DIRECTION ( 'NONE',  ( -1.000000000000000000, 0.0000000000000000000, 0.0000000000000000000 ) ) ;
#9 = CIRCLE ( 'NONE', #199, 0.05905499999999998251 ) ;
#10 = PRESENTATION_STYLE_ASSIGNMENT (( #197 ) ) ;
#11 = EDGE_CURVE ( 'NONE', #68, #184, #87, .T. ) ;
#12 = ADVANCED_FACE ( 'NONE', ( #114 ), #215, .T. ) ;
#13 = DIRECTION ( 'NONE',  ( -1.000000000000000000, 0.0000000000000000000, 1.224646799147352961E-16 ) ) ;
#14 = LINE ( 'NONE', #79, #226 ) ;
#15 = CARTESIAN_POINT ( 'NONE',  ( 8.847974565113086764E-34, 0.0000000000000000000, 7.224919520692328148E-18 ) ) ;
#16 = CLOSED_SHELL ( 'NONE', ( #222, #45, #12, #72, #189, #95, #122, #98, #52, #156 ) ) ;
#17 = AXIS2_PLACEMENT_3D ( 'NONE', #100, #36, #13 ) ;
#18 = MECHANICAL_DESIGN_GEOMETRIC_PRESENTATION_REPRESENTATION (  '', ( #186 ), #159 ) ;
#19 = ORIENTED_EDGE ( 'NONE', *, *, #127, .T. ) ;
#20 = SURFACE_STYLE_FILL_AREA ( #253 ) ;
#21 = UNCERTAINTY_MEASURE_WITH_UNIT (LENGTH_MEASURE( 1.000000000000000082E-05 ), #220, 'distance_accuracy_value', 'NONE');
#22 =( NAMED_UNIT ( * ) SI_UNIT ( $, .STERADIAN. ) SOLID_ANGLE_UNIT ( ) );
#23 = VERTEX_POINT ( 'NONE', #266 ) ;
#24 = CIRCLE ( 'NONE', #239, 0.05905499999999998251 ) ;
#25 = ORIENTED_EDGE ( 'NONE', *, *, #62, .F. ) ;
#26 = DIRECTION ( 'NONE',  ( 0.0000000000000000000, 0.0000000000000000000, -1.000000000000000000 ) ) ;
#27 = DIRECTION ( 'NONE',  ( 0.0000000000000000000, 0.0000000000000000000, -1.000000000000000000 ) ) ;
#28 = DIRECTION ( 'NONE',  ( 1.000000000000000000, 0.0000000000000000000, -0.0000000000000000000 ) ) ;
#29 = DIRECTION ( 'NONE',  ( 0.0000000000000000000, 0.0000000000000000000, 1.000000000000000000 ) ) ;
#30 = CARTESIAN_POINT ( 'NONE',  ( -0.05905499999999994781, 0.0000000000000000000, 0.2759259175478573911 ) ) ;
#31 = FACE_OUTER_BOUND ( 'NONE', #91, .T. ) ;
#32 = AXIS2_PLACEMENT_3D ( 'NONE', #292, #244, #123 ) ;
#33 = PRESENTATION_LAYER_ASSIGNMENT (  '', '', ( #57 ) ) ;
#34 = PLANE ( 'NONE',  #289 ) ;
#35 = CARTESIAN_POINT ( 'NONE',  ( -0.05905499999999998251, 0.0000000000000000000, 1.496062999999999921 ) ) ;
#36 = DIRECTION ( 'NONE',  ( -1.224646799147352961E-16, -0.0000000000000000000, -1.000000000000000000 ) ) ;
#37 = CONICAL_SURFACE ( 'NONE', #112, 0.05899594499999999409, 0.1745329251994339192 ) ;
#38 = CARTESIAN_POINT ( 'NONE',  ( 0.0000000000000000000, 0.0000000000000000000, 1.496062999999999921 ) ) ;
#39 =( NAMED_UNIT ( * ) SI_UNIT ( $, .STERADIAN. ) SOLID_ANGLE_UNIT ( ) );
#40 = PRESENTATION_STYLE_ASSIGNMENT (( #148 ) ) ;
#41 = ORIENTED_EDGE ( 'NONE', *, *, #11, .T. ) ;
#42 = FILL_AREA_STYLE_COLOUR ( '', #235 ) ;
#43 = VERTEX_POINT ( 'NONE', #30 ) ;
#44 = LINE ( 'NONE', #85, #144 ) ;
#45 = ADVANCED_FACE ( 'NONE', ( #160 ), #245, .T. ) ;
#46 = AXIS2_PLACEMENT_3D ( 'NONE', #191, #49, #216 ) ;
#47 =( GEOMETRIC_REPRESENTATION_CONTEXT ( 3 ) GLOBAL_UNCERTAINTY_ASSIGNED_CONTEXT ( ( #204 ) ) GLOBAL_UNIT_ASSIGNED_CONTEXT ( ( #229, #294, #22 ) ) REPRESENTATION_CONTEXT ( 'NONE', 'WORKASPACE' ) );
#48 = ORIENTED_EDGE ( 'NONE', *, *, #286, .T. ) ;
#49 = DIRECTION ( 'NONE',  ( 1.224646799147352961E-16, 0.0000000000000000000, 1.000000000000000000 ) ) ;
#50 = CARTESIAN_POINT ( 'NONE',  ( -0.04405500000000001082, 0.0000000000000000000, 1.496062999999999921 ) ) ;
#51 = LINE ( 'NONE', #285, #2 ) ;
#52 = ADVANCED_FACE ( 'NONE', ( #263 ), #97, .T. ) ;
#53 = CARTESIAN_POINT ( 'NONE',  ( 0.0000000000000000000, 0.0000000000000000000, 0.0000000000000000000 ) ) ;
#54 = SURFACE_STYLE_FILL_AREA ( #141 ) ;
#55 = CARTESIAN_POINT ( 'NONE',  ( 3.379117917267799633E-17, 0.0000000000000000000, 0.2759259175478573911 ) ) ;
#56 = AXIS2_PLACEMENT_3D ( 'NONE', #80, #167, #59 ) ;
#57 = STYLED_ITEM ( 'NONE', ( #40 ), #205 ) ;
#58 = FACE_OUTER_BOUND ( 'NONE', #78, .T. ) ;
#59 = DIRECTION ( 'NONE',  ( -1.000000000000000000, 0.0000000000000000000, 0.0000000000000000000 ) ) ;
#60 = DIRECTION ( 'NONE',  ( -0.0000000000000000000, -0.0000000000000000000, -1.000000000000000000 ) ) ;
#61 = AXIS2_PLACEMENT_3D ( 'NONE', #93, #29, #190 ) ;
#62 = EDGE_CURVE ( 'NONE', #184, #68, #9, .T. ) ;
#63 = PRODUCT_DEFINITION ( 'UNKNOWN', '', #103, #278 ) ;
#64 = ORIENTED_EDGE ( 'NONE', *, *, #151, .F. ) ;
#65 = AXIS2_PLACEMENT_3D ( 'NONE', #101, #145, #196 ) ;
#66 = CIRCLE ( 'NONE', #174, 0.04405500000000001082 ) ;
#67 = LENGTH_MEASURE_WITH_UNIT ( LENGTH_MEASURE( 0.02539999999999999897 ), #105 );
#68 = VERTEX_POINT ( 'NONE', #193 ) ;
#69 = ORIENTED_EDGE ( 'NONE', *, *, #178, .F. ) ;
#70 = VECTOR ( 'NONE', #223, 39.37007874015748854 ) ;
#71 = EDGE_LOOP ( 'NONE', ( #69, #73, #19, #106 ) ) ;
#72 = ADVANCED_FACE ( 'NONE', ( #287 ), #236, .T. ) ;
#73 = ORIENTED_EDGE ( 'NONE', *, *, #280, .F. ) ;
#74 = EDGE_CURVE ( 'NONE', #165, #109, #51, .T. ) ;
#75 = EDGE_LOOP ( 'NONE', ( #217, #256, #284, #202 ) ) ;
#76 = VECTOR ( 'NONE', #241, 39.37007874015748854 ) ;
#77 = ORIENTED_EDGE ( 'NONE', *, *, #151, .T. ) ;
#78 = EDGE_LOOP ( 'NONE', ( #182, #274 ) ) ;
#79 = CARTESIAN_POINT ( 'NONE',  ( -0.05899594499999995939, 7.224919520692329689E-18, 0.2755909999999999749 ) ) ;
#80 = CARTESIAN_POINT ( 'NONE',  ( 3.375016360238180974E-17, 0.0000000000000000000, 0.2755909999999999749 ) ) ;
#81 = VECTOR ( 'NONE', #88, 39.37007874015748143 ) ;
#82 = CARTESIAN_POINT ( 'NONE',  ( -0.05905499999999998251, 0.0000000000000000000, 1.481063000000000240 ) ) ;
#83 = CARTESIAN_POINT ( 'NONE',  ( -0.04405500000000001082, 0.0000000000000000000, 1.496062999999999921 ) ) ;
#84 = LINE ( 'NONE', #35, #234 ) ;
#85 = CARTESIAN_POINT ( 'NONE',  ( 0.05899594499999999409, 7.224919520692329689E-18, -7.224919520692328148E-18 ) ) ;
#86 = ORIENTED_EDGE ( 'NONE', *, *, #178, .T. ) ;
#87 = CIRCLE ( 'NONE', #264, 0.05905499999999998251 ) ;
#88 = DIRECTION ( 'NONE',  ( -0.0000000000000000000, -0.0000000000000000000, -1.000000000000000000 ) ) ;
#89 = EDGE_CURVE ( 'NONE', #254, #165, #117, .T. ) ;
#90 = DIRECTION ( 'NONE',  ( -1.000000000000000000, 0.0000000000000000000, 1.224646799147352961E-16 ) ) ;
#91 = EDGE_LOOP ( 'NONE', ( #252, #41, #128, #64 ) ) ;
#92 = AXIS2_PLACEMENT_3D ( 'NONE', #53, #135, #116 ) ;
#93 = CARTESIAN_POINT ( 'NONE',  ( 0.0000000000000000000, 0.0000000000000000000, 1.496062999999999921 ) ) ;
#94 = VERTEX_POINT ( 'NONE', #230 ) ;
#95 = ADVANCED_FACE ( 'NONE', ( #282 ), #138, .T. ) ;
#96 = DIRECTION ( 'NONE',  ( 0.0000000000000000000, 0.0000000000000000000, -1.000000000000000000 ) ) ;
#97 = CYLINDRICAL_SURFACE ( 'NONE', #92, 0.05899594499999999409 ) ;
#98 = ADVANCED_FACE ( 'NONE', ( #113 ), #37, .T. ) ;
#99 = DIRECTION ( 'NONE',  ( 1.000000000000000000, 0.0000000000000000000, -0.0000000000000000000 ) ) ;
#100 = CARTESIAN_POINT ( 'NONE',  ( 8.847974565113086764E-34, 0.0000000000000000000, 7.224919520692328148E-18 ) ) ;
#101 = CARTESIAN_POINT ( 'NONE',  ( 3.379117917267799633E-17, 0.0000000000000000000, 0.2759259175478573911 ) ) ;
#102 = SURFACE_SIDE_STYLE ('',( #54 ) ) ;
#103 = PRODUCT_DEFINITION_FORMATION_WITH_SPECIFIED_SOURCE ( 'ANY', '', #187, .NOT_KNOWN. ) ;
#104 = CARTESIAN_POINT ( 'NONE',  ( 0.05899594499999999409, 7.224919520692329689E-18, 0.0000000000000000000 ) ) ;
#105 =( LENGTH_UNIT ( ) NAMED_UNIT ( * ) SI_UNIT ( $, .METRE. ) );
#106 = ORIENTED_EDGE ( 'NONE', *, *, #11, .F. ) ;
#107 = CIRCLE ( 'NONE', #56, 0.05899594499999999409 ) ;
#108 = DIRECTION ( 'NONE',  ( 0.0000000000000000000, 0.0000000000000000000, 1.000000000000000000 ) ) ;
#109 = VERTEX_POINT ( 'NONE', #238 ) ;
#110 = EDGE_LOOP ( 'NONE', ( #177, #48, #228, #279 ) ) ;
#111 = EDGE_CURVE ( 'NONE', #258, #94, #209, .T. ) ;
#112 = AXIS2_PLACEMENT_3D ( 'NONE', #221, #146, #119 ) ;
#113 = FACE_OUTER_BOUND ( 'NONE', #149, .T. ) ;
#114 = FACE_OUTER_BOUND ( 'NONE', #210, .T. ) ;
#115 = DIRECTION ( 'NONE',  ( 0.0000000000000000000, 0.0000000000000000000, 1.000000000000000000 ) ) ;
#116 = DIRECTION ( 'NONE',  ( -1.000000000000000000, 0.0000000000000000000, 1.224646799147352961E-16 ) ) ;
#117 = CIRCLE ( 'NONE', #143, 0.05899594499999999409 ) ;
#118 = DIRECTION ( 'NONE',  ( 1.000000000000000000, 0.0000000000000000000, 0.0000000000000000000 ) ) ;
#119 = DIRECTION ( 'NONE',  ( 1.000000000000000000, 0.0000000000000000000, 0.0000000000000000000 ) ) ;
#120 = DIMENSIONAL_EXPONENTS ( 1.000000000000000000, 0.0000000000000000000, 0.0000000000000000000, 0.0000000000000000000, 0.0000000000000000000, 0.0000000000000000000, 0.0000000000000000000 ) ;
#121 = CARTESIAN_POINT ( 'NONE',  ( 0.05899594500000002878, 0.0000000000000000000, 0.2755909999999999749 ) ) ;
#122 = ADVANCED_FACE ( 'NONE', ( #290 ), #158, .T. ) ;
#123 = DIRECTION ( 'NONE',  ( -1.000000000000000000, 0.0000000000000000000, 0.0000000000000000000 ) ) ;
#124 = DIRECTION ( 'NONE',  ( -1.000000000000000000, 0.0000000000000000000, 0.0000000000000000000 ) ) ;
#125 = PRODUCT_RELATED_PRODUCT_CATEGORY ( 'part', '', ( #187 ) ) ;
#126 = DIRECTION ( 'NONE',  ( -1.000000000000000000, 0.0000000000000000000, 1.224646799147352961E-16 ) ) ;
#127 = EDGE_CURVE ( 'NONE', #5, #184, #291, .T. ) ;
#128 = ORIENTED_EDGE ( 'NONE', *, *, #166, .T. ) ;
#129 = ORIENTED_EDGE ( 'NONE', *, *, #140, .F. ) ;
#130 = ORIENTED_EDGE ( 'NONE', *, *, #280, .T. ) ;
#131 =( GEOMETRIC_REPRESENTATION_CONTEXT ( 3 ) GLOBAL_UNCERTAINTY_ASSIGNED_CONTEXT ( ( #181 ) ) GLOBAL_UNIT_ASSIGNED_CONTEXT ( ( #179, #198, #275 ) ) REPRESENTATION_CONTEXT ( 'NONE', 'WORKASPACE' ) );
#132 = EDGE_CURVE ( 'NONE', #43, #109, #24, .T. ) ;
#133 = CARTESIAN_POINT ( 'NONE',  ( 3.375016360238180974E-17, 0.0000000000000000000, 0.2755909999999999749 ) ) ;
#134 = CARTESIAN_POINT ( 'NONE',  ( 0.0000000000000000000, 0.0000000000000000000, 1.481063000000000240 ) ) ;
#135 = DIRECTION ( 'NONE',  ( -1.224646799147352961E-16, -0.0000000000000000000, -1.000000000000000000 ) ) ;
#136 = CIRCLE ( 'NONE', #194, 0.05899594499999999409 ) ;
#137 = AXIS2_PLACEMENT_3D ( 'NONE', #161, #115, #283 ) ;
#138 = PLANE ( 'NONE',  #250 ) ;
#139 = ORIENTED_EDGE ( 'NONE', *, *, #183, .T. ) ;
#140 = EDGE_CURVE ( 'NONE', #165, #254, #107, .T. ) ;
#141 = FILL_AREA_STYLE ('',( #172 ) ) ;
#142 = EDGE_CURVE ( 'NONE', #254, #43, #14, .T. ) ;
#143 = AXIS2_PLACEMENT_3D ( 'NONE', #133, #3, #8 ) ;
#144 = VECTOR ( 'NONE', #248, 39.37007874015748143 ) ;
#145 = DIRECTION ( 'NONE',  ( -1.224646799147352961E-16, -0.0000000000000000000, -1.000000000000000000 ) ) ;
#146 = DIRECTION ( 'NONE',  ( 1.224646799147352961E-16, 0.0000000000000000000, 1.000000000000000000 ) ) ;
#147 = LINE ( 'NONE', #224, #76 ) ;
#148 = SURFACE_STYLE_USAGE ( .BOTH. , #298 ) ;
#149 = EDGE_LOOP ( 'NONE', ( #227, #129, #164, #77 ) ) ;
#150 = CARTESIAN_POINT ( 'NONE',  ( 0.0000000000000000000, 0.0000000000000000000, 0.0000000000000000000 ) ) ;
#151 = EDGE_CURVE ( 'NONE', #109, #43, #268, .T. ) ;
#152 = DIRECTION ( 'NONE',  ( 1.000000000000000000, 0.0000000000000000000, 0.0000000000000000000 ) ) ;
#153 = ORIENTED_EDGE ( 'NONE', *, *, #132, .T. ) ;
#154 = DIRECTION ( 'NONE',  ( -1.224646799147352961E-16, -0.0000000000000000000, -1.000000000000000000 ) ) ;
#155 = EDGE_LOOP ( 'NONE', ( #213, #295, #139, #163 ) ) ;
#156 = ADVANCED_FACE ( 'NONE', ( #58 ), #34, .F. ) ;
#157 = ORIENTED_EDGE ( 'NONE', *, *, #7, .T. ) ;
#158 = CONICAL_SURFACE ( 'NONE', #32, 0.04405500000000001082, 0.7853981633974570498 ) ;
#159 =( GEOMETRIC_REPRESENTATION_CONTEXT ( 3 ) GLOBAL_UNCERTAINTY_ASSIGNED_CONTEXT ( ( #21 ) ) GLOBAL_UNIT_ASSIGNED_CONTEXT ( ( #220, #288, #39 ) ) REPRESENTATION_CONTEXT ( 'NONE', 'WORKASPACE' ) );
#160 = FACE_OUTER_BOUND ( 'NONE', #180, .T. ) ;
#161 = CARTESIAN_POINT ( 'NONE',  ( 0.0000000000000000000, 0.0000000000000000000, 0.0000000000000000000 ) ) ;
#162 = DIRECTION ( 'NONE',  ( -0.0000000000000000000, -0.0000000000000000000, -1.000000000000000000 ) ) ;
#163 = ORIENTED_EDGE ( 'NONE', *, *, #111, .F. ) ;
#164 = ORIENTED_EDGE ( 'NONE', *, *, #74, .T. ) ;
#165 = VERTEX_POINT ( 'NONE', #121 ) ;
#166 = EDGE_CURVE ( 'NONE', #184, #43, #84, .T. ) ;
#167 = DIRECTION ( 'NONE',  ( -1.224646799147352961E-16, -0.0000000000000000000, -1.000000000000000000 ) ) ;
#168 = DIRECTION ( 'NONE',  ( -1.224646799147352961E-16, -0.0000000000000000000, -1.000000000000000000 ) ) ;
#169 = CARTESIAN_POINT ( 'NONE',  ( -0.05899594499999999409, 0.0000000000000000000, 7.224919520692328148E-18 ) ) ;
#170 = DIMENSIONAL_EXPONENTS ( 1.000000000000000000, 0.0000000000000000000, 0.0000000000000000000, 0.0000000000000000000, 0.0000000000000000000, 0.0000000000000000000, 0.0000000000000000000 ) ;
#171 = CARTESIAN_POINT ( 'NONE',  ( 0.0000000000000000000, 0.0000000000000000000, 0.0000000000000000000 ) ) ;
#172 = FILL_AREA_STYLE_COLOUR ( '', #259 ) ;
#173 = AXIS2_PLACEMENT_3D ( 'NONE', #214, #162, #232 ) ;
#174 = AXIS2_PLACEMENT_3D ( 'NONE', #176, #108, #152 ) ;
#175 = LENGTH_MEASURE_WITH_UNIT ( LENGTH_MEASURE( 0.02539999999999999897 ), #273 );
#176 = CARTESIAN_POINT ( 'NONE',  ( 0.0000000000000000000, 0.0000000000000000000, 1.496062999999999921 ) ) ;
#177 = ORIENTED_EDGE ( 'NONE', *, *, #89, .T. ) ;
#178 = EDGE_CURVE ( 'NONE', #23, #68, #147, .T. ) ;
#179 =( CONVERSION_BASED_UNIT ( 'INCH', #175 ) LENGTH_UNIT ( ) NAMED_UNIT ( #243 ) );
#180 = EDGE_LOOP ( 'NONE', ( #297, #260, #153, #277 ) ) ;
#181 = UNCERTAINTY_MEASURE_WITH_UNIT (LENGTH_MEASURE( 1.000000000000000082E-05 ), #179, 'distance_accuracy_value', 'NONE');
#182 = ORIENTED_EDGE ( 'NONE', *, *, #206, .T. ) ;
#183 = EDGE_CURVE ( 'NONE', #254, #94, #219, .T. ) ;
#184 = VERTEX_POINT ( 'NONE', #82 ) ;
#185 = APPLICATION_CONTEXT ( 'automotive_design' ) ;
#186 = STYLED_ITEM ( 'NONE', ( #10 ), #200 ) ;
#187 = PRODUCT ( 'Micro_GEMM-030-2', 'Micro_GEMM-030-2', '', ( #262 ) ) ;
#188 = DIRECTION ( 'NONE',  ( 1.000000000000000000, 0.0000000000000000000, 0.0000000000000000000 ) ) ;
#189 = ADVANCED_FACE ( 'NONE', ( #31 ), #246, .T. ) ;
#190 = DIRECTION ( 'NONE',  ( 1.000000000000000000, 0.0000000000000000000, 0.0000000000000000000 ) ) ;
#191 = CARTESIAN_POINT ( 'NONE',  ( 3.375016360238180974E-17, 0.0000000000000000000, 0.2755909999999999749 ) ) ;
#192 = VECTOR ( 'NONE', #168, 39.37007874015748143 ) ;
#193 = CARTESIAN_POINT ( 'NONE',  ( 0.05905499999999998251, 7.232151672364692341E-18, 1.481063000000000240 ) ) ;
#194 = AXIS2_PLACEMENT_3D ( 'NONE', #15, #154, #126 ) ;
#195 = DIRECTION ( 'NONE',  ( -1.224646799147352961E-16, -0.0000000000000000000, -1.000000000000000000 ) ) ;
#196 = DIRECTION ( 'NONE',  ( 1.000000000000000000, 0.0000000000000000000, 0.0000000000000000000 ) ) ;
#197 = SURFACE_STYLE_USAGE ( .BOTH. , #102 ) ;
#198 =( NAMED_UNIT ( * ) PLANE_ANGLE_UNIT ( ) SI_UNIT ( $, .RADIAN. ) );
#199 = AXIS2_PLACEMENT_3D ( 'NONE', #134, #27, #188 ) ;
#200 = MANIFOLD_SOLID_BREP ( 'Cut-Revolve1', #16 ) ;
#201 = CARTESIAN_POINT ( 'NONE',  ( -0.05899594499999995939, 7.228535596528510244E-18, 0.2755909999999999749 ) ) ;
#202 = ORIENTED_EDGE ( 'NONE', *, *, #166, .F. ) ;
#203 = CYLINDRICAL_SURFACE ( 'NONE', #276, 0.05899594499999999409 ) ;
#204 = UNCERTAINTY_MEASURE_WITH_UNIT (LENGTH_MEASURE( 1.000000000000000082E-05 ), #229, 'distance_accuracy_value', 'NONE');
#205 = ADVANCED_BREP_SHAPE_REPRESENTATION ( 'Micro_GEMM-030-2', ( #200, #137 ), #131 ) ;
#206 = EDGE_CURVE ( 'NONE', #94, #258, #136, .T. ) ;
#207 = FACE_OUTER_BOUND ( 'NONE', #110, .T. ) ;
#208 = APPLICATION_CONTEXT ( 'automotive_design' ) ;
#209 = CIRCLE ( 'NONE', #17, 0.05899594499999999409 ) ;
#210 = EDGE_LOOP ( 'NONE', ( #299, #86, #25, #249 ) ) ;
#211 = DIRECTION ( 'NONE',  ( -1.224646799147352961E-16, -0.0000000000000000000, -1.000000000000000000 ) ) ;
#212 = SHAPE_DEFINITION_REPRESENTATION ( #6, #205 ) ;
#213 = ORIENTED_EDGE ( 'NONE', *, *, #286, .F. ) ;
#214 = CARTESIAN_POINT ( 'NONE',  ( 0.0000000000000000000, 0.0000000000000000000, 1.496062999999999921 ) ) ;
#215 = CONICAL_SURFACE ( 'NONE', #257, 0.04405500000000001082, 0.7853981633974570498 ) ;
#216 = DIRECTION ( 'NONE',  ( 1.000000000000000000, 0.0000000000000000000, 0.0000000000000000000 ) ) ;
#217 = ORIENTED_EDGE ( 'NONE', *, *, #62, .T. ) ;
#218 = DIRECTION ( 'NONE',  ( 0.1736481776669314137, 0.0000000000000000000, 0.9848077530122077983 ) ) ;
#219 = LINE ( 'NONE', #169, #192 ) ;
#220 =( CONVERSION_BASED_UNIT ( 'INCH', #240 ) LENGTH_UNIT ( ) NAMED_UNIT ( #120 ) );
#221 = CARTESIAN_POINT ( 'NONE',  ( 3.375016360238180974E-17, 0.0000000000000000000, 0.2755909999999999749 ) ) ;
#222 = ADVANCED_FACE ( 'NONE', ( #207 ), #203, .T. ) ;
#223 = DIRECTION ( 'NONE',  ( -0.7071067811865536790, 0.0000000000000000000, -0.7071067811865412445 ) ) ;
#224 = CARTESIAN_POINT ( 'NONE',  ( 0.04405500000000001082, 5.395181473643666598E-18, 1.496062999999999921 ) ) ;
#225 = CIRCLE ( 'NONE', #61, 0.04405500000000001082 ) ;
#226 = VECTOR ( 'NONE', #269, 39.37007874015747433 ) ;
#227 = ORIENTED_EDGE ( 'NONE', *, *, #142, .F. ) ;
#228 = ORIENTED_EDGE ( 'NONE', *, *, #206, .F. ) ;
#229 =( CONVERSION_BASED_UNIT ( 'INCH', #67 ) LENGTH_UNIT ( ) NAMED_UNIT ( #170 ) );
#230 = CARTESIAN_POINT ( 'NONE',  ( -0.05899594499999999409, 0.0000000000000000000, 1.444983904138465630E-17 ) ) ;
#231 = APPLICATION_PROTOCOL_DEFINITION ( 'draft international standard', 'automotive_design', 1998, #208 ) ;
#232 = DIRECTION ( 'NONE',  ( -1.000000000000000000, 0.0000000000000000000, 0.0000000000000000000 ) ) ;
#233 = DIRECTION ( 'NONE',  ( 0.0000000000000000000, 0.0000000000000000000, 1.000000000000000000 ) ) ;
#234 = VECTOR ( 'NONE', #60, 39.37007874015748143 ) ;
#235 = COLOUR_RGB ( '',0.7921568627450980005, 0.8196078431372548767, 0.9333333333333333481 ) ;
#236 = CYLINDRICAL_SURFACE ( 'NONE', #173, 0.05905499999999998251 ) ;
#237 = DIRECTION ( 'NONE',  ( 1.000000000000000000, 0.0000000000000000000, 0.0000000000000000000 ) ) ;
#238 = CARTESIAN_POINT ( 'NONE',  ( 0.05905500000000002414, 7.232151672364696963E-18, 0.2759259175478573911 ) ) ;
#239 = AXIS2_PLACEMENT_3D ( 'NONE', #55, #195, #118 ) ;
#240 = LENGTH_MEASURE_WITH_UNIT ( LENGTH_MEASURE( 0.02539999999999999897 ), #267 );
#241 = DIRECTION ( 'NONE',  ( 0.7071067811865536790, 8.659560562355008046E-17, -0.7071067811865412445 ) ) ;
#242 = EDGE_CURVE ( 'NONE', #68, #109, #296, .T. ) ;
#243 = DIMENSIONAL_EXPONENTS ( 1.000000000000000000, 0.0000000000000000000, 0.0000000000000000000, 0.0000000000000000000, 0.0000000000000000000, 0.0000000000000000000, 0.0000000000000000000 ) ;
#244 = DIRECTION ( 'NONE',  ( 0.0000000000000000000, 0.0000000000000000000, -1.000000000000000000 ) ) ;
#245 = CONICAL_SURFACE ( 'NONE', #46, 0.05899594499999999409, 0.1745329251994339192 ) ;
#246 = CYLINDRICAL_SURFACE ( 'NONE', #272, 0.05905499999999998251 ) ;
#247 = APPLICATION_PROTOCOL_DEFINITION ( 'draft international standard', 'automotive_design', 1998, #185 ) ;
#248 = DIRECTION ( 'NONE',  ( -1.224646799147352961E-16, -0.0000000000000000000, -1.000000000000000000 ) ) ;
#249 = ORIENTED_EDGE ( 'NONE', *, *, #127, .F. ) ;
#250 = AXIS2_PLACEMENT_3D ( 'NONE', #261, #233, #28 ) ;
#251 = PRESENTATION_LAYER_ASSIGNMENT (  '', '', ( #186 ) ) ;
#252 = ORIENTED_EDGE ( 'NONE', *, *, #242, .F. ) ;
#253 = FILL_AREA_STYLE ('',( #42 ) ) ;
#254 = VERTEX_POINT ( 'NONE', #201 ) ;
#255 = CARTESIAN_POINT ( 'NONE',  ( 0.05905499999999998251, 7.232151672364692341E-18, 1.496062999999999921 ) ) ;
#256 = ORIENTED_EDGE ( 'NONE', *, *, #242, .T. ) ;
#257 = AXIS2_PLACEMENT_3D ( 'NONE', #281, #96, #265 ) ;
#258 = VERTEX_POINT ( 'NONE', #104 ) ;
#259 = COLOUR_RGB ( '',0.7921568627450980005, 0.8196078431372548767, 0.9333333333333333481 ) ;
#260 = ORIENTED_EDGE ( 'NONE', *, *, #142, .T. ) ;
#261 = CARTESIAN_POINT ( 'NONE',  ( 0.0000000000000000000, 0.0000000000000000000, 1.496062999999999921 ) ) ;
#262 = PRODUCT_CONTEXT ( 'NONE', #185, 'mechanical' ) ;
#263 = FACE_OUTER_BOUND ( 'NONE', #155, .T. ) ;
#264 = AXIS2_PLACEMENT_3D ( 'NONE', #4, #26, #237 ) ;
#265 = DIRECTION ( 'NONE',  ( -1.000000000000000000, 0.0000000000000000000, 0.0000000000000000000 ) ) ;
#266 = CARTESIAN_POINT ( 'NONE',  ( 0.04405500000000001082, 6.313666573004179469E-18, 1.496062999999999921 ) ) ;
#267 =( LENGTH_UNIT ( ) NAMED_UNIT ( * ) SI_UNIT ( $, .METRE. ) );
#268 = CIRCLE ( 'NONE', #65, 0.05905499999999998251 ) ;
#269 = DIRECTION ( 'NONE',  ( -0.1736481776669312194, 2.126576849575783625E-17, 0.9848077530122080203 ) ) ;
#270 = DIRECTION ( 'NONE',  ( -0.0000000000000000000, -0.0000000000000000000, -1.000000000000000000 ) ) ;
#271 = DIRECTION ( 'NONE',  ( 0.0000000000000000000, 0.0000000000000000000, 1.000000000000000000 ) ) ;
#272 = AXIS2_PLACEMENT_3D ( 'NONE', #38, #270, #124 ) ;
#273 =( LENGTH_UNIT ( ) NAMED_UNIT ( * ) SI_UNIT ( $, .METRE. ) );
#274 = ORIENTED_EDGE ( 'NONE', *, *, #111, .T. ) ;
#275 =( NAMED_UNIT ( * ) SI_UNIT ( $, .STERADIAN. ) SOLID_ANGLE_UNIT ( ) );
#276 = AXIS2_PLACEMENT_3D ( 'NONE', #150, #211, #90 ) ;
#277 = ORIENTED_EDGE ( 'NONE', *, *, #74, .F. ) ;
#278 = PRODUCT_DEFINITION_CONTEXT ( 'detailed design', #208, 'design' ) ;
#279 = ORIENTED_EDGE ( 'NONE', *, *, #183, .F. ) ;
#280 = EDGE_CURVE ( 'NONE', #5, #23, #66, .T. ) ;
#281 = CARTESIAN_POINT ( 'NONE',  ( 0.0000000000000000000, 0.0000000000000000000, 1.496062999999999921 ) ) ;
#282 = FACE_OUTER_BOUND ( 'NONE', #1, .T. ) ;
#283 = DIRECTION ( 'NONE',  ( 1.000000000000000000, 0.0000000000000000000, 0.0000000000000000000 ) ) ;
#284 = ORIENTED_EDGE ( 'NONE', *, *, #132, .F. ) ;
#285 = CARTESIAN_POINT ( 'NONE',  ( 0.05899594500000002878, 0.0000000000000000000, 0.2755909999999999749 ) ) ;
#286 = EDGE_CURVE ( 'NONE', #165, #258, #44, .T. ) ;
#287 = FACE_OUTER_BOUND ( 'NONE', #75, .T. ) ;
#288 =( NAMED_UNIT ( * ) PLANE_ANGLE_UNIT ( ) SI_UNIT ( $, .RADIAN. ) );
#289 = AXIS2_PLACEMENT_3D ( 'NONE', #171, #271, #99 ) ;
#290 = FACE_OUTER_BOUND ( 'NONE', #71, .T. ) ;
#291 = LINE ( 'NONE', #83, #70 ) ;
#292 = CARTESIAN_POINT ( 'NONE',  ( 0.0000000000000000000, 0.0000000000000000000, 1.496062999999999921 ) ) ;
#293 = MECHANICAL_DESIGN_GEOMETRIC_PRESENTATION_REPRESENTATION (  '', ( #57 ), #47 ) ;
#294 =( NAMED_UNIT ( * ) PLANE_ANGLE_UNIT ( ) SI_UNIT ( $, .RADIAN. ) );
#295 = ORIENTED_EDGE ( 'NONE', *, *, #140, .T. ) ;
#296 = LINE ( 'NONE', #255, #81 ) ;
#297 = ORIENTED_EDGE ( 'NONE', *, *, #89, .F. ) ;
#298 = SURFACE_SIDE_STYLE ('',( #20 ) ) ;
#299 = ORIENTED_EDGE ( 'NONE', *, *, #7, .F. ) ;
ENDSEC;
END-ISO-10303-21;
