ISO-10303-21;
HEADER;
FILE_DESCRIPTION (( 'STEP AP214' ),
    '1' );
FILE_NAME ('Micro_GEM-109-4.STEP',
    '2021-09-01T19:29:23',
    ( '' ),
    ( '' ),
    'SwSTEP 2.0',
    'SolidWorks 2020',
    '' );
FILE_SCHEMA (( 'AUTOMOTIVE_DESIGN' ));
ENDSEC;

DATA;
#1 = CIRCLE ( 'NONE', #212, 0.06250000000000002776 ) ;
#2 = VECTOR ( 'NONE', #48, 39.37007874015748854 ) ;
#3 = DIRECTION ( 'NONE',  ( 0.0000000000000000000, 0.0000000000000000000, 1.000000000000000000 ) ) ;
#4 = PRODUCT_DEFINITION_SHAPE ( 'NONE', 'NONE',  #210 ) ;
#5 = ORIENTED_EDGE ( 'NONE', *, *, #77, .T. ) ;
#6 =( LENGTH_UNIT ( ) NAMED_UNIT ( * ) SI_UNIT ( $, .METRE. ) );
#7 = VERTEX_POINT ( 'NONE', #160 ) ;
#8 = ORIENTED_EDGE ( 'NONE', *, *, #281, .T. ) ;
#9 = CARTESIAN_POINT ( 'NONE',  ( 0.0000000000000000000, 0.0000000000000000000, 1.500000000000000222 ) ) ;
#10 = AXIS2_PLACEMENT_3D ( 'NONE', #61, #218, #269 ) ;
#11 = DIRECTION ( 'NONE',  ( -0.0000000000000000000, -0.0000000000000000000, -1.000000000000000000 ) ) ;
#12 = DIRECTION ( 'NONE',  ( -0.0000000000000000000, -0.0000000000000000000, -1.000000000000000000 ) ) ;
#13 = PRODUCT_DEFINITION_CONTEXT ( 'detailed design', #97, 'design' ) ;
#14 = VERTEX_POINT ( 'NONE', #157 ) ;
#15 = CARTESIAN_POINT ( 'NONE',  ( 0.0000000000000000000, 0.0000000000000000000, 0.0000000000000000000 ) ) ;
#16 = COLOUR_RGB ( '',0.7921568627450980005, 0.8196078431372548767, 0.9333333333333333481 ) ;
#17 = DIRECTION ( 'NONE',  ( 1.000000000000000000, 0.0000000000000000000, 0.0000000000000000000 ) ) ;
#18 = CYLINDRICAL_SURFACE ( 'NONE', #150, 0.05464529999999999388 ) ;
#19 = ADVANCED_FACE ( 'NONE', ( #24 ), #153, .F. ) ;
#20 = SURFACE_SIDE_STYLE ('',( #170 ) ) ;
#21 = MECHANICAL_DESIGN_GEOMETRIC_PRESENTATION_REPRESENTATION (  '', ( #187 ), #58 ) ;
#22 = EDGE_CURVE ( 'NONE', #100, #7, #143, .T. ) ;
#23 = CARTESIAN_POINT ( 'NONE',  ( 0.0000000000000000000, 0.0000000000000000000, 1.485000000000000764 ) ) ;
#24 = FACE_OUTER_BOUND ( 'NONE', #99, .T. ) ;
#25 = CARTESIAN_POINT ( 'NONE',  ( 0.0000000000000000000, 0.0000000000000000000, 0.0000000000000000000 ) ) ;
#26 = ORIENTED_EDGE ( 'NONE', *, *, #114, .T. ) ;
#27 = CARTESIAN_POINT ( 'NONE',  ( 0.0000000000000000000, 0.0000000000000000000, 1.485000000000000764 ) ) ;
#28 = CIRCLE ( 'NONE', #215, 0.05464529999999999388 ) ;
#29 = LENGTH_MEASURE_WITH_UNIT ( LENGTH_MEASURE( 0.02539999999999999897 ), #274 );
#30 = ORIENTED_EDGE ( 'NONE', *, *, #158, .T. ) ;
#31 = VECTOR ( 'NONE', #12, 39.37007874015748143 ) ;
#32 = ORIENTED_EDGE ( 'NONE', *, *, #116, .T. ) ;
#33 = DIRECTION ( 'NONE',  ( 1.224646799147353700E-16, 0.0000000000000000000, 1.000000000000000000 ) ) ;
#34 = DIRECTION ( 'NONE',  ( 1.000000000000000000, 0.0000000000000000000, 0.0000000000000000000 ) ) ;
#35 = UNCERTAINTY_MEASURE_WITH_UNIT (LENGTH_MEASURE( 1.000000000000000082E-05 ), #95, 'distance_accuracy_value', 'NONE');
#36 = AXIS2_PLACEMENT_3D ( 'NONE', #291, #11, #104 ) ;
#37 = AXIS2_PLACEMENT_3D ( 'NONE', #78, #165, #60 ) ;
#38 = CARTESIAN_POINT ( 'NONE',  ( -0.05464529999999995225, 7.173080834007822861E-18, 0.3750000000000000555 ) ) ;
#39 = ORIENTED_EDGE ( 'NONE', *, *, #158, .F. ) ;
#40 = DIRECTION ( 'NONE',  ( 1.224646799147353700E-16, 0.0000000000000000000, 1.000000000000000000 ) ) ;
#41 = LINE ( 'NONE', #126, #206 ) ;
#42 = ADVANCED_FACE ( 'NONE', ( #264 ), #240, .T. ) ;
#43 = CARTESIAN_POINT ( 'NONE',  ( 0.05464530000000004245, 0.0000000000000000000, 0.3750000000000000555 ) ) ;
#44 = LENGTH_MEASURE_WITH_UNIT ( LENGTH_MEASURE( 0.02539999999999999897 ), #149 );
#45 = DIRECTION ( 'NONE',  ( 0.0000000000000000000, 0.0000000000000000000, 1.000000000000000000 ) ) ;
#46 = AXIS2_PLACEMENT_3D ( 'NONE', #9, #55, #105 ) ;
#47 = DIRECTION ( 'NONE',  ( -0.1736481776669311639, 2.126576849575783008E-17, 0.9848077530122080203 ) ) ;
#48 = DIRECTION ( 'NONE',  ( 0.7071067811865462405, 8.659560562354916834E-17, -0.7071067811865486830 ) ) ;
#49 = ORIENTED_EDGE ( 'NONE', *, *, #224, .F. ) ;
#50 = ORIENTED_EDGE ( 'NONE', *, *, #90, .F. ) ;
#51 = DIMENSIONAL_EXPONENTS ( 1.000000000000000000, 0.0000000000000000000, 0.0000000000000000000, 0.0000000000000000000, 0.0000000000000000000, 0.0000000000000000000, 0.0000000000000000000 ) ;
#52 = PRODUCT_CONTEXT ( 'NONE', #211, 'mechanical' ) ;
#53 = AXIS2_PLACEMENT_3D ( 'NONE', #280, #3, #98 ) ;
#54 = DIRECTION ( 'NONE',  ( 1.000000000000000000, 0.0000000000000000000, 0.0000000000000000000 ) ) ;
#55 = DIRECTION ( 'NONE',  ( 0.0000000000000000000, 0.0000000000000000000, -1.000000000000000000 ) ) ;
#56 = ORIENTED_EDGE ( 'NONE', *, *, #22, .T. ) ;
#57 = CARTESIAN_POINT ( 'NONE',  ( -0.06250000000000002776, 0.0000000000000000000, 1.500000000000000222 ) ) ;
#58 =( GEOMETRIC_REPRESENTATION_CONTEXT ( 3 ) GLOBAL_UNCERTAINTY_ASSIGNED_CONTEXT ( ( #147 ) ) GLOBAL_UNIT_ASSIGNED_CONTEXT ( ( #298, #256, #229 ) ) REPRESENTATION_CONTEXT ( 'NONE', 'WORKASPACE' ) );
#59 = ORIENTED_EDGE ( 'NONE', *, *, #192, .T. ) ;
#60 = DIRECTION ( 'NONE',  ( 1.000000000000000000, 0.0000000000000000000, 0.0000000000000000000 ) ) ;
#61 = CARTESIAN_POINT ( 'NONE',  ( 4.592425496802576684E-17, 0.0000000000000000000, 0.3750000000000000555 ) ) ;
#62 = ORIENTED_EDGE ( 'NONE', *, *, #116, .F. ) ;
#63 = CARTESIAN_POINT ( 'NONE',  ( 0.04750000000000064587, 5.817072295950006528E-18, 1.500000000000000222 ) ) ;
#64 = AXIS2_PLACEMENT_3D ( 'NONE', #101, #140, #191 ) ;
#65 = PRESENTATION_STYLE_ASSIGNMENT (( #271 ) ) ;
#66 = LINE ( 'NONE', #198, #233 ) ;
#67 = STYLED_ITEM ( 'NONE', ( #276 ), #283 ) ;
#68 = ADVANCED_FACE ( 'NONE', ( #287 ), #110, .T. ) ;
#69 = EDGE_LOOP ( 'NONE', ( #261, #59, #62, #39 ) ) ;
#70 = DIMENSIONAL_EXPONENTS ( 1.000000000000000000, 0.0000000000000000000, 0.0000000000000000000, 0.0000000000000000000, 0.0000000000000000000, 0.0000000000000000000, 0.0000000000000000000 ) ;
#71 = VERTEX_POINT ( 'NONE', #38 ) ;
#72 = ORIENTED_EDGE ( 'NONE', *, *, #196, .F. ) ;
#73 = AXIS2_PLACEMENT_3D ( 'NONE', #86, #112, #131 ) ;
#74 = CARTESIAN_POINT ( 'NONE',  ( -0.04750000000000064587, 0.0000000000000000000, 1.500000000000000222 ) ) ;
#75 = ORIENTED_EDGE ( 'NONE', *, *, #293, .F. ) ;
#76 = DIRECTION ( 'NONE',  ( 1.000000000000000000, 0.0000000000000000000, 0.0000000000000000000 ) ) ;
#77 = EDGE_CURVE ( 'NONE', #277, #100, #79, .T. ) ;
#78 = CARTESIAN_POINT ( 'NONE',  ( 0.0000000000000000000, 0.0000000000000000000, 1.500000000000000222 ) ) ;
#79 = CIRCLE ( 'NONE', #252, 0.04750000000000064587 ) ;
#80 = AXIS2_PLACEMENT_3D ( 'NONE', #122, #268, #265 ) ;
#81 = CARTESIAN_POINT ( 'NONE',  ( 5.137959321212973182E-17, 0.0000000000000000000, 0.4195462173085511837 ) ) ;
#82 = DIRECTION ( 'NONE',  ( 1.000000000000000000, 0.0000000000000000000, -0.0000000000000000000 ) ) ;
#83 = FILL_AREA_STYLE_COLOUR ( '', #194 ) ;
#84 = CIRCLE ( 'NONE', #254, 0.06250000000000002776 ) ;
#85 = CARTESIAN_POINT ( 'NONE',  ( -0.05464529999999999388, 0.0000000000000000000, 6.692119173344688177E-18 ) ) ;
#86 = CARTESIAN_POINT ( 'NONE',  ( 8.195482325149207809E-34, 0.0000000000000000000, 6.692119173344688177E-18 ) ) ;
#87 = ORIENTED_EDGE ( 'NONE', *, *, #141, .T. ) ;
#88 = DIRECTION ( 'NONE',  ( 1.000000000000000000, 0.0000000000000000000, 0.0000000000000000000 ) ) ;
#89 = ORIENTED_EDGE ( 'NONE', *, *, #224, .T. ) ;
#90 = EDGE_CURVE ( 'NONE', #14, #71, #115, .T. ) ;
#91 = DIRECTION ( 'NONE',  ( -1.224646799147353700E-16, -0.0000000000000000000, -1.000000000000000000 ) ) ;
#92 = ORIENTED_EDGE ( 'NONE', *, *, #293, .T. ) ;
#93 = ADVANCED_FACE ( 'NONE', ( #286 ), #232, .T. ) ;
#94 = ORIENTED_EDGE ( 'NONE', *, *, #77, .F. ) ;
#95 =( CONVERSION_BASED_UNIT ( 'INCH', #29 ) LENGTH_UNIT ( ) NAMED_UNIT ( #234 ) );
#96 = VECTOR ( 'NONE', #223, 39.37007874015748143 ) ;
#97 = APPLICATION_CONTEXT ( 'automotive_design' ) ;
#98 = DIRECTION ( 'NONE',  ( 1.000000000000000000, 0.0000000000000000000, 0.0000000000000000000 ) ) ;
#99 = EDGE_LOOP ( 'NONE', ( #89, #156 ) ) ;
#100 = VERTEX_POINT ( 'NONE', #74 ) ;
#101 = CARTESIAN_POINT ( 'NONE',  ( 0.0000000000000000000, 0.0000000000000000000, 1.500000000000000222 ) ) ;
#102 = CIRCLE ( 'NONE', #10, 0.05464529999999999388 ) ;
#103 = EDGE_LOOP ( 'NONE', ( #94, #139, #72, #205 ) ) ;
#104 = DIRECTION ( 'NONE',  ( -1.000000000000000000, 0.0000000000000000000, 0.0000000000000000000 ) ) ;
#105 = DIRECTION ( 'NONE',  ( -1.000000000000000000, 0.0000000000000000000, 0.0000000000000000000 ) ) ;
#106 = DIRECTION ( 'NONE',  ( -1.224646799147353700E-16, -0.0000000000000000000, -1.000000000000000000 ) ) ;
#107 = CARTESIAN_POINT ( 'NONE',  ( 0.0000000000000000000, 0.0000000000000000000, 1.500000000000000222 ) ) ;
#108 = CARTESIAN_POINT ( 'NONE',  ( -0.06249999999999997224, 0.0000000000000000000, 0.4195462173085511837 ) ) ;
#109 = ADVANCED_FACE ( 'NONE', ( #118 ), #285, .T. ) ;
#110 = CONICAL_SURFACE ( 'NONE', #46, 0.04750000000000064587, 0.7853981633974466137 ) ;
#111 = DIRECTION ( 'NONE',  ( 1.000000000000000000, 0.0000000000000000000, -0.0000000000000000000 ) ) ;
#112 = DIRECTION ( 'NONE',  ( -1.224646799147353700E-16, -0.0000000000000000000, -1.000000000000000000 ) ) ;
#113 = CIRCLE ( 'NONE', #270, 0.06250000000000002776 ) ;
#114 = EDGE_CURVE ( 'NONE', #292, #237, #113, .T. ) ;
#115 = CIRCLE ( 'NONE', #193, 0.05464529999999999388 ) ;
#116 = EDGE_CURVE ( 'NONE', #237, #292, #1, .T. ) ;
#117 = SURFACE_STYLE_USAGE ( .BOTH. , #183 ) ;
#118 = FACE_OUTER_BOUND ( 'NONE', #103, .T. ) ;
#119 = ORIENTED_EDGE ( 'NONE', *, *, #296, .T. ) ;
#120 = VECTOR ( 'NONE', #169, 39.37007874015748854 ) ;
#121 = DIRECTION ( 'NONE',  ( -1.224646799147353700E-16, -0.0000000000000000000, -1.000000000000000000 ) ) ;
#122 = CARTESIAN_POINT ( 'NONE',  ( 0.0000000000000000000, 0.0000000000000000000, 1.500000000000000222 ) ) ;
#123 = UNCERTAINTY_MEASURE_WITH_UNIT (LENGTH_MEASURE( 1.000000000000000082E-05 ), #260, 'distance_accuracy_value', 'NONE');
#124 = ORIENTED_EDGE ( 'NONE', *, *, #166, .T. ) ;
#125 = FACE_OUTER_BOUND ( 'NONE', #239, .T. ) ;
#126 = CARTESIAN_POINT ( 'NONE',  ( 0.06250000000000002776, 7.654042494670959086E-18, 1.500000000000000222 ) ) ;
#127 = CARTESIAN_POINT ( 'NONE',  ( 0.0000000000000000000, 0.0000000000000000000, 1.500000000000000222 ) ) ;
#128 = ADVANCED_FACE ( 'NONE', ( #163 ), #288, .T. ) ;
#129 = LINE ( 'NONE', #43, #96 ) ;
#130 = LINE ( 'NONE', #63, #2 ) ;
#131 = DIRECTION ( 'NONE',  ( -1.000000000000000000, 0.0000000000000000000, 1.224646799147353700E-16 ) ) ;
#132 = ORIENTED_EDGE ( 'NONE', *, *, #259, .F. ) ;
#133 = AXIS2_PLACEMENT_3D ( 'NONE', #244, #40, #17 ) ;
#134 = APPLICATION_PROTOCOL_DEFINITION ( 'draft international standard', 'automotive_design', 1998, #97 ) ;
#135 = AXIS2_PLACEMENT_3D ( 'NONE', #127, #45, #111 ) ;
#136 = SHAPE_DEFINITION_REPRESENTATION ( #4, #283 ) ;
#137 = ORIENTED_EDGE ( 'NONE', *, *, #249, .T. ) ;
#138 = DIRECTION ( 'NONE',  ( 0.0000000000000000000, 0.0000000000000000000, 1.000000000000000000 ) ) ;
#139 = ORIENTED_EDGE ( 'NONE', *, *, #259, .T. ) ;
#140 = DIRECTION ( 'NONE',  ( 0.0000000000000000000, 0.0000000000000000000, -1.000000000000000000 ) ) ;
#141 = EDGE_CURVE ( 'NONE', #71, #14, #102, .T. ) ;
#142 = EDGE_LOOP ( 'NONE', ( #87, #267, #49, #161 ) ) ;
#143 = LINE ( 'NONE', #242, #120 ) ;
#144 = AXIS2_PLACEMENT_3D ( 'NONE', #23, #222, #200 ) ;
#145 = ORIENTED_EDGE ( 'NONE', *, *, #141, .F. ) ;
#146 = FACE_OUTER_BOUND ( 'NONE', #179, .T. ) ;
#147 = UNCERTAINTY_MEASURE_WITH_UNIT (LENGTH_MEASURE( 1.000000000000000082E-05 ), #298, 'distance_accuracy_value', 'NONE');
#148 = CARTESIAN_POINT ( 'NONE',  ( 0.05464529999999999388, 6.692119173344685866E-18, 0.0000000000000000000 ) ) ;
#149 =( LENGTH_UNIT ( ) NAMED_UNIT ( * ) SI_UNIT ( $, .METRE. ) );
#150 = AXIS2_PLACEMENT_3D ( 'NONE', #25, #294, #272 ) ;
#151 = EDGE_LOOP ( 'NONE', ( #246, #137, #30, #255 ) ) ;
#152 = CARTESIAN_POINT ( 'NONE',  ( 8.195482325149207809E-34, 0.0000000000000000000, 6.692119173344688177E-18 ) ) ;
#153 = PLANE ( 'NONE',  #185 ) ;
#154 = DIRECTION ( 'NONE',  ( -1.000000000000000000, 0.0000000000000000000, 1.224646799147353700E-16 ) ) ;
#155 =( NAMED_UNIT ( * ) SI_UNIT ( $, .STERADIAN. ) SOLID_ANGLE_UNIT ( ) );
#156 = ORIENTED_EDGE ( 'NONE', *, *, #266, .T. ) ;
#157 = CARTESIAN_POINT ( 'NONE',  ( 0.05464530000000004245, 0.0000000000000000000, 0.3750000000000000555 ) ) ;
#158 = EDGE_CURVE ( 'NONE', #7, #237, #195, .T. ) ;
#159 = PRESENTATION_LAYER_ASSIGNMENT (  '', '', ( #67 ) ) ;
#160 = CARTESIAN_POINT ( 'NONE',  ( -0.06250000000000002776, 0.0000000000000000000, 1.485000000000000764 ) ) ;
#161 = ORIENTED_EDGE ( 'NONE', *, *, #296, .F. ) ;
#162 = CARTESIAN_POINT ( 'NONE',  ( 4.592425496802576684E-17, 0.0000000000000000000, 0.3750000000000000555 ) ) ;
#163 = FACE_OUTER_BOUND ( 'NONE', #151, .T. ) ;
#164 = VECTOR ( 'NONE', #176, 39.37007874015748143 ) ;
#165 = DIRECTION ( 'NONE',  ( 0.0000000000000000000, 0.0000000000000000000, 1.000000000000000000 ) ) ;
#166 = EDGE_CURVE ( 'NONE', #100, #277, #201, .T. ) ;
#167 = DIRECTION ( 'NONE',  ( 1.000000000000000000, 0.0000000000000000000, 0.0000000000000000000 ) ) ;
#168 = ADVANCED_FACE ( 'NONE', ( #146 ), #278, .T. ) ;
#169 = DIRECTION ( 'NONE',  ( -0.7071067811865462405, 0.0000000000000000000, -0.7071067811865486830 ) ) ;
#170 = SURFACE_STYLE_FILL_AREA ( #204 ) ;
#171 = ADVANCED_FACE ( 'NONE', ( #125 ), #219, .T. ) ;
#172 = PRESENTATION_LAYER_ASSIGNMENT (  '', '', ( #187 ) ) ;
#173 = DIRECTION ( 'NONE',  ( -1.224646799147353700E-16, -0.0000000000000000000, -1.000000000000000000 ) ) ;
#174 = CARTESIAN_POINT ( 'NONE',  ( 0.04750000000000064587, 6.735557395310483192E-18, 1.500000000000000222 ) ) ;
#175 = ORIENTED_EDGE ( 'NONE', *, *, #249, .F. ) ;
#176 = DIRECTION ( 'NONE',  ( -1.224646799147353700E-16, -0.0000000000000000000, -1.000000000000000000 ) ) ;
#177 = PRODUCT_DEFINITION_FORMATION_WITH_SPECIFIED_SOURCE ( 'ANY', '', #202, .NOT_KNOWN. ) ;
#178 =( NAMED_UNIT ( * ) SI_UNIT ( $, .STERADIAN. ) SOLID_ANGLE_UNIT ( ) );
#179 = EDGE_LOOP ( 'NONE', ( #181, #50, #92, #26 ) ) ;
#180 = FILL_AREA_STYLE_COLOUR ( '', #16 ) ;
#181 = ORIENTED_EDGE ( 'NONE', *, *, #281, .F. ) ;
#182 = CARTESIAN_POINT ( 'NONE',  ( 0.0000000000000000000, 0.0000000000000000000, 0.0000000000000000000 ) ) ;
#183 = SURFACE_SIDE_STYLE ('',( #275 ) ) ;
#184 = VERTEX_POINT ( 'NONE', #148 ) ;
#185 = AXIS2_PLACEMENT_3D ( 'NONE', #182, #197, #82 ) ;
#186 = VERTEX_POINT ( 'NONE', #245 ) ;
#187 = STYLED_ITEM ( 'NONE', ( #65 ), #282 ) ;
#188 = EDGE_LOOP ( 'NONE', ( #132, #216, #56, #175 ) ) ;
#189 = DIRECTION ( 'NONE',  ( -1.224646799147353700E-16, -0.0000000000000000000, -1.000000000000000000 ) ) ;
#190 = CARTESIAN_POINT ( 'NONE',  ( 4.592425496802576684E-17, 0.0000000000000000000, 0.3750000000000000555 ) ) ;
#191 = DIRECTION ( 'NONE',  ( -1.000000000000000000, 0.0000000000000000000, 0.0000000000000000000 ) ) ;
#192 = EDGE_CURVE ( 'NONE', #186, #292, #41, .T. ) ;
#193 = AXIS2_PLACEMENT_3D ( 'NONE', #162, #189, #238 ) ;
#194 = COLOUR_RGB ( '',0.7921568627450980005, 0.8196078431372548767, 0.9333333333333333481 ) ;
#195 = LINE ( 'NONE', #57, #31 ) ;
#196 = EDGE_CURVE ( 'NONE', #7, #186, #258, .T. ) ;
#197 = DIRECTION ( 'NONE',  ( 0.0000000000000000000, 0.0000000000000000000, 1.000000000000000000 ) ) ;
#198 = CARTESIAN_POINT ( 'NONE',  ( -0.05464529999999995225, 6.692119173344685866E-18, 0.3750000000000000555 ) ) ;
#199 = ADVANCED_FACE ( 'NONE', ( #297 ), #18, .T. ) ;
#200 = DIRECTION ( 'NONE',  ( 1.000000000000000000, 0.0000000000000000000, 0.0000000000000000000 ) ) ;
#201 = CIRCLE ( 'NONE', #37, 0.04750000000000064587 ) ;
#202 = PRODUCT ( 'Micro_GEM-109-4', 'Micro_GEM-109-4', '', ( #52 ) ) ;
#203 = CARTESIAN_POINT ( 'NONE',  ( 0.05464529999999999388, 6.692119173344685866E-18, -6.692119173344688177E-18 ) ) ;
#204 = FILL_AREA_STYLE ('',( #83 ) ) ;
#205 = ORIENTED_EDGE ( 'NONE', *, *, #22, .F. ) ;
#206 = VECTOR ( 'NONE', #221, 39.37007874015748143 ) ;
#207 = PRODUCT_RELATED_PRODUCT_CATEGORY ( 'part', '', ( #202 ) ) ;
#208 =( NAMED_UNIT ( * ) PLANE_ANGLE_UNIT ( ) SI_UNIT ( $, .RADIAN. ) );
#209 =( NAMED_UNIT ( * ) PLANE_ANGLE_UNIT ( ) SI_UNIT ( $, .RADIAN. ) );
#210 = PRODUCT_DEFINITION ( 'UNKNOWN', '', #177, #13 ) ;
#211 = APPLICATION_CONTEXT ( 'automotive_design' ) ;
#212 = AXIS2_PLACEMENT_3D ( 'NONE', #214, #121, #76 ) ;
#213 = FILL_AREA_STYLE ('',( #180 ) ) ;
#214 = CARTESIAN_POINT ( 'NONE',  ( 5.137959321212973182E-17, 0.0000000000000000000, 0.4195462173085511837 ) ) ;
#215 = AXIS2_PLACEMENT_3D ( 'NONE', #152, #91, #154 ) ;
#216 = ORIENTED_EDGE ( 'NONE', *, *, #166, .F. ) ;
#217 = DIRECTION ( 'NONE',  ( -1.224646799147353700E-16, -0.0000000000000000000, -1.000000000000000000 ) ) ;
#218 = DIRECTION ( 'NONE',  ( -1.224646799147353700E-16, -0.0000000000000000000, -1.000000000000000000 ) ) ;
#219 = CYLINDRICAL_SURFACE ( 'NONE', #247, 0.05464529999999999388 ) ;
#220 = AXIS2_PLACEMENT_3D ( 'NONE', #190, #33, #167 ) ;
#221 = DIRECTION ( 'NONE',  ( -0.0000000000000000000, -0.0000000000000000000, -1.000000000000000000 ) ) ;
#222 = DIRECTION ( 'NONE',  ( 0.0000000000000000000, 0.0000000000000000000, -1.000000000000000000 ) ) ;
#223 = DIRECTION ( 'NONE',  ( 0.1736481776669313581, 0.0000000000000000000, 0.9848077530122077983 ) ) ;
#224 = EDGE_CURVE ( 'NONE', #263, #184, #28, .T. ) ;
#225 = LINE ( 'NONE', #203, #164 ) ;
#226 = CLOSED_SHELL ( 'NONE', ( #199, #93, #109, #42, #128, #243, #68, #168, #171, #19 ) ) ;
#227 = CIRCLE ( 'NONE', #73, 0.05464529999999999388 ) ;
#228 = DIRECTION ( 'NONE',  ( 0.0000000000000000000, 0.0000000000000000000, -1.000000000000000000 ) ) ;
#229 =( NAMED_UNIT ( * ) SI_UNIT ( $, .STERADIAN. ) SOLID_ANGLE_UNIT ( ) );
#230 = APPLICATION_PROTOCOL_DEFINITION ( 'draft international standard', 'automotive_design', 1998, #211 ) ;
#231 = VECTOR ( 'NONE', #173, 39.37007874015748143 ) ;
#232 = CONICAL_SURFACE ( 'NONE', #220, 0.05464529999999999388, 0.1745329251994338637 ) ;
#233 = VECTOR ( 'NONE', #47, 39.37007874015747433 ) ;
#234 = DIMENSIONAL_EXPONENTS ( 1.000000000000000000, 0.0000000000000000000, 0.0000000000000000000, 0.0000000000000000000, 0.0000000000000000000, 0.0000000000000000000, 0.0000000000000000000 ) ;
#235 = LENGTH_MEASURE_WITH_UNIT ( LENGTH_MEASURE( 0.02539999999999999897 ), #6 );
#236 = ORIENTED_EDGE ( 'NONE', *, *, #262, .F. ) ;
#237 = VERTEX_POINT ( 'NONE', #108 ) ;
#238 = DIRECTION ( 'NONE',  ( -1.000000000000000000, 0.0000000000000000000, 0.0000000000000000000 ) ) ;
#239 = EDGE_LOOP ( 'NONE', ( #236, #284, #119, #257 ) ) ;
#240 = CYLINDRICAL_SURFACE ( 'NONE', #36, 0.06250000000000002776 ) ;
#241 = MECHANICAL_DESIGN_GEOMETRIC_PRESENTATION_REPRESENTATION (  '', ( #67 ), #273 ) ;
#242 = CARTESIAN_POINT ( 'NONE',  ( -0.04750000000000064587, 0.0000000000000000000, 1.500000000000000222 ) ) ;
#243 = ADVANCED_FACE ( 'NONE', ( #299 ), #250, .T. ) ;
#244 = CARTESIAN_POINT ( 'NONE',  ( 4.592425496802576684E-17, 0.0000000000000000000, 0.3750000000000000555 ) ) ;
#245 = CARTESIAN_POINT ( 'NONE',  ( 0.06250000000000002776, 7.654042494670959086E-18, 1.485000000000000764 ) ) ;
#246 = ORIENTED_EDGE ( 'NONE', *, *, #192, .F. ) ;
#247 = AXIS2_PLACEMENT_3D ( 'NONE', #15, #106, #290 ) ;
#248 = CARTESIAN_POINT ( 'NONE',  ( 0.06250000000000008327, 7.654042494670966789E-18, 0.4195462173085511837 ) ) ;
#249 = EDGE_CURVE ( 'NONE', #186, #7, #84, .T. ) ;
#250 = PLANE ( 'NONE',  #135 ) ;
#251 = EDGE_LOOP ( 'NONE', ( #124, #5 ) ) ;
#252 = AXIS2_PLACEMENT_3D ( 'NONE', #107, #138, #54 ) ;
#253 = CARTESIAN_POINT ( 'NONE',  ( -0.05464529999999999388, 0.0000000000000000000, 1.338423834668937635E-17 ) ) ;
#254 = AXIS2_PLACEMENT_3D ( 'NONE', #27, #228, #88 ) ;
#255 = ORIENTED_EDGE ( 'NONE', *, *, #114, .F. ) ;
#256 =( NAMED_UNIT ( * ) PLANE_ANGLE_UNIT ( ) SI_UNIT ( $, .RADIAN. ) );
#257 = ORIENTED_EDGE ( 'NONE', *, *, #266, .F. ) ;
#258 = CIRCLE ( 'NONE', #144, 0.06250000000000002776 ) ;
#259 = EDGE_CURVE ( 'NONE', #277, #186, #130, .T. ) ;
#260 =( CONVERSION_BASED_UNIT ( 'INCH', #235 ) LENGTH_UNIT ( ) NAMED_UNIT ( #51 ) );
#261 = ORIENTED_EDGE ( 'NONE', *, *, #196, .T. ) ;
#262 = EDGE_CURVE ( 'NONE', #14, #184, #225, .T. ) ;
#263 = VERTEX_POINT ( 'NONE', #253 ) ;
#264 = FACE_OUTER_BOUND ( 'NONE', #69, .T. ) ;
#265 = DIRECTION ( 'NONE',  ( -1.000000000000000000, 0.0000000000000000000, 0.0000000000000000000 ) ) ;
#266 = EDGE_CURVE ( 'NONE', #184, #263, #227, .T. ) ;
#267 = ORIENTED_EDGE ( 'NONE', *, *, #262, .T. ) ;
#268 = DIRECTION ( 'NONE',  ( -0.0000000000000000000, -0.0000000000000000000, -1.000000000000000000 ) ) ;
#269 = DIRECTION ( 'NONE',  ( -1.000000000000000000, 0.0000000000000000000, 0.0000000000000000000 ) ) ;
#270 = AXIS2_PLACEMENT_3D ( 'NONE', #81, #217, #34 ) ;
#271 = SURFACE_STYLE_USAGE ( .BOTH. , #20 ) ;
#272 = DIRECTION ( 'NONE',  ( -1.000000000000000000, 0.0000000000000000000, 1.224646799147353700E-16 ) ) ;
#273 =( GEOMETRIC_REPRESENTATION_CONTEXT ( 3 ) GLOBAL_UNCERTAINTY_ASSIGNED_CONTEXT ( ( #35 ) ) GLOBAL_UNIT_ASSIGNED_CONTEXT ( ( #95, #209, #155 ) ) REPRESENTATION_CONTEXT ( 'NONE', 'WORKASPACE' ) );
#274 =( LENGTH_UNIT ( ) NAMED_UNIT ( * ) SI_UNIT ( $, .METRE. ) );
#275 = SURFACE_STYLE_FILL_AREA ( #213 ) ;
#276 = PRESENTATION_STYLE_ASSIGNMENT (( #117 ) ) ;
#277 = VERTEX_POINT ( 'NONE', #174 ) ;
#278 = CONICAL_SURFACE ( 'NONE', #133, 0.05464529999999999388, 0.1745329251994338637 ) ;
#279 = EDGE_LOOP ( 'NONE', ( #145, #8, #32, #75 ) ) ;
#280 = CARTESIAN_POINT ( 'NONE',  ( 0.0000000000000000000, 0.0000000000000000000, 0.0000000000000000000 ) ) ;
#281 = EDGE_CURVE ( 'NONE', #71, #237, #66, .T. ) ;
#282 = MANIFOLD_SOLID_BREP ( 'Cut-Revolve1', #226 ) ;
#283 = ADVANCED_BREP_SHAPE_REPRESENTATION ( 'Micro_GEM-109-4', ( #282, #53 ), #289 ) ;
#284 = ORIENTED_EDGE ( 'NONE', *, *, #90, .T. ) ;
#285 = CONICAL_SURFACE ( 'NONE', #64, 0.04750000000000064587, 0.7853981633974466137 ) ;
#286 = FACE_OUTER_BOUND ( 'NONE', #279, .T. ) ;
#287 = FACE_OUTER_BOUND ( 'NONE', #188, .T. ) ;
#288 = CYLINDRICAL_SURFACE ( 'NONE', #80, 0.06250000000000002776 ) ;
#289 =( GEOMETRIC_REPRESENTATION_CONTEXT ( 3 ) GLOBAL_UNCERTAINTY_ASSIGNED_CONTEXT ( ( #123 ) ) GLOBAL_UNIT_ASSIGNED_CONTEXT ( ( #260, #208, #178 ) ) REPRESENTATION_CONTEXT ( 'NONE', 'WORKASPACE' ) );
#290 = DIRECTION ( 'NONE',  ( -1.000000000000000000, 0.0000000000000000000, 1.224646799147353700E-16 ) ) ;
#291 = CARTESIAN_POINT ( 'NONE',  ( 0.0000000000000000000, 0.0000000000000000000, 1.500000000000000222 ) ) ;
#292 = VERTEX_POINT ( 'NONE', #248 ) ;
#293 = EDGE_CURVE ( 'NONE', #14, #292, #129, .T. ) ;
#294 = DIRECTION ( 'NONE',  ( -1.224646799147353700E-16, -0.0000000000000000000, -1.000000000000000000 ) ) ;
#295 = LINE ( 'NONE', #85, #231 ) ;
#296 = EDGE_CURVE ( 'NONE', #71, #263, #295, .T. ) ;
#297 = FACE_OUTER_BOUND ( 'NONE', #142, .T. ) ;
#298 =( CONVERSION_BASED_UNIT ( 'INCH', #44 ) LENGTH_UNIT ( ) NAMED_UNIT ( #70 ) );
#299 = FACE_OUTER_BOUND ( 'NONE', #251, .T. ) ;
ENDSEC;
END-ISO-10303-21;
