ISO-10303-21;
HEADER;
FILE_DESCRIPTION (( 'STEP AP214' ),
    '1' );
FILE_NAME ('Micro_RNC-187-13X.STEP',
    '2021-09-03T17:34:08',
    ( '' ),
    ( '' ),
    'SwSTEP 2.0',
    'SolidWorks 2020',
    '' );
FILE_SCHEMA (( 'AUTOMOTIVE_DESIGN' ));
ENDSEC;

DATA;
#1 = PRODUCT_DEFINITION_FORMATION_WITH_SPECIFIED_SOURCE ( 'ANY', '', #52, .NOT_KNOWN. ) ;
#2 = ORIENTED_EDGE ( 'NONE', *, *, #106, .T. ) ;
#3 = ORIENTED_EDGE ( 'NONE', *, *, #223, .F. ) ;
#4 = CARTESIAN_POINT ( 'NONE',  ( -0.004000000000000000083, 5.985461230832689413E-18, 0.0000000000000000000 ) ) ;
#5 = ADVANCED_FACE ( 'NONE', ( #92 ), #50, .T. ) ;
#6 = PRESENTATION_STYLE_ASSIGNMENT (( #205 ) ) ;
#7 = DIRECTION ( 'NONE',  ( -0.0000000000000000000, -0.0000000000000000000, -1.000000000000000000 ) ) ;
#8 = LINE ( 'NONE', #41, #144 ) ;
#9 = DIRECTION ( 'NONE',  ( -0.0000000000000000000, -0.0000000000000000000, -1.000000000000000000 ) ) ;
#10 = DIRECTION ( 'NONE',  ( 1.000000000000000000, 0.0000000000000000000, 0.0000000000000000000 ) ) ;
#11 = UNCERTAINTY_MEASURE_WITH_UNIT (LENGTH_MEASURE( 1.000000000000000082E-05 ), #12, 'distance_accuracy_value', 'NONE');
#12 =( CONVERSION_BASED_UNIT ( 'INCH', #176 ) LENGTH_UNIT ( ) NAMED_UNIT ( #149 ) );
#13 = CARTESIAN_POINT ( 'NONE',  ( 0.07875000000000088873, 9.644093543285513034E-18, 3.000000000000000444 ) ) ;
#14 = DIRECTION ( 'NONE',  ( 1.000000000000000000, 0.0000000000000000000, 0.0000000000000000000 ) ) ;
#15 = ORIENTED_EDGE ( 'NONE', *, *, #213, .T. ) ;
#16 = ORIENTED_EDGE ( 'NONE', *, *, #118, .F. ) ;
#17 = VERTEX_POINT ( 'NONE', #4 ) ;
#18 = ORIENTED_EDGE ( 'NONE', *, *, #186, .T. ) ;
#19 = VERTEX_POINT ( 'NONE', #75 ) ;
#20 = VECTOR ( 'NONE', #172, 39.37007874015748854 ) ;
#21 = FILL_AREA_STYLE ('',( #147 ) ) ;
#22 = DIMENSIONAL_EXPONENTS ( 1.000000000000000000, 0.0000000000000000000, 0.0000000000000000000, 0.0000000000000000000, 0.0000000000000000000, 0.0000000000000000000, 0.0000000000000000000 ) ;
#23 = DIRECTION ( 'NONE',  ( 0.0000000000000000000, 0.0000000000000000000, 1.000000000000000000 ) ) ;
#24 = AXIS2_PLACEMENT_3D ( 'NONE', #131, #71, #14 ) ;
#25 = CARTESIAN_POINT ( 'NONE',  ( -0.07875000000000088873, 0.0000000000000000000, 3.000000000000000444 ) ) ;
#26 = CARTESIAN_POINT ( 'NONE',  ( 0.0000000000000000000, 0.0000000000000000000, 3.000000000000000444 ) ) ;
#27 =( NAMED_UNIT ( * ) SI_UNIT ( $, .STERADIAN. ) SOLID_ANGLE_UNIT ( ) );
#28 = DIRECTION ( 'NONE',  ( -0.0000000000000000000, -0.0000000000000000000, -1.000000000000000000 ) ) ;
#29 = CONICAL_SURFACE ( 'NONE', #234, 0.07875000000000088873, 0.7853981633974107535 ) ;
#30 = APPLICATION_PROTOCOL_DEFINITION ( 'draft international standard', 'automotive_design', 1998, #45 ) ;
#31 = EDGE_LOOP ( 'NONE', ( #18, #152 ) ) ;
#32 =( NAMED_UNIT ( * ) PLANE_ANGLE_UNIT ( ) SI_UNIT ( $, .RADIAN. ) );
#33 = ORIENTED_EDGE ( 'NONE', *, *, #124, .F. ) ;
#34 = ORIENTED_EDGE ( 'NONE', *, *, #115, .T. ) ;
#35 = ORIENTED_EDGE ( 'NONE', *, *, #168, .T. ) ;
#36 = VERTEX_POINT ( 'NONE', #227 ) ;
#37 = FACE_OUTER_BOUND ( 'NONE', #156, .T. ) ;
#38 = COLOUR_RGB ( '',0.7921568627450980005, 0.8196078431372548767, 0.9333333333333333481 ) ;
#39 = DIRECTION ( 'NONE',  ( 1.000000000000000000, 0.0000000000000000000, 0.0000000000000000000 ) ) ;
#40 = CARTESIAN_POINT ( 'NONE',  ( 0.0000000000000000000, 0.0000000000000000000, 0.08974999999999963562 ) ) ;
#41 = CARTESIAN_POINT ( 'NONE',  ( 0.09375000000000001388, 1.148106374200643401E-17, 3.000000000000000444 ) ) ;
#42 = PRESENTATION_LAYER_ASSIGNMENT (  '', '', ( #219 ) ) ;
#43 = DIRECTION ( 'NONE',  ( -0.0000000000000000000, -0.0000000000000000000, -1.000000000000000000 ) ) ;
#44 = DIMENSIONAL_EXPONENTS ( 1.000000000000000000, 0.0000000000000000000, 0.0000000000000000000, 0.0000000000000000000, 0.0000000000000000000, 0.0000000000000000000, 0.0000000000000000000 ) ;
#45 = APPLICATION_CONTEXT ( 'automotive_design' ) ;
#46 =( NAMED_UNIT ( * ) PLANE_ANGLE_UNIT ( ) SI_UNIT ( $, .RADIAN. ) );
#47 = ADVANCED_FACE ( 'NONE', ( #98 ), #29, .T. ) ;
#48 = VECTOR ( 'NONE', #84, 39.37007874015748854 ) ;
#49 = EDGE_LOOP ( 'NONE', ( #247, #34, #95, #198 ) ) ;
#50 = PLANE ( 'NONE',  #244 ) ;
#51 = AXIS2_PLACEMENT_3D ( 'NONE', #78, #239, #224 ) ;
#52 = PRODUCT ( 'Micro_RNC-187-13X', 'Micro_RNC-187-13X', '', ( #107 ) ) ;
#53 = VERTEX_POINT ( 'NONE', #25 ) ;
#54 = FACE_OUTER_BOUND ( 'NONE', #161, .T. ) ;
#55 = UNCERTAINTY_MEASURE_WITH_UNIT (LENGTH_MEASURE( 1.000000000000000082E-05 ), #110, 'distance_accuracy_value', 'NONE');
#56 = CARTESIAN_POINT ( 'NONE',  ( 0.0000000000000000000, 0.0000000000000000000, 0.0000000000000000000 ) ) ;
#57 = VECTOR ( 'NONE', #96, 39.37007874015748143 ) ;
#58 = DIRECTION ( 'NONE',  ( -1.000000000000000000, 0.0000000000000000000, 0.0000000000000000000 ) ) ;
#59 = CARTESIAN_POINT ( 'NONE',  ( 0.0000000000000000000, 0.0000000000000000000, 0.08974999999999963562 ) ) ;
#60 = DIRECTION ( 'NONE',  ( -1.000000000000000000, 0.0000000000000000000, 0.0000000000000000000 ) ) ;
#61 = ADVANCED_FACE ( 'NONE', ( #54 ), #139, .T. ) ;
#62 = UNCERTAINTY_MEASURE_WITH_UNIT (LENGTH_MEASURE( 1.000000000000000082E-05 ), #211, 'distance_accuracy_value', 'NONE');
#63 =( GEOMETRIC_REPRESENTATION_CONTEXT ( 3 ) GLOBAL_UNCERTAINTY_ASSIGNED_CONTEXT ( ( #11 ) ) GLOBAL_UNIT_ASSIGNED_CONTEXT ( ( #12, #133, #215 ) ) REPRESENTATION_CONTEXT ( 'NONE', 'WORKASPACE' ) );
#64 = ADVANCED_BREP_SHAPE_REPRESENTATION ( 'Micro_RNC-187-13X', ( #193, #89 ), #63 ) ;
#65 = FILL_AREA_STYLE_COLOUR ( '', #38 ) ;
#66 = SHAPE_DEFINITION_REPRESENTATION ( #80, #64 ) ;
#67 = DIRECTION ( 'NONE',  ( 1.000000000000000000, 0.0000000000000000000, 0.0000000000000000000 ) ) ;
#68 = AXIS2_PLACEMENT_3D ( 'NONE', #56, #23, #209 ) ;
#69 = ORIENTED_EDGE ( 'NONE', *, *, #216, .F. ) ;
#70 = CIRCLE ( 'NONE', #153, 0.07875000000000088873 ) ;
#71 = DIRECTION ( 'NONE',  ( 0.0000000000000000000, 0.0000000000000000000, 1.000000000000000000 ) ) ;
#72 = VERTEX_POINT ( 'NONE', #164 ) ;
#73 = FACE_OUTER_BOUND ( 'NONE', #49, .T. ) ;
#74 = DIRECTION ( 'NONE',  ( 0.0000000000000000000, 0.0000000000000000000, 1.000000000000000000 ) ) ;
#75 = CARTESIAN_POINT ( 'NONE',  ( 0.07875000000000088873, 1.056257864264597506E-17, 3.000000000000000444 ) ) ;
#76 = CONICAL_SURFACE ( 'NONE', #101, 0.004000000000000000083, 0.7853981633974503884 ) ;
#77 = PRODUCT_DEFINITION ( 'UNKNOWN', '', #1, #188 ) ;
#78 = CARTESIAN_POINT ( 'NONE',  ( 0.0000000000000000000, 0.0000000000000000000, 3.000000000000000444 ) ) ;
#79 = EDGE_CURVE ( 'NONE', #114, #221, #108, .T. ) ;
#80 = PRODUCT_DEFINITION_SHAPE ( 'NONE', 'NONE',  #77 ) ;
#81 = DIRECTION ( 'NONE',  ( -1.000000000000000000, 0.0000000000000000000, 0.0000000000000000000 ) ) ;
#82 = DIRECTION ( 'NONE',  ( -1.000000000000000000, 0.0000000000000000000, 0.0000000000000000000 ) ) ;
#83 = CARTESIAN_POINT ( 'NONE',  ( 0.0000000000000000000, 0.0000000000000000000, 2.984999999999999876 ) ) ;
#84 = DIRECTION ( 'NONE',  ( -0.7071067811865209274, 0.0000000000000000000, -0.7071067811865739960 ) ) ;
#85 = CIRCLE ( 'NONE', #217, 0.09375000000000001388 ) ;
#86 =( LENGTH_UNIT ( ) NAMED_UNIT ( * ) SI_UNIT ( $, .METRE. ) );
#87 = DIRECTION ( 'NONE',  ( -1.000000000000000000, 0.0000000000000000000, 0.0000000000000000000 ) ) ;
#88 = ORIENTED_EDGE ( 'NONE', *, *, #160, .T. ) ;
#89 = AXIS2_PLACEMENT_3D ( 'NONE', #132, #112, #197 ) ;
#90 = LINE ( 'NONE', #13, #20 ) ;
#91 = LENGTH_MEASURE_WITH_UNIT ( LENGTH_MEASURE( 0.02539999999999999897 ), #99 );
#92 = FACE_OUTER_BOUND ( 'NONE', #31, .T. ) ;
#93 = AXIS2_PLACEMENT_3D ( 'NONE', #26, #28, #87 ) ;
#94 = ORIENTED_EDGE ( 'NONE', *, *, #186, .F. ) ;
#95 = ORIENTED_EDGE ( 'NONE', *, *, #118, .T. ) ;
#96 = DIRECTION ( 'NONE',  ( 0.7071067811865490160, 0.0000000000000000000, 0.7071067811865460184 ) ) ;
#97 = SURFACE_STYLE_FILL_AREA ( #21 ) ;
#98 = FACE_OUTER_BOUND ( 'NONE', #220, .T. ) ;
#99 =( LENGTH_UNIT ( ) NAMED_UNIT ( * ) SI_UNIT ( $, .METRE. ) );
#100 = DIRECTION ( 'NONE',  ( -0.0000000000000000000, -0.0000000000000000000, -1.000000000000000000 ) ) ;
#101 = AXIS2_PLACEMENT_3D ( 'NONE', #145, #243, #10 ) ;
#102 = DIRECTION ( 'NONE',  ( -0.0000000000000000000, -0.0000000000000000000, -1.000000000000000000 ) ) ;
#103 = PLANE ( 'NONE',  #120 ) ;
#104 = VECTOR ( 'NONE', #222, 39.37007874015748143 ) ;
#105 = CARTESIAN_POINT ( 'NONE',  ( -0.09375000000000001388, 0.0000000000000000000, 2.984999999999999876 ) ) ;
#106 = EDGE_CURVE ( 'NONE', #36, #221, #206, .T. ) ;
#107 = PRODUCT_CONTEXT ( 'NONE', #45, 'mechanical' ) ;
#108 = CIRCLE ( 'NONE', #200, 0.09375000000000001388 ) ;
#109 = ORIENTED_EDGE ( 'NONE', *, *, #106, .F. ) ;
#110 =( CONVERSION_BASED_UNIT ( 'INCH', #231 ) LENGTH_UNIT ( ) NAMED_UNIT ( #44 ) );
#111 = PRESENTATION_LAYER_ASSIGNMENT (  '', '', ( #154 ) ) ;
#112 = DIRECTION ( 'NONE',  ( 0.0000000000000000000, 0.0000000000000000000, 1.000000000000000000 ) ) ;
#113 = ORIENTED_EDGE ( 'NONE', *, *, #233, .F. ) ;
#114 = VERTEX_POINT ( 'NONE', #163 ) ;
#115 = EDGE_CURVE ( 'NONE', #72, #237, #85, .T. ) ;
#116 = CIRCLE ( 'NONE', #135, 0.004000000000000000083 ) ;
#117 = ORIENTED_EDGE ( 'NONE', *, *, #233, .T. ) ;
#118 = EDGE_CURVE ( 'NONE', #237, #114, #165, .T. ) ;
#119 = DIRECTION ( 'NONE',  ( -0.0000000000000000000, -0.0000000000000000000, -1.000000000000000000 ) ) ;
#120 = AXIS2_PLACEMENT_3D ( 'NONE', #178, #157, #174 ) ;
#121 = LINE ( 'NONE', #238, #104 ) ;
#122 = CARTESIAN_POINT ( 'NONE',  ( 0.0000000000000000000, 0.0000000000000000000, 2.984999999999999876 ) ) ;
#123 = CARTESIAN_POINT ( 'NONE',  ( 0.0000000000000000000, 0.0000000000000000000, 3.000000000000000444 ) ) ;
#124 = EDGE_CURVE ( 'NONE', #17, #36, #162, .T. ) ;
#125 = MECHANICAL_DESIGN_GEOMETRIC_PRESENTATION_REPRESENTATION (  '', ( #219 ), #173 ) ;
#126 = DIRECTION ( 'NONE',  ( -1.000000000000000000, 0.0000000000000000000, 0.0000000000000000000 ) ) ;
#127 = ADVANCED_FACE ( 'NONE', ( #187 ), #76, .T. ) ;
#128 = FACE_OUTER_BOUND ( 'NONE', #195, .T. ) ;
#129 = EDGE_CURVE ( 'NONE', #17, #114, #121, .T. ) ;
#130 = SURFACE_SIDE_STYLE ('',( #229 ) ) ;
#131 = CARTESIAN_POINT ( 'NONE',  ( 0.0000000000000000000, 0.0000000000000000000, 3.000000000000000444 ) ) ;
#132 = CARTESIAN_POINT ( 'NONE',  ( 0.0000000000000000000, 0.0000000000000000000, 0.0000000000000000000 ) ) ;
#133 =( NAMED_UNIT ( * ) PLANE_ANGLE_UNIT ( ) SI_UNIT ( $, .RADIAN. ) );
#134 = LINE ( 'NONE', #151, #48 ) ;
#135 = AXIS2_PLACEMENT_3D ( 'NONE', #207, #119, #60 ) ;
#136 = ORIENTED_EDGE ( 'NONE', *, *, #79, .F. ) ;
#137 = ADVANCED_FACE ( 'NONE', ( #37 ), #248, .T. ) ;
#138 = ORIENTED_EDGE ( 'NONE', *, *, #124, .T. ) ;
#139 = CONICAL_SURFACE ( 'NONE', #68, 0.004000000000000000083, 0.7853981633974503884 ) ;
#140 = DIRECTION ( 'NONE',  ( 1.000000000000000000, 0.0000000000000000000, -0.0000000000000000000 ) ) ;
#141 = CARTESIAN_POINT ( 'NONE',  ( 0.0000000000000000000, 0.0000000000000000000, 0.0000000000000000000 ) ) ;
#142 = ADVANCED_FACE ( 'NONE', ( #185 ), #225, .T. ) ;
#143 = DIRECTION ( 'NONE',  ( 1.000000000000000000, 0.0000000000000000000, 0.0000000000000000000 ) ) ;
#144 = VECTOR ( 'NONE', #102, 39.37007874015748143 ) ;
#145 = CARTESIAN_POINT ( 'NONE',  ( 0.0000000000000000000, 0.0000000000000000000, 0.0000000000000000000 ) ) ;
#146 = DIRECTION ( 'NONE',  ( -0.0000000000000000000, -0.0000000000000000000, -1.000000000000000000 ) ) ;
#147 = FILL_AREA_STYLE_COLOUR ( '', #192 ) ;
#148 = CARTESIAN_POINT ( 'NONE',  ( 0.09375000000000001388, 1.148106374200643401E-17, 0.08974999999999963562 ) ) ;
#149 = DIMENSIONAL_EXPONENTS ( 1.000000000000000000, 0.0000000000000000000, 0.0000000000000000000, 0.0000000000000000000, 0.0000000000000000000, 0.0000000000000000000, 0.0000000000000000000 ) ;
#150 = FILL_AREA_STYLE ('',( #65 ) ) ;
#151 = CARTESIAN_POINT ( 'NONE',  ( -0.07875000000000088873, 0.0000000000000000000, 3.000000000000000444 ) ) ;
#152 = ORIENTED_EDGE ( 'NONE', *, *, #223, .T. ) ;
#153 = AXIS2_PLACEMENT_3D ( 'NONE', #123, #183, #39 ) ;
#154 = STYLED_ITEM ( 'NONE', ( #201 ), #64 ) ;
#155 = DIRECTION ( 'NONE',  ( 0.0000000000000000000, 0.0000000000000000000, -1.000000000000000000 ) ) ;
#156 = EDGE_LOOP ( 'NONE', ( #3, #117, #236, #69 ) ) ;
#157 = DIRECTION ( 'NONE',  ( 0.0000000000000000000, 0.0000000000000000000, 1.000000000000000000 ) ) ;
#158 =( NAMED_UNIT ( * ) SI_UNIT ( $, .STERADIAN. ) SOLID_ANGLE_UNIT ( ) );
#159 = VECTOR ( 'NONE', #43, 39.37007874015748143 ) ;
#160 = EDGE_CURVE ( 'NONE', #221, #114, #232, .T. ) ;
#161 = EDGE_LOOP ( 'NONE', ( #218, #202, #2, #88 ) ) ;
#162 = CIRCLE ( 'NONE', #199, 0.004000000000000000083 ) ;
#163 = CARTESIAN_POINT ( 'NONE',  ( -0.09375000000000001388, 0.0000000000000000000, 0.08974999999999963562 ) ) ;
#164 = CARTESIAN_POINT ( 'NONE',  ( 0.09375000000000001388, 1.148106374200643401E-17, 2.984999999999999876 ) ) ;
#165 = LINE ( 'NONE', #171, #159 ) ;
#166 = AXIS2_PLACEMENT_3D ( 'NONE', #59, #146, #81 ) ;
#167 = APPLICATION_CONTEXT ( 'automotive_design' ) ;
#168 = EDGE_CURVE ( 'NONE', #72, #221, #8, .T. ) ;
#169 = CARTESIAN_POINT ( 'NONE',  ( 0.0000000000000000000, 0.0000000000000000000, 3.000000000000000444 ) ) ;
#170 = PRODUCT_RELATED_PRODUCT_CATEGORY ( 'part', '', ( #52 ) ) ;
#171 = CARTESIAN_POINT ( 'NONE',  ( -0.09375000000000001388, 0.0000000000000000000, 3.000000000000000444 ) ) ;
#172 = DIRECTION ( 'NONE',  ( 0.7071067811865209274, 8.659560562354606220E-17, -0.7071067811865739960 ) ) ;
#173 =( GEOMETRIC_REPRESENTATION_CONTEXT ( 3 ) GLOBAL_UNCERTAINTY_ASSIGNED_CONTEXT ( ( #55 ) ) GLOBAL_UNIT_ASSIGNED_CONTEXT ( ( #110, #46, #27 ) ) REPRESENTATION_CONTEXT ( 'NONE', 'WORKASPACE' ) );
#174 = DIRECTION ( 'NONE',  ( 1.000000000000000000, 0.0000000000000000000, -0.0000000000000000000 ) ) ;
#175 = EDGE_LOOP ( 'NONE', ( #33, #177, #214, #109 ) ) ;
#176 = LENGTH_MEASURE_WITH_UNIT ( LENGTH_MEASURE( 0.02539999999999999897 ), #190 );
#177 = ORIENTED_EDGE ( 'NONE', *, *, #129, .T. ) ;
#178 = CARTESIAN_POINT ( 'NONE',  ( 0.0000000000000000000, 0.0000000000000000000, 0.0000000000000000000 ) ) ;
#179 = SURFACE_STYLE_USAGE ( .BOTH. , #130 ) ;
#180 = ORIENTED_EDGE ( 'NONE', *, *, #216, .T. ) ;
#181 = CARTESIAN_POINT ( 'NONE',  ( 0.0000000000000000000, 0.0000000000000000000, 3.000000000000000444 ) ) ;
#182 = ORIENTED_EDGE ( 'NONE', *, *, #191, .T. ) ;
#183 = DIRECTION ( 'NONE',  ( 0.0000000000000000000, 0.0000000000000000000, 1.000000000000000000 ) ) ;
#184 = SURFACE_SIDE_STYLE ('',( #97 ) ) ;
#185 = FACE_OUTER_BOUND ( 'NONE', #203, .T. ) ;
#186 = EDGE_CURVE ( 'NONE', #53, #19, #70, .T. ) ;
#187 = FACE_OUTER_BOUND ( 'NONE', #175, .T. ) ;
#188 = PRODUCT_DEFINITION_CONTEXT ( 'detailed design', #167, 'design' ) ;
#189 = CARTESIAN_POINT ( 'NONE',  ( 0.0000000000000000000, 0.0000000000000000000, 3.000000000000000444 ) ) ;
#190 =( LENGTH_UNIT ( ) NAMED_UNIT ( * ) SI_UNIT ( $, .METRE. ) );
#191 = EDGE_CURVE ( 'NONE', #36, #17, #116, .T. ) ;
#192 = COLOUR_RGB ( '',0.7921568627450980005, 0.8196078431372548767, 0.9333333333333333481 ) ;
#193 = MANIFOLD_SOLID_BREP ( 'Cut-Revolve1', #210 ) ;
#194 = APPLICATION_PROTOCOL_DEFINITION ( 'draft international standard', 'automotive_design', 1998, #167 ) ;
#195 = EDGE_LOOP ( 'NONE', ( #182, #138 ) ) ;
#196 =( GEOMETRIC_REPRESENTATION_CONTEXT ( 3 ) GLOBAL_UNCERTAINTY_ASSIGNED_CONTEXT ( ( #62 ) ) GLOBAL_UNIT_ASSIGNED_CONTEXT ( ( #211, #32, #158 ) ) REPRESENTATION_CONTEXT ( 'NONE', 'WORKASPACE' ) );
#197 = DIRECTION ( 'NONE',  ( 1.000000000000000000, 0.0000000000000000000, 0.0000000000000000000 ) ) ;
#198 = ORIENTED_EDGE ( 'NONE', *, *, #160, .F. ) ;
#199 = AXIS2_PLACEMENT_3D ( 'NONE', #141, #100, #126 ) ;
#200 = AXIS2_PLACEMENT_3D ( 'NONE', #40, #7, #58 ) ;
#201 = PRESENTATION_STYLE_ASSIGNMENT (( #179 ) ) ;
#202 = ORIENTED_EDGE ( 'NONE', *, *, #191, .F. ) ;
#203 = EDGE_LOOP ( 'NONE', ( #15, #35, #136, #16 ) ) ;
#204 = CARTESIAN_POINT ( 'NONE',  ( 0.004000000000000000083, 0.0000000000000000000, 0.0000000000000000000 ) ) ;
#205 = SURFACE_STYLE_USAGE ( .BOTH. , #184 ) ;
#206 = LINE ( 'NONE', #204, #57 ) ;
#207 = CARTESIAN_POINT ( 'NONE',  ( 0.0000000000000000000, 0.0000000000000000000, 0.0000000000000000000 ) ) ;
#208 = MECHANICAL_DESIGN_GEOMETRIC_PRESENTATION_REPRESENTATION (  '', ( #154 ), #196 ) ;
#209 = DIRECTION ( 'NONE',  ( 1.000000000000000000, 0.0000000000000000000, 0.0000000000000000000 ) ) ;
#210 = CLOSED_SHELL ( 'NONE', ( #127, #137, #142, #230, #5, #47, #61, #245 ) ) ;
#211 =( CONVERSION_BASED_UNIT ( 'INCH', #91 ) LENGTH_UNIT ( ) NAMED_UNIT ( #22 ) );
#212 = CYLINDRICAL_SURFACE ( 'NONE', #93, 0.09375000000000001388 ) ;
#213 = EDGE_CURVE ( 'NONE', #237, #72, #235, .T. ) ;
#214 = ORIENTED_EDGE ( 'NONE', *, *, #79, .T. ) ;
#215 =( NAMED_UNIT ( * ) SI_UNIT ( $, .STERADIAN. ) SOLID_ANGLE_UNIT ( ) );
#216 = EDGE_CURVE ( 'NONE', #53, #237, #134, .T. ) ;
#217 = AXIS2_PLACEMENT_3D ( 'NONE', #122, #242, #143 ) ;
#218 = ORIENTED_EDGE ( 'NONE', *, *, #129, .F. ) ;
#219 = STYLED_ITEM ( 'NONE', ( #6 ), #193 ) ;
#220 = EDGE_LOOP ( 'NONE', ( #113, #94, #180, #249 ) ) ;
#221 = VERTEX_POINT ( 'NONE', #148 ) ;
#222 = DIRECTION ( 'NONE',  ( -0.7071067811865490160, 8.659560562354951347E-17, 0.7071067811865460184 ) ) ;
#223 = EDGE_CURVE ( 'NONE', #19, #53, #246, .T. ) ;
#224 = DIRECTION ( 'NONE',  ( -1.000000000000000000, 0.0000000000000000000, 0.0000000000000000000 ) ) ;
#225 = CYLINDRICAL_SURFACE ( 'NONE', #240, 0.09375000000000001388 ) ;
#226 = DIRECTION ( 'NONE',  ( 0.0000000000000000000, 0.0000000000000000000, -1.000000000000000000 ) ) ;
#227 = CARTESIAN_POINT ( 'NONE',  ( 0.004000000000000000083, 0.0000000000000000000, 0.0000000000000000000 ) ) ;
#228 = AXIS2_PLACEMENT_3D ( 'NONE', #83, #155, #67 ) ;
#229 = SURFACE_STYLE_FILL_AREA ( #150 ) ;
#230 = ADVANCED_FACE ( 'NONE', ( #73 ), #212, .T. ) ;
#231 = LENGTH_MEASURE_WITH_UNIT ( LENGTH_MEASURE( 0.02539999999999999897 ), #86 );
#232 = CIRCLE ( 'NONE', #166, 0.09375000000000001388 ) ;
#233 = EDGE_CURVE ( 'NONE', #19, #72, #90, .T. ) ;
#234 = AXIS2_PLACEMENT_3D ( 'NONE', #169, #226, #241 ) ;
#235 = CIRCLE ( 'NONE', #228, 0.09375000000000001388 ) ;
#236 = ORIENTED_EDGE ( 'NONE', *, *, #213, .F. ) ;
#237 = VERTEX_POINT ( 'NONE', #105 ) ;
#238 = CARTESIAN_POINT ( 'NONE',  ( -0.004000000000000000083, 4.898587196589413537E-19, 0.0000000000000000000 ) ) ;
#239 = DIRECTION ( 'NONE',  ( 0.0000000000000000000, 0.0000000000000000000, -1.000000000000000000 ) ) ;
#240 = AXIS2_PLACEMENT_3D ( 'NONE', #189, #9, #82 ) ;
#241 = DIRECTION ( 'NONE',  ( -1.000000000000000000, 0.0000000000000000000, 0.0000000000000000000 ) ) ;
#242 = DIRECTION ( 'NONE',  ( 0.0000000000000000000, 0.0000000000000000000, -1.000000000000000000 ) ) ;
#243 = DIRECTION ( 'NONE',  ( 0.0000000000000000000, 0.0000000000000000000, 1.000000000000000000 ) ) ;
#244 = AXIS2_PLACEMENT_3D ( 'NONE', #181, #74, #140 ) ;
#245 = ADVANCED_FACE ( 'NONE', ( #128 ), #103, .F. ) ;
#246 = CIRCLE ( 'NONE', #24, 0.07875000000000088873 ) ;
#247 = ORIENTED_EDGE ( 'NONE', *, *, #168, .F. ) ;
#248 = CONICAL_SURFACE ( 'NONE', #51, 0.07875000000000088873, 0.7853981633974107535 ) ;
#249 = ORIENTED_EDGE ( 'NONE', *, *, #115, .F. ) ;
ENDSEC;
END-ISO-10303-21;
