ISO-10303-21;
HEADER;
FILE_DESCRIPTION (( 'STEP AP214' ),
    '1' );
FILE_NAME ('86037.STEP',
    '2023-06-23T15:55:23',
    ( '' ),
    ( '' ),
    'SwSTEP 2.0',
    'SolidWorks 2023',
    '' );
FILE_SCHEMA (( 'AUTOMOTIVE_DESIGN' ));
ENDSEC;

DATA;
#1 = VERTEX_POINT ( 'NONE', #12 ) ;
#2 = CIRCLE ( 'NONE', #177, 0.3750000000000000555 ) ;
#3 = DIRECTION ( 'NONE',  ( 1.000000000000000000, -5.442874662877130022E-17, 0.000000000000000000 ) ) ;
#4 = LENGTH_MEASURE_WITH_UNIT ( LENGTH_MEASURE( 0.02539999999999999897 ), #286 );
#5 = DIMENSIONAL_EXPONENTS ( 1.000000000000000000, 0.000000000000000000, 0.000000000000000000, 0.000000000000000000, 0.000000000000000000, 0.000000000000000000, 0.000000000000000000 ) ;
#6 = DIMENSIONAL_EXPONENTS ( 1.000000000000000000, 0.000000000000000000, 0.000000000000000000, 0.000000000000000000, 0.000000000000000000, 0.000000000000000000, 0.000000000000000000 ) ;
#7 = COLOUR_RGB ( '',1.000000000000000000, 0.000000000000000000, 0.000000000000000000 ) ;
#8 = DIRECTION ( 'NONE',  ( 0.000000000000000000, 0.000000000000000000, -1.000000000000000000 ) ) ;
#9 =( CONVERSION_BASED_UNIT ( 'INCH', #35 ) LENGTH_UNIT ( ) NAMED_UNIT ( #127 ) );
#10 = UNCERTAINTY_MEASURE_WITH_UNIT (LENGTH_MEASURE( 1.000000000000000082E-05 ), #9, 'distance_accuracy_value', 'NONE');
#11 = CARTESIAN_POINT ( 'NONE',  ( 0.000000000000000000, 0.000000000000000000, 0.000000000000000000 ) ) ;
#12 = CARTESIAN_POINT ( 'NONE',  ( 0.000000000000000000, 2.750000000000000000, -0.3750000000000000555 ) ) ;
#13 =( CONVERSION_BASED_UNIT ( 'INCH', #39 ) LENGTH_UNIT ( ) NAMED_UNIT ( #6 ) );
#14 = CIRCLE ( 'NONE', #77, 0.3750000000000000555 ) ;
#15 = PRESENTATION_STYLE_ASSIGNMENT (( #160 ) ) ;
#16 = LENGTH_MEASURE_WITH_UNIT ( LENGTH_MEASURE( 0.02539999999999999897 ), #207 );
#17 = FILL_AREA_STYLE_COLOUR ( '', #272 ) ;
#18 = MECHANICAL_DESIGN_GEOMETRIC_PRESENTATION_REPRESENTATION (  '', ( #149 ), #122 ) ;
#19 = DIRECTION ( 'NONE',  ( 5.442874662877130638E-17, 1.000000000000000000, -0.000000000000000000 ) ) ;
#20 = SURFACE_STYLE_USAGE ( .BOTH. , #64 ) ;
#21 = CARTESIAN_POINT ( 'NONE',  ( 0.000000000000000000, 0.000000000000000000, 0.000000000000000000 ) ) ;
#22 = SURFACE_SIDE_STYLE ('',( #238 ) ) ;
#23 = MANIFOLD_SOLID_BREP ( 'Revolve - Tool Body (Straight Shanked)', #303 ) ;
#24 = CIRCLE ( 'NONE', #105, 0.3749999999999998890 ) ;
#25 = CARTESIAN_POINT ( 'NONE',  ( 1.224646799147354440E-16, 5.000000000000000000, 0.000000000000000000 ) ) ;
#26 = ORIENTED_EDGE ( 'NONE', *, *, #107, .T. ) ;
#27 = PLANE ( 'NONE',  #277 ) ;
#28 = UNCERTAINTY_MEASURE_WITH_UNIT (LENGTH_MEASURE( 1.000000000000000082E-05 ), #100, 'distance_accuracy_value', 'NONE');
#29 = PRESENTATION_LAYER_ASSIGNMENT (  '', '', ( #162 ) ) ;
#30 = PRODUCT_CONTEXT ( 'NONE', #184, 'mechanical' ) ;
#31 = MECHANICAL_DESIGN_GEOMETRIC_PRESENTATION_REPRESENTATION (  '', ( #239 ), #199 ) ;
#32 = DIRECTION ( 'NONE',  ( -0.000000000000000000, -1.000000000000000000, -0.000000000000000000 ) ) ;
#33 = SURFACE_STYLE_FILL_AREA ( #309 ) ;
#34 =( NAMED_UNIT ( * ) PLANE_ANGLE_UNIT ( ) SI_UNIT ( $, .RADIAN. ) );
#35 = LENGTH_MEASURE_WITH_UNIT ( LENGTH_MEASURE( 0.02539999999999999897 ), #82 );
#36 = CLOSED_SHELL ( 'NONE', ( #137, #104, #267, #219 ) ) ;
#37 = FILL_AREA_STYLE_COLOUR ( '', #115 ) ;
#38 = ORIENTED_EDGE ( 'NONE', *, *, #278, .F. ) ;
#39 = LENGTH_MEASURE_WITH_UNIT ( LENGTH_MEASURE( 0.02539999999999999897 ), #80 );
#40 = ORIENTED_EDGE ( 'NONE', *, *, #107, .F. ) ;
#41 = SURFACE_STYLE_USAGE ( .BOTH. , #42 ) ;
#42 = SURFACE_SIDE_STYLE ('',( #248 ) ) ;
#43 = COLOUR_RGB ( '',0.7921568627450980005, 0.8196078431372548767, 0.9333333333333333481 ) ;
#44 =( NAMED_UNIT ( * ) SI_UNIT ( $, .STERADIAN. ) SOLID_ANGLE_UNIT ( ) );
#45 =( NAMED_UNIT ( * ) PLANE_ANGLE_UNIT ( ) SI_UNIT ( $, .RADIAN. ) );
#46 = LINE ( 'NONE', #206, #217 ) ;
#47 = CARTESIAN_POINT ( 'NONE',  ( -0.3749999999999997780, 5.000000000000000000, 0.000000000000000000 ) ) ;
#48 = EDGE_CURVE ( 'NONE', #74, #189, #259, .T. ) ;
#49 = PRODUCT_DEFINITION_FORMATION_WITH_SPECIFIED_SOURCE ( 'ANY', '', #301, .NOT_KNOWN. ) ;
#50 =( NAMED_UNIT ( * ) PLANE_ANGLE_UNIT ( ) SI_UNIT ( $, .RADIAN. ) );
#51 = PRODUCT_DEFINITION ( 'UNKNOWN', '', #49, #220 ) ;
#52 = CARTESIAN_POINT ( 'NONE',  ( 0.3750000000000000555, 2.750000000000000000, 4.592425496802574219E-17 ) ) ;
#53 = CIRCLE ( 'NONE', #249, 0.3750000000000000555 ) ;
#54 = PLANE ( 'NONE',  #254 ) ;
#55 = ORIENTED_EDGE ( 'NONE', *, *, #48, .F. ) ;
#56 = CARTESIAN_POINT ( 'NONE',  ( 0.000000000000000000, 0.000000000000000000, 0.000000000000000000 ) ) ;
#57 = ORIENTED_EDGE ( 'NONE', *, *, #191, .T. ) ;
#58 = SURFACE_STYLE_USAGE ( .BOTH. , #150 ) ;
#59 = PLANE ( 'NONE',  #263 ) ;
#60 = CARTESIAN_POINT ( 'NONE',  ( 0.000000000000000000, 0.000000000000000000, 0.000000000000000000 ) ) ;
#61 = PRESENTATION_STYLE_ASSIGNMENT (( #282 ) ) ;
#62 = CARTESIAN_POINT ( 'NONE',  ( 4.592425496802575451E-17, 0.000000000000000000, 0.3750000000000000555 ) ) ;
#63 =( NAMED_UNIT ( * ) PLANE_ANGLE_UNIT ( ) SI_UNIT ( $, .RADIAN. ) );
#64 = SURFACE_SIDE_STYLE ('',( #305 ) ) ;
#65 = DIRECTION ( 'NONE',  ( 5.442874662877130638E-17, 1.000000000000000000, -0.000000000000000000 ) ) ;
#66 = EDGE_CURVE ( 'NONE', #1, #268, #46, .T. ) ;
#67 = FACE_OUTER_BOUND ( 'NONE', #116, .T. ) ;
#68 = APPLICATION_PROTOCOL_DEFINITION ( 'draft international standard', 'automotive_design', 1998, #280 ) ;
#69 = VERTEX_POINT ( 'NONE', #180 ) ;
#70 = SURFACE_SIDE_STYLE ('',( #33 ) ) ;
#71 = MECHANICAL_DESIGN_GEOMETRIC_PRESENTATION_REPRESENTATION (  '', ( #209 ), #167 ) ;
#72 = CIRCLE ( 'NONE', #265, 0.3750000000000000555 ) ;
#73 = UNCERTAINTY_MEASURE_WITH_UNIT (LENGTH_MEASURE( 1.000000000000000082E-05 ), #247, 'distance_accuracy_value', 'NONE');
#74 = VERTEX_POINT ( 'NONE', #229 ) ;
#75 = DIRECTION ( 'NONE',  ( 0.000000000000000000, 0.000000000000000000, 1.000000000000000000 ) ) ;
#76 = CYLINDRICAL_SURFACE ( 'NONE', #96, 0.3749999999999999445 ) ;
#77 = AXIS2_PLACEMENT_3D ( 'NONE', #242, #32, #99 ) ;
#78 = EDGE_LOOP ( 'NONE', ( #87, #169 ) ) ;
#79 = PRODUCT_RELATED_PRODUCT_CATEGORY ( 'part', '', ( #301 ) ) ;
#80 =( LENGTH_UNIT ( ) NAMED_UNIT ( * ) SI_UNIT ( $, .METRE. ) );
#81 = DIRECTION ( 'NONE',  ( 0.000000000000000000, -1.000000000000000000, -0.000000000000000000 ) ) ;
#82 =( LENGTH_UNIT ( ) NAMED_UNIT ( * ) SI_UNIT ( $, .METRE. ) );
#83 = ORIENTED_EDGE ( 'NONE', *, *, #191, .F. ) ;
#84 = AXIS2_PLACEMENT_3D ( 'NONE', #195, #210, #304 ) ;
#85 = DIRECTION ( 'NONE',  ( 0.000000000000000000, 0.000000000000000000, -1.000000000000000000 ) ) ;
#86 = CARTESIAN_POINT ( 'NONE',  ( -0.3749999999999998335, 5.000000000000000000, 0.000000000000000000 ) ) ;
#87 = ORIENTED_EDGE ( 'NONE', *, *, #144, .T. ) ;
#88 = FILL_AREA_STYLE_COLOUR ( '', #285 ) ;
#89 =( NAMED_UNIT ( * ) PLANE_ANGLE_UNIT ( ) SI_UNIT ( $, .RADIAN. ) );
#90 = DIRECTION ( 'NONE',  ( -1.000000000000000000, 0.000000000000000000, 0.000000000000000000 ) ) ;
#91 = DIRECTION ( 'NONE',  ( -0.000000000000000000, -1.000000000000000000, -0.000000000000000000 ) ) ;
#92 = EDGE_CURVE ( 'NONE', #74, #158, #215, .T. ) ;
#93 = FACE_OUTER_BOUND ( 'NONE', #302, .T. ) ;
#94 = FACE_OUTER_BOUND ( 'NONE', #251, .T. ) ;
#95 = FACE_OUTER_BOUND ( 'NONE', #226, .T. ) ;
#96 = AXIS2_PLACEMENT_3D ( 'NONE', #25, #173, #166 ) ;
#97 = VECTOR ( 'NONE', #142, 39.37007874015748143 ) ;
#98 = FILL_AREA_STYLE_COLOUR ( '', #43 ) ;
#99 = DIRECTION ( 'NONE',  ( 0.000000000000000000, 0.000000000000000000, -1.000000000000000000 ) ) ;
#100 =( CONVERSION_BASED_UNIT ( 'INCH', #103 ) LENGTH_UNIT ( ) NAMED_UNIT ( #5 ) );
#101 = PRESENTATION_LAYER_ASSIGNMENT (  '', '', ( #239 ) ) ;
#102 = DIRECTION ( 'NONE',  ( -0.000000000000000000, -1.000000000000000000, -0.000000000000000000 ) ) ;
#103 = LENGTH_MEASURE_WITH_UNIT ( LENGTH_MEASURE( 0.02539999999999999897 ), #154 );
#104 = ADVANCED_FACE ( 'NONE', ( #155 ), #59, .T. ) ;
#105 = AXIS2_PLACEMENT_3D ( 'NONE', #306, #65, #255 ) ;
#106 = DIRECTION ( 'NONE',  ( 5.442874662877130022E-17, 1.000000000000000000, -0.000000000000000000 ) ) ;
#107 = EDGE_CURVE ( 'NONE', #138, #131, #190, .T. ) ;
#108 = DIRECTION ( 'NONE',  ( -0.000000000000000000, -1.000000000000000000, -0.000000000000000000 ) ) ;
#109 =( NAMED_UNIT ( * ) SI_UNIT ( $, .STERADIAN. ) SOLID_ANGLE_UNIT ( ) );
#110 = PRESENTATION_STYLE_ASSIGNMENT (( #20 ) ) ;
#111 = EDGE_LOOP ( 'NONE', ( #236, #185, #213, #192 ) ) ;
#112 = CYLINDRICAL_SURFACE ( 'NONE', #233, 0.3749999999999999445 ) ;
#113 = CARTESIAN_POINT ( 'NONE',  ( 4.592425496802575451E-17, 0.000000000000000000, 0.3750000000000000555 ) ) ;
#114 = CARTESIAN_POINT ( 'NONE',  ( 1.224646799147354440E-16, 5.000000000000000000, 0.000000000000000000 ) ) ;
#115 = COLOUR_RGB ( '',1.000000000000000000, 0.000000000000000000, 0.000000000000000000 ) ;
#116 = EDGE_LOOP ( 'NONE', ( #57, #26, #178, #172 ) ) ;
#117 = CARTESIAN_POINT ( 'NONE',  ( 0.000000000000000000, 2.750000000000000000, 0.000000000000000000 ) ) ;
#118 = ORIENTED_EDGE ( 'NONE', *, *, #66, .T. ) ;
#119 = DIRECTION ( 'NONE',  ( -0.000000000000000000, -1.000000000000000000, -0.000000000000000000 ) ) ;
#120 = ORIENTED_EDGE ( 'NONE', *, *, #262, .T. ) ;
#121 = FACE_OUTER_BOUND ( 'NONE', #78, .T. ) ;
#122 =( GEOMETRIC_REPRESENTATION_CONTEXT ( 3 ) GLOBAL_UNCERTAINTY_ASSIGNED_CONTEXT ( ( #28 ) ) GLOBAL_UNIT_ASSIGNED_CONTEXT ( ( #100, #222, #133 ) ) REPRESENTATION_CONTEXT ( 'NONE', 'WORKASPACE' ) );
#123 = VECTOR ( 'NONE', #106, 39.37007874015748143 ) ;
#124 = SHAPE_DEFINITION_REPRESENTATION ( #208, #235 ) ;
#125 = CARTESIAN_POINT ( 'NONE',  ( 5.554665861710595612E-34, 2.750000000000000000, 0.000000000000000000 ) ) ;
#126 = ADVANCED_FACE ( 'NONE', ( #274 ), #112, .T. ) ;
#127 = DIMENSIONAL_EXPONENTS ( 1.000000000000000000, 0.000000000000000000, 0.000000000000000000, 0.000000000000000000, 0.000000000000000000, 0.000000000000000000, 0.000000000000000000 ) ;
#128 = MECHANICAL_DESIGN_GEOMETRIC_PRESENTATION_REPRESENTATION (  '', ( #162 ), #203 ) ;
#129 = SURFACE_STYLE_FILL_AREA ( #300 ) ;
#130 = UNCERTAINTY_MEASURE_WITH_UNIT (LENGTH_MEASURE( 1.000000000000000082E-05 ), #273, 'distance_accuracy_value', 'NONE');
#131 = VERTEX_POINT ( 'NONE', #62 ) ;
#132 = ORIENTED_EDGE ( 'NONE', *, *, #245, .T. ) ;
#133 =( NAMED_UNIT ( * ) SI_UNIT ( $, .STERADIAN. ) SOLID_ANGLE_UNIT ( ) );
#134 = FILL_AREA_STYLE ('',( #275 ) ) ;
#135 = PRESENTATION_LAYER_ASSIGNMENT (  '', '', ( #241 ) ) ;
#136 = CARTESIAN_POINT ( 'NONE',  ( 0.000000000000000000, 2.750000000000000000, 0.000000000000000000 ) ) ;
#137 = ADVANCED_FACE ( 'NONE', ( #67 ), #230, .T. ) ;
#138 = VERTEX_POINT ( 'NONE', #276 ) ;
#139 =( NAMED_UNIT ( * ) SI_UNIT ( $, .STERADIAN. ) SOLID_ANGLE_UNIT ( ) );
#140 = ORIENTED_EDGE ( 'NONE', *, *, #284, .F. ) ;
#141 = PRESENTATION_LAYER_ASSIGNMENT (  '', '', ( #149 ) ) ;
#142 = DIRECTION ( 'NONE',  ( 5.442874662877130022E-17, 1.000000000000000000, -0.000000000000000000 ) ) ;
#143 = MECHANICAL_DESIGN_GEOMETRIC_PRESENTATION_REPRESENTATION (  '', ( #296 ), #146 ) ;
#144 = EDGE_CURVE ( 'NONE', #158, #69, #24, .T. ) ;
#145 = PRESENTATION_STYLE_ASSIGNMENT (( #244 ) ) ;
#146 =( GEOMETRIC_REPRESENTATION_CONTEXT ( 3 ) GLOBAL_UNCERTAINTY_ASSIGNED_CONTEXT ( ( #258 ) ) GLOBAL_UNIT_ASSIGNED_CONTEXT ( ( #197, #50, #170 ) ) REPRESENTATION_CONTEXT ( 'NONE', 'WORKASPACE' ) );
#147 = DIRECTION ( 'NONE',  ( -1.000000000000000000, 0.000000000000000000, 0.000000000000000000 ) ) ;
#148 = ORIENTED_EDGE ( 'NONE', *, *, #262, .F. ) ;
#149 = STYLED_ITEM ( 'NONE', ( #151 ), #219 ) ;
#150 = SURFACE_SIDE_STYLE ('',( #129 ) ) ;
#151 = PRESENTATION_STYLE_ASSIGNMENT (( #58 ) ) ;
#152 = DIMENSIONAL_EXPONENTS ( 1.000000000000000000, 0.000000000000000000, 0.000000000000000000, 0.000000000000000000, 0.000000000000000000, 0.000000000000000000, 0.000000000000000000 ) ;
#153 = ORIENTED_EDGE ( 'NONE', *, *, #164, .T. ) ;
#154 =( LENGTH_UNIT ( ) NAMED_UNIT ( * ) SI_UNIT ( $, .METRE. ) );
#155 = FACE_OUTER_BOUND ( 'NONE', #308, .T. ) ;
#156 = CIRCLE ( 'NONE', #211, 0.3750000000000000555 ) ;
#157 =( LENGTH_UNIT ( ) NAMED_UNIT ( * ) SI_UNIT ( $, .METRE. ) );
#158 = VERTEX_POINT ( 'NONE', #47 ) ;
#159 =( CONVERSION_BASED_UNIT ( 'INCH', #250 ) LENGTH_UNIT ( ) NAMED_UNIT ( #243 ) );
#160 = SURFACE_STYLE_USAGE ( .BOTH. , #252 ) ;
#161 = ADVANCED_FACE ( 'NONE', ( #93 ), #27, .F. ) ;
#162 = STYLED_ITEM ( 'NONE', ( #61 ), #104 ) ;
#163 = LENGTH_MEASURE_WITH_UNIT ( LENGTH_MEASURE( 0.02539999999999999897 ), #187 );
#164 = EDGE_CURVE ( 'NONE', #189, #74, #156, .T. ) ;
#165 = SURFACE_STYLE_FILL_AREA ( #183 ) ;
#166 = DIRECTION ( 'NONE',  ( -1.000000000000000000, 0.000000000000000000, 0.000000000000000000 ) ) ;
#167 =( GEOMETRIC_REPRESENTATION_CONTEXT ( 3 ) GLOBAL_UNCERTAINTY_ASSIGNED_CONTEXT ( ( #73 ) ) GLOBAL_UNIT_ASSIGNED_CONTEXT ( ( #247, #271, #44 ) ) REPRESENTATION_CONTEXT ( 'NONE', 'WORKASPACE' ) );
#168 = CARTESIAN_POINT ( 'NONE',  ( -1.516480271171051896E-32, 2.750000000000000000, 0.000000000000000000 ) ) ;
#169 = ORIENTED_EDGE ( 'NONE', *, *, #284, .T. ) ;
#170 =( NAMED_UNIT ( * ) SI_UNIT ( $, .STERADIAN. ) SOLID_ANGLE_UNIT ( ) );
#171 = ADVANCED_FACE ( 'NONE', ( #95 ), #76, .T. ) ;
#172 = ORIENTED_EDGE ( 'NONE', *, *, #66, .F. ) ;
#173 = DIRECTION ( 'NONE',  ( 5.442874662877130638E-17, 1.000000000000000000, -0.000000000000000000 ) ) ;
#174 = CIRCLE ( 'NONE', #224, 0.3749999999999998890 ) ;
#175 = DIRECTION ( 'NONE',  ( 0.000000000000000000, 0.000000000000000000, -1.000000000000000000 ) ) ;
#176 = FACE_OUTER_BOUND ( 'NONE', #270, .T. ) ;
#177 = AXIS2_PLACEMENT_3D ( 'NONE', #60, #294, #264 ) ;
#178 = ORIENTED_EDGE ( 'NONE', *, *, #200, .F. ) ;
#179 = CARTESIAN_POINT ( 'NONE',  ( 0.000000000000000000, 0.000000000000000000, -0.3750000000000000555 ) ) ;
#180 = CARTESIAN_POINT ( 'NONE',  ( 0.3750000000000000555, 5.000000000000000000, 4.592425496802574219E-17 ) ) ;
#181 = ADVANCED_FACE ( 'NONE', ( #121 ), #54, .F. ) ;
#182 =( NAMED_UNIT ( * ) SI_UNIT ( $, .STERADIAN. ) SOLID_ANGLE_UNIT ( ) );
#183 = FILL_AREA_STYLE ('',( #298 ) ) ;
#184 = APPLICATION_CONTEXT ( 'automotive_design' ) ;
#185 = ORIENTED_EDGE ( 'NONE', *, *, #278, .T. ) ;
#186 =( GEOMETRIC_REPRESENTATION_CONTEXT ( 3 ) GLOBAL_UNCERTAINTY_ASSIGNED_CONTEXT ( ( #293 ) ) GLOBAL_UNIT_ASSIGNED_CONTEXT ( ( #159, #45, #139 ) ) REPRESENTATION_CONTEXT ( 'NONE', 'WORKASPACE' ) );
#187 =( LENGTH_UNIT ( ) NAMED_UNIT ( * ) SI_UNIT ( $, .METRE. ) );
#188 = DIRECTION ( 'NONE',  ( 0.000000000000000000, 0.000000000000000000, -1.000000000000000000 ) ) ;
#189 = VERTEX_POINT ( 'NONE', #52 ) ;
#190 = LINE ( 'NONE', #113, #223 ) ;
#191 = EDGE_CURVE ( 'NONE', #1, #138, #72, .T. ) ;
#192 = ORIENTED_EDGE ( 'NONE', *, *, #92, .F. ) ;
#193 = CARTESIAN_POINT ( 'NONE',  ( 0.000000000000000000, 0.000000000000000000, 0.000000000000000000 ) ) ;
#194 = DIRECTION ( 'NONE',  ( 5.442874662877130638E-17, 1.000000000000000000, -0.000000000000000000 ) ) ;
#195 = CARTESIAN_POINT ( 'NONE',  ( -1.516480271171051896E-32, 2.750000000000000000, 0.000000000000000000 ) ) ;
#196 = MANIFOLD_SOLID_BREP ( 'Revolve - Cutting Edge', #36 ) ;
#197 =( CONVERSION_BASED_UNIT ( 'INCH', #4 ) LENGTH_UNIT ( ) NAMED_UNIT ( #289 ) );
#198 = FILL_AREA_STYLE ('',( #37 ) ) ;
#199 =( GEOMETRIC_REPRESENTATION_CONTEXT ( 3 ) GLOBAL_UNCERTAINTY_ASSIGNED_CONTEXT ( ( #261 ) ) GLOBAL_UNIT_ASSIGNED_CONTEXT ( ( #13, #34, #201 ) ) REPRESENTATION_CONTEXT ( 'NONE', 'WORKASPACE' ) );
#200 = EDGE_CURVE ( 'NONE', #268, #131, #14, .T. ) ;
#201 =( NAMED_UNIT ( * ) SI_UNIT ( $, .STERADIAN. ) SOLID_ANGLE_UNIT ( ) );
#202 = DIRECTION ( 'NONE',  ( -0.000000000000000000, -1.000000000000000000, -0.000000000000000000 ) ) ;
#203 =( GEOMETRIC_REPRESENTATION_CONTEXT ( 3 ) GLOBAL_UNCERTAINTY_ASSIGNED_CONTEXT ( ( #10 ) ) GLOBAL_UNIT_ASSIGNED_CONTEXT ( ( #9, #89, #182 ) ) REPRESENTATION_CONTEXT ( 'NONE', 'WORKASPACE' ) );
#204 = AXIS2_PLACEMENT_3D ( 'NONE', #193, #75, #281 ) ;
#205 = CARTESIAN_POINT ( 'NONE',  ( 1.224646799147354440E-16, 5.000000000000000000, 0.000000000000000000 ) ) ;
#206 = CARTESIAN_POINT ( 'NONE',  ( 0.000000000000000000, 0.000000000000000000, -0.3750000000000000555 ) ) ;
#207 =( LENGTH_UNIT ( ) NAMED_UNIT ( * ) SI_UNIT ( $, .METRE. ) );
#208 = PRODUCT_DEFINITION_SHAPE ( 'NONE', 'NONE',  #51 ) ;
#209 = STYLED_ITEM ( 'NONE', ( #15 ), #23 ) ;
#210 = DIRECTION ( 'NONE',  ( 5.442874662877130638E-17, 1.000000000000000000, -0.000000000000000000 ) ) ;
#211 = AXIS2_PLACEMENT_3D ( 'NONE', #168, #194, #147 ) ;
#212 = DIRECTION ( 'NONE',  ( 0.000000000000000000, -0.000000000000000000, 1.000000000000000000 ) ) ;
#213 = ORIENTED_EDGE ( 'NONE', *, *, #144, .F. ) ;
#214 = PRESENTATION_LAYER_ASSIGNMENT (  '', '', ( #296 ) ) ;
#215 = LINE ( 'NONE', #86, #97 ) ;
#216 = DIRECTION ( 'NONE',  ( 5.442874662877130022E-17, 1.000000000000000000, -0.000000000000000000 ) ) ;
#217 = VECTOR ( 'NONE', #91, 39.37007874015748143 ) ;
#218 = DIRECTION ( 'NONE',  ( -1.000000000000000000, 5.442874662877130022E-17, 0.000000000000000000 ) ) ;
#219 = ADVANCED_FACE ( 'NONE', ( #94 ), #292, .T. ) ;
#220 = PRODUCT_DEFINITION_CONTEXT ( 'detailed design', #280, 'design' ) ;
#221 = ORIENTED_EDGE ( 'NONE', *, *, #92, .T. ) ;
#222 =( NAMED_UNIT ( * ) PLANE_ANGLE_UNIT ( ) SI_UNIT ( $, .RADIAN. ) );
#223 = VECTOR ( 'NONE', #253, 39.37007874015748143 ) ;
#224 = AXIS2_PLACEMENT_3D ( 'NONE', #205, #19, #279 ) ;
#225 = CYLINDRICAL_SURFACE ( 'NONE', #266, 0.3750000000000000555 ) ;
#226 = EDGE_LOOP ( 'NONE', ( #38, #153, #221, #140 ) ) ;
#227 = CARTESIAN_POINT ( 'NONE',  ( 0.3750000000000001110, 5.000000000000000000, 4.592425496802573602E-17 ) ) ;
#228 = AXIS2_PLACEMENT_3D ( 'NONE', #21, #108, #188 ) ;
#229 = CARTESIAN_POINT ( 'NONE',  ( -0.3750000000000000555, 2.750000000000000000, 0.000000000000000000 ) ) ;
#230 = CYLINDRICAL_SURFACE ( 'NONE', #228, 0.3750000000000000555 ) ;
#231 = DIRECTION ( 'NONE',  ( 0.000000000000000000, 1.000000000000000000, 0.000000000000000000 ) ) ;
#232 = PRESENTATION_LAYER_ASSIGNMENT (  '', '', ( #209 ) ) ;
#233 = AXIS2_PLACEMENT_3D ( 'NONE', #114, #237, #90 ) ;
#234 = AXIS2_PLACEMENT_3D ( 'NONE', #56, #81, #175 ) ;
#235 = ADVANCED_BREP_SHAPE_REPRESENTATION ( '86037', ( #196, #23, #204 ), #297 ) ;
#236 = ORIENTED_EDGE ( 'NONE', *, *, #48, .T. ) ;
#237 = DIRECTION ( 'NONE',  ( 5.442874662877130638E-17, 1.000000000000000000, -0.000000000000000000 ) ) ;
#238 = SURFACE_STYLE_FILL_AREA ( #134 ) ;
#239 = STYLED_ITEM ( 'NONE', ( #246 ), #267 ) ;
#240 = DIRECTION ( 'NONE',  ( 0.000000000000000000, 0.000000000000000000, -1.000000000000000000 ) ) ;
#241 = STYLED_ITEM ( 'NONE', ( #110 ), #137 ) ;
#242 = CARTESIAN_POINT ( 'NONE',  ( 0.000000000000000000, 0.000000000000000000, 0.000000000000000000 ) ) ;
#243 = DIMENSIONAL_EXPONENTS ( 1.000000000000000000, 0.000000000000000000, 0.000000000000000000, 0.000000000000000000, 0.000000000000000000, 0.000000000000000000, 0.000000000000000000 ) ;
#244 = SURFACE_STYLE_USAGE ( .BOTH. , #70 ) ;
#245 = EDGE_CURVE ( 'NONE', #131, #268, #2, .T. ) ;
#246 = PRESENTATION_STYLE_ASSIGNMENT (( #41 ) ) ;
#247 =( CONVERSION_BASED_UNIT ( 'INCH', #16 ) LENGTH_UNIT ( ) NAMED_UNIT ( #152 ) );
#248 = SURFACE_STYLE_FILL_AREA ( #198 ) ;
#249 = AXIS2_PLACEMENT_3D ( 'NONE', #290, #102, #8 ) ;
#250 = LENGTH_MEASURE_WITH_UNIT ( LENGTH_MEASURE( 0.02539999999999999897 ), #157 );
#251 = EDGE_LOOP ( 'NONE', ( #299, #132 ) ) ;
#252 = SURFACE_SIDE_STYLE ('',( #165 ) ) ;
#253 = DIRECTION ( 'NONE',  ( -0.000000000000000000, -1.000000000000000000, -0.000000000000000000 ) ) ;
#254 = AXIS2_PLACEMENT_3D ( 'NONE', #283, #260, #3 ) ;
#255 = DIRECTION ( 'NONE',  ( -1.000000000000000000, 0.000000000000000000, 0.000000000000000000 ) ) ;
#256 = APPLICATION_PROTOCOL_DEFINITION ( 'draft international standard', 'automotive_design', 1998, #184 ) ;
#257 = FILL_AREA_STYLE ('',( #17 ) ) ;
#258 = UNCERTAINTY_MEASURE_WITH_UNIT (LENGTH_MEASURE( 1.000000000000000082E-05 ), #197, 'distance_accuracy_value', 'NONE');
#259 = CIRCLE ( 'NONE', #84, 0.3750000000000000555 ) ;
#260 = DIRECTION ( 'NONE',  ( -5.442874662877130022E-17, -1.000000000000000000, 0.000000000000000000 ) ) ;
#261 = UNCERTAINTY_MEASURE_WITH_UNIT (LENGTH_MEASURE( 1.000000000000000082E-05 ), #13, 'distance_accuracy_value', 'NONE');
#262 = EDGE_CURVE ( 'NONE', #138, #1, #53, .T. ) ;
#263 = AXIS2_PLACEMENT_3D ( 'NONE', #136, #231, #212 ) ;
#264 = DIRECTION ( 'NONE',  ( 0.000000000000000000, 0.000000000000000000, -1.000000000000000000 ) ) ;
#265 = AXIS2_PLACEMENT_3D ( 'NONE', #117, #119, #240 ) ;
#266 = AXIS2_PLACEMENT_3D ( 'NONE', #11, #202, #85 ) ;
#267 = ADVANCED_FACE ( 'NONE', ( #176 ), #225, .T. ) ;
#268 = VERTEX_POINT ( 'NONE', #179 ) ;
#269 = LINE ( 'NONE', #227, #123 ) ;
#270 = EDGE_LOOP ( 'NONE', ( #40, #120, #118, #288 ) ) ;
#271 =( NAMED_UNIT ( * ) PLANE_ANGLE_UNIT ( ) SI_UNIT ( $, .RADIAN. ) );
#272 = COLOUR_RGB ( '',1.000000000000000000, 0.000000000000000000, 0.000000000000000000 ) ;
#273 =( CONVERSION_BASED_UNIT ( 'INCH', #163 ) LENGTH_UNIT ( ) NAMED_UNIT ( #291 ) );
#274 = FACE_OUTER_BOUND ( 'NONE', #111, .T. ) ;
#275 = FILL_AREA_STYLE_COLOUR ( '', #7 ) ;
#276 = CARTESIAN_POINT ( 'NONE',  ( 4.592425496802575451E-17, 2.750000000000000000, 0.3750000000000000555 ) ) ;
#277 = AXIS2_PLACEMENT_3D ( 'NONE', #125, #216, #218 ) ;
#278 = EDGE_CURVE ( 'NONE', #189, #69, #269, .T. ) ;
#279 = DIRECTION ( 'NONE',  ( -1.000000000000000000, 0.000000000000000000, 0.000000000000000000 ) ) ;
#280 = APPLICATION_CONTEXT ( 'automotive_design' ) ;
#281 = DIRECTION ( 'NONE',  ( 1.000000000000000000, 0.000000000000000000, 0.000000000000000000 ) ) ;
#282 = SURFACE_STYLE_USAGE ( .BOTH. , #22 ) ;
#283 = CARTESIAN_POINT ( 'NONE',  ( 0.3750000000000000555, 5.000000000000000000, 0.000000000000000000 ) ) ;
#284 = EDGE_CURVE ( 'NONE', #69, #158, #174, .T. ) ;
#285 = COLOUR_RGB ( '',1.000000000000000000, 0.000000000000000000, 0.000000000000000000 ) ;
#286 =( LENGTH_UNIT ( ) NAMED_UNIT ( * ) SI_UNIT ( $, .METRE. ) );
#287 = ORIENTED_EDGE ( 'NONE', *, *, #164, .F. ) ;
#288 = ORIENTED_EDGE ( 'NONE', *, *, #245, .F. ) ;
#289 = DIMENSIONAL_EXPONENTS ( 1.000000000000000000, 0.000000000000000000, 0.000000000000000000, 0.000000000000000000, 0.000000000000000000, 0.000000000000000000, 0.000000000000000000 ) ;
#290 = CARTESIAN_POINT ( 'NONE',  ( 0.000000000000000000, 2.750000000000000000, 0.000000000000000000 ) ) ;
#291 = DIMENSIONAL_EXPONENTS ( 1.000000000000000000, 0.000000000000000000, 0.000000000000000000, 0.000000000000000000, 0.000000000000000000, 0.000000000000000000, 0.000000000000000000 ) ;
#292 = PLANE ( 'NONE',  #234 ) ;
#293 = UNCERTAINTY_MEASURE_WITH_UNIT (LENGTH_MEASURE( 1.000000000000000082E-05 ), #159, 'distance_accuracy_value', 'NONE');
#294 = DIRECTION ( 'NONE',  ( -0.000000000000000000, -1.000000000000000000, -0.000000000000000000 ) ) ;
#295 = COLOUR_RGB ( '',0.7921568627450980005, 0.8196078431372548767, 0.9333333333333333481 ) ;
#296 = STYLED_ITEM ( 'NONE', ( #145 ), #196 ) ;
#297 =( GEOMETRIC_REPRESENTATION_CONTEXT ( 3 ) GLOBAL_UNCERTAINTY_ASSIGNED_CONTEXT ( ( #130 ) ) GLOBAL_UNIT_ASSIGNED_CONTEXT ( ( #273, #63, #109 ) ) REPRESENTATION_CONTEXT ( 'NONE', 'WORKASPACE' ) );
#298 = FILL_AREA_STYLE_COLOUR ( '', #295 ) ;
#299 = ORIENTED_EDGE ( 'NONE', *, *, #200, .T. ) ;
#300 = FILL_AREA_STYLE ('',( #88 ) ) ;
#301 = PRODUCT ( '86037', '86037', '', ( #30 ) ) ;
#302 = EDGE_LOOP ( 'NONE', ( #55, #287 ) ) ;
#303 = CLOSED_SHELL ( 'NONE', ( #126, #161, #171, #181 ) ) ;
#304 = DIRECTION ( 'NONE',  ( -1.000000000000000000, 0.000000000000000000, 0.000000000000000000 ) ) ;
#305 = SURFACE_STYLE_FILL_AREA ( #257 ) ;
#306 = CARTESIAN_POINT ( 'NONE',  ( 1.224646799147354440E-16, 5.000000000000000000, 0.000000000000000000 ) ) ;
#307 = MECHANICAL_DESIGN_GEOMETRIC_PRESENTATION_REPRESENTATION (  '', ( #241 ), #186 ) ;
#308 = EDGE_LOOP ( 'NONE', ( #83, #148 ) ) ;
#309 = FILL_AREA_STYLE ('',( #98 ) ) ;
ENDSEC;
END-ISO-10303-21;
