ISO-10303-21;
HEADER;
FILE_DESCRIPTION (( 'STEP AP214' ),
    '1' );
FILE_NAME ('Micro_KC-375-600-156.STEP',
    '2021-09-03T19:41:56',
    ( '' ),
    ( '' ),
    'SwSTEP 2.0',
    'SolidWorks 2020',
    '' );
FILE_SCHEMA (( 'AUTOMOTIVE_DESIGN' ));
ENDSEC;

DATA;
#1 = SHAPE_DEFINITION_REPRESENTATION ( #308, #65 ) ;
#2 = CARTESIAN_POINT ( 'NONE',  ( 0.09500000000000005662, 0.0000000000000000000, 0.5999999999999999778 ) ) ;
#3 = CYLINDRICAL_SURFACE ( 'NONE', #236, 0.09500000000000004274 ) ;
#4 = PRESENTATION_STYLE_ASSIGNMENT (( #287 ) ) ;
#5 = DIRECTION ( 'NONE',  ( 0.0000000000000000000, 0.0000000000000000000, 1.000000000000000000 ) ) ;
#6 = PRESENTATION_LAYER_ASSIGNMENT (  '', '', ( #309 ) ) ;
#7 = VERTEX_POINT ( 'NONE', #246 ) ;
#8 = ORIENTED_EDGE ( 'NONE', *, *, #312, .F. ) ;
#9 = CONICAL_SURFACE ( 'NONE', #145, 0.1724999999999995981, 0.7853981633974357335 ) ;
#10 = EDGE_CURVE ( 'NONE', #60, #256, #337, .T. ) ;
#11 = VERTEX_POINT ( 'NONE', #365 ) ;
#12 = EDGE_LOOP ( 'NONE', ( #243, #301, #41, #14 ) ) ;
#13 = EDGE_LOOP ( 'NONE', ( #240, #210, #156, #97 ) ) ;
#14 = ORIENTED_EDGE ( 'NONE', *, *, #26, .F. ) ;
#15 = EDGE_CURVE ( 'NONE', #297, #256, #141, .T. ) ;
#16 = AXIS2_PLACEMENT_3D ( 'NONE', #172, #169, #325 ) ;
#17 = DIRECTION ( 'NONE',  ( -0.0000000000000000000, -0.0000000000000000000, -1.000000000000000000 ) ) ;
#18 = APPLICATION_CONTEXT ( 'automotive_design' ) ;
#19 = DIRECTION ( 'NONE',  ( -0.0000000000000000000, -0.0000000000000000000, -1.000000000000000000 ) ) ;
#20 = DIRECTION ( 'NONE',  ( 1.000000000000000000, 0.0000000000000000000, -0.0000000000000000000 ) ) ;
#21 = CARTESIAN_POINT ( 'NONE',  ( -0.1875000000000000278, 0.0000000000000000000, 0.0000000000000000000 ) ) ;
#22 = AXIS2_PLACEMENT_3D ( 'NONE', #50, #168, #263 ) ;
#23 = DIRECTION ( 'NONE',  ( 0.0000000000000000000, 0.0000000000000000000, -1.000000000000000000 ) ) ;
#24 = DIRECTION ( 'NONE',  ( -1.000000000000000000, 0.0000000000000000000, 0.0000000000000000000 ) ) ;
#25 = ORIENTED_EDGE ( 'NONE', *, *, #178, .T. ) ;
#26 = EDGE_CURVE ( 'NONE', #346, #256, #32, .T. ) ;
#27 = DIRECTION ( 'NONE',  ( 1.000000000000000000, 0.0000000000000000000, 0.0000000000000000000 ) ) ;
#28 = CARTESIAN_POINT ( 'NONE',  ( 0.0000000000000000000, 0.0000000000000000000, 2.500000000000000000 ) ) ;
#29 = LENGTH_MEASURE_WITH_UNIT ( LENGTH_MEASURE( 0.02539999999999999897 ), #54 );
#30 = FACE_OUTER_BOUND ( 'NONE', #158, .T. ) ;
#31 = DIRECTION ( 'NONE',  ( 0.0000000000000000000, 0.0000000000000000000, 1.000000000000000000 ) ) ;
#32 = CIRCLE ( 'NONE', #193, 0.1875000000000000278 ) ;
#33 = ORIENTED_EDGE ( 'NONE', *, *, #77, .F. ) ;
#34 = ORIENTED_EDGE ( 'NONE', *, *, #149, .F. ) ;
#35 = AXIS2_PLACEMENT_3D ( 'NONE', #105, #47, #44 ) ;
#36 = DIRECTION ( 'NONE',  ( 1.000000000000000000, 0.0000000000000000000, 0.0000000000000000000 ) ) ;
#37 = EDGE_LOOP ( 'NONE', ( #62, #329, #25, #66 ) ) ;
#38 = ORIENTED_EDGE ( 'NONE', *, *, #354, .T. ) ;
#39 = EDGE_CURVE ( 'NONE', #7, #60, #165, .T. ) ;
#40 = DIRECTION ( 'NONE',  ( 1.000000000000000000, 0.0000000000000000000, 0.0000000000000000000 ) ) ;
#41 = ORIENTED_EDGE ( 'NONE', *, *, #10, .T. ) ;
#42 = AXIS2_PLACEMENT_3D ( 'NONE', #136, #166, #40 ) ;
#43 = LINE ( 'NONE', #315, #132 ) ;
#44 = DIRECTION ( 'NONE',  ( -1.000000000000000000, 0.0000000000000000000, 0.0000000000000000000 ) ) ;
#45 = CYLINDRICAL_SURFACE ( 'NONE', #215, 0.1875000000000000278 ) ;
#46 = CIRCLE ( 'NONE', #58, 0.1724999999999995981 ) ;
#47 = DIRECTION ( 'NONE',  ( -0.0000000000000000000, -0.0000000000000000000, -1.000000000000000000 ) ) ;
#48 = CARTESIAN_POINT ( 'NONE',  ( 0.0000000000000000000, 0.0000000000000000000, 2.500000000000000000 ) ) ;
#49 = EDGE_LOOP ( 'NONE', ( #367, #177 ) ) ;
#50 = CARTESIAN_POINT ( 'NONE',  ( 0.0000000000000000000, 0.0000000000000000000, 0.0000000000000000000 ) ) ;
#51 = EDGE_LOOP ( 'NONE', ( #180, #266, #234, #378 ) ) ;
#52 = CARTESIAN_POINT ( 'NONE',  ( -0.1724999999999995981, 0.0000000000000000000, 2.500000000000000000 ) ) ;
#53 = CIRCLE ( 'NONE', #35, 0.09500000000000001499 ) ;
#54 =( LENGTH_UNIT ( ) NAMED_UNIT ( * ) SI_UNIT ( $, .METRE. ) );
#55 = CARTESIAN_POINT ( 'NONE',  ( 0.09500000000000001499, 1.163414459189986052E-17, 0.1559999999999999998 ) ) ;
#56 = LINE ( 'NONE', #148, #88 ) ;
#57 =( NAMED_UNIT ( * ) PLANE_ANGLE_UNIT ( ) SI_UNIT ( $, .RADIAN. ) );
#58 = AXIS2_PLACEMENT_3D ( 'NONE', #273, #135, #104 ) ;
#59 = MECHANICAL_DESIGN_GEOMETRIC_PRESENTATION_REPRESENTATION (  '', ( #222 ), #101 ) ;
#60 = VERTEX_POINT ( 'NONE', #102 ) ;
#61 = SURFACE_STYLE_USAGE ( .BOTH. , #157 ) ;
#62 = ORIENTED_EDGE ( 'NONE', *, *, #359, .F. ) ;
#63 = PRODUCT ( 'Micro_KC-375-600-156', 'Micro_KC-375-600-156', '', ( #79 ) ) ;
#64 = ORIENTED_EDGE ( 'NONE', *, *, #39, .F. ) ;
#65 = ADVANCED_BREP_SHAPE_REPRESENTATION ( 'Micro_KC-375-600-156', ( #84, #274 ), #293 ) ;
#66 = ORIENTED_EDGE ( 'NONE', *, *, #339, .F. ) ;
#67 = DIRECTION ( 'NONE',  ( 0.0000000000000000000, 0.0000000000000000000, 1.000000000000000000 ) ) ;
#68 = ORIENTED_EDGE ( 'NONE', *, *, #77, .T. ) ;
#69 = CYLINDRICAL_SURFACE ( 'NONE', #262, 0.09500000000000004274 ) ;
#70 = AXIS2_PLACEMENT_3D ( 'NONE', #321, #260, #167 ) ;
#71 = DIRECTION ( 'NONE',  ( -0.0000000000000000000, -0.0000000000000000000, -1.000000000000000000 ) ) ;
#72 = FACE_OUTER_BOUND ( 'NONE', #37, .T. ) ;
#73 = CARTESIAN_POINT ( 'NONE',  ( 0.0000000000000000000, 0.0000000000000000000, 2.484999999999999432 ) ) ;
#74 = DIRECTION ( 'NONE',  ( -1.000000000000000000, 0.0000000000000000000, 0.0000000000000000000 ) ) ;
#75 = LINE ( 'NONE', #2, #362 ) ;
#76 = AXIS2_PLACEMENT_3D ( 'NONE', #28, #147, #228 ) ;
#77 = EDGE_CURVE ( 'NONE', #207, #282, #244, .T. ) ;
#78 = DIRECTION ( 'NONE',  ( 1.000000000000000000, 0.0000000000000000000, 0.0000000000000000000 ) ) ;
#79 = PRODUCT_CONTEXT ( 'NONE', #189, 'mechanical' ) ;
#80 = DIRECTION ( 'NONE',  ( -1.000000000000000000, 0.0000000000000000000, 0.0000000000000000000 ) ) ;
#81 = ORIENTED_EDGE ( 'NONE', *, *, #296, .F. ) ;
#82 =( NAMED_UNIT ( * ) SI_UNIT ( $, .STERADIAN. ) SOLID_ANGLE_UNIT ( ) );
#83 = CARTESIAN_POINT ( 'NONE',  ( 0.0000000000000000000, 0.0000000000000000000, 0.5999999999999999778 ) ) ;
#84 = MANIFOLD_SOLID_BREP ( 'Cut-Revolve1', #144 ) ;
#85 =( CONVERSION_BASED_UNIT ( 'INCH', #29 ) LENGTH_UNIT ( ) NAMED_UNIT ( #91 ) );
#86 = DIRECTION ( 'NONE',  ( -1.000000000000000000, 0.0000000000000000000, 0.0000000000000000000 ) ) ;
#87 = AXIS2_PLACEMENT_3D ( 'NONE', #375, #67, #20 ) ;
#88 = VECTOR ( 'NONE', #258, 39.37007874015748854 ) ;
#89 = FACE_OUTER_BOUND ( 'NONE', #351, .T. ) ;
#90 = DIRECTION ( 'NONE',  ( 0.0000000000000000000, 0.0000000000000000000, 1.000000000000000000 ) ) ;
#91 = DIMENSIONAL_EXPONENTS ( 1.000000000000000000, 0.0000000000000000000, 0.0000000000000000000, 0.0000000000000000000, 0.0000000000000000000, 0.0000000000000000000, 0.0000000000000000000 ) ;
#92 = AXIS2_PLACEMENT_3D ( 'NONE', #306, #250, #374 ) ;
#93 = CIRCLE ( 'NONE', #299, 0.1875000000000000555 ) ;
#94 = EDGE_LOOP ( 'NONE', ( #319, #8 ) ) ;
#95 = CARTESIAN_POINT ( 'NONE',  ( 0.0000000000000000000, 0.0000000000000000000, 0.5999999999999999778 ) ) ;
#96 = LINE ( 'NONE', #134, #204 ) ;
#97 = ORIENTED_EDGE ( 'NONE', *, *, #155, .F. ) ;
#98 = EDGE_LOOP ( 'NONE', ( #271, #332, #143, #131 ) ) ;
#99 = EDGE_CURVE ( 'NONE', #304, #307, #96, .T. ) ;
#100 = ORIENTED_EDGE ( 'NONE', *, *, #114, .T. ) ;
#101 =( GEOMETRIC_REPRESENTATION_CONTEXT ( 3 ) GLOBAL_UNCERTAINTY_ASSIGNED_CONTEXT ( ( #372 ) ) GLOBAL_UNIT_ASSIGNED_CONTEXT ( ( #323, #230, #82 ) ) REPRESENTATION_CONTEXT ( 'NONE', 'WORKASPACE' ) );
#102 = CARTESIAN_POINT ( 'NONE',  ( -0.1875000000000000278, 0.0000000000000000000, 2.484999999999999432 ) ) ;
#103 = ORIENTED_EDGE ( 'NONE', *, *, #294, .F. ) ;
#104 = DIRECTION ( 'NONE',  ( 1.000000000000000000, 0.0000000000000000000, 0.0000000000000000000 ) ) ;
#105 = CARTESIAN_POINT ( 'NONE',  ( 0.0000000000000000000, 0.0000000000000000000, 0.1559999999999999998 ) ) ;
#106 = EDGE_CURVE ( 'NONE', #60, #7, #124, .T. ) ;
#107 = CIRCLE ( 'NONE', #92, 0.09500000000000005662 ) ;
#108 = CIRCLE ( 'NONE', #216, 0.09500000000000001499 ) ;
#109 = LINE ( 'NONE', #373, #291 ) ;
#110 = FACE_BOUND ( 'NONE', #264, .T. ) ;
#111 = ADVANCED_FACE ( 'NONE', ( #279 ), #9, .T. ) ;
#112 = PLANE ( 'NONE',  #22 ) ;
#113 = ORIENTED_EDGE ( 'NONE', *, *, #106, .T. ) ;
#114 = EDGE_CURVE ( 'NONE', #282, #207, #46, .T. ) ;
#115 = DIRECTION ( 'NONE',  ( -0.0000000000000000000, -0.0000000000000000000, -1.000000000000000000 ) ) ;
#116 = ORIENTED_EDGE ( 'NONE', *, *, #178, .F. ) ;
#117 = FACE_OUTER_BOUND ( 'NONE', #206, .T. ) ;
#118 = APPLICATION_PROTOCOL_DEFINITION ( 'draft international standard', 'automotive_design', 1998, #189 ) ;
#119 = CARTESIAN_POINT ( 'NONE',  ( -0.1875000000000000278, 0.0000000000000000000, 0.6924999999999995604 ) ) ;
#120 = EDGE_CURVE ( 'NONE', #297, #127, #188, .T. ) ;
#121 = CARTESIAN_POINT ( 'NONE',  ( 0.0000000000000000000, 0.0000000000000000000, 0.1559999999999999998 ) ) ;
#122 = ORIENTED_EDGE ( 'NONE', *, *, #10, .F. ) ;
#123 = ADVANCED_FACE ( 'NONE', ( #247 ), #45, .T. ) ;
#124 = CIRCLE ( 'NONE', #340, 0.1875000000000000278 ) ;
#125 = ORIENTED_EDGE ( 'NONE', *, *, #149, .T. ) ;
#126 = CARTESIAN_POINT ( 'NONE',  ( 0.0000000000000000000, 0.0000000000000000000, 0.1559999999999999998 ) ) ;
#127 = VERTEX_POINT ( 'NONE', #371 ) ;
#128 = ADVANCED_FACE ( 'NONE', ( #217 ), #69, .T. ) ;
#129 = FILL_AREA_STYLE ('',( #154 ) ) ;
#130 = ORIENTED_EDGE ( 'NONE', *, *, #202, .T. ) ;
#131 = ORIENTED_EDGE ( 'NONE', *, *, #161, .T. ) ;
#132 = VECTOR ( 'NONE', #185, 39.37007874015748854 ) ;
#133 = VECTOR ( 'NONE', #290, 39.37007874015748143 ) ;
#134 = CARTESIAN_POINT ( 'NONE',  ( 0.1875000000000000278, 2.296212748401287726E-17, 2.500000000000000000 ) ) ;
#135 = DIRECTION ( 'NONE',  ( 0.0000000000000000000, 0.0000000000000000000, 1.000000000000000000 ) ) ;
#136 = CARTESIAN_POINT ( 'NONE',  ( 0.0000000000000000000, 0.0000000000000000000, 0.6924999999999995604 ) ) ;
#137 = CIRCLE ( 'NONE', #284, 0.09500000000000005662 ) ;
#138 = FACE_OUTER_BOUND ( 'NONE', #51, .T. ) ;
#139 = EDGE_CURVE ( 'NONE', #11, #196, #109, .T. ) ;
#140 = CARTESIAN_POINT ( 'NONE',  ( 0.0000000000000000000, 0.0000000000000000000, 0.0000000000000000000 ) ) ;
#141 = LINE ( 'NONE', #342, #174 ) ;
#142 = CARTESIAN_POINT ( 'NONE',  ( 0.1875000000000000278, 2.296212748401287726E-17, 0.6924999999999995604 ) ) ;
#143 = ORIENTED_EDGE ( 'NONE', *, *, #139, .T. ) ;
#144 = CLOSED_SHELL ( 'NONE', ( #197, #128, #190, #343, #276, #123, #259, #111, #254, #229, #173, #237, #265 ) ) ;
#145 = AXIS2_PLACEMENT_3D ( 'NONE', #278, #23, #341 ) ;
#146 = COLOUR_RGB ( '',0.7921568627450980005, 0.8196078431372548767, 0.9333333333333333481 ) ;
#147 = DIRECTION ( 'NONE',  ( -0.0000000000000000000, -0.0000000000000000000, -1.000000000000000000 ) ) ;
#148 = CARTESIAN_POINT ( 'NONE',  ( -0.1724999999999995981, 0.0000000000000000000, 2.500000000000000000 ) ) ;
#149 = EDGE_CURVE ( 'NONE', #282, #7, #43, .T. ) ;
#150 = CYLINDRICAL_SURFACE ( 'NONE', #70, 0.1875000000000000278 ) ;
#151 = VECTOR ( 'NONE', #115, 39.37007874015748143 ) ;
#152 = CARTESIAN_POINT ( 'NONE',  ( -0.1875000000000000278, 0.0000000000000000000, 2.500000000000000000 ) ) ;
#153 = ORIENTED_EDGE ( 'NONE', *, *, #120, .F. ) ;
#154 = FILL_AREA_STYLE_COLOUR ( '', #333 ) ;
#155 = EDGE_CURVE ( 'NONE', #208, #127, #53, .T. ) ;
#156 = ORIENTED_EDGE ( 'NONE', *, *, #120, .T. ) ;
#157 = SURFACE_SIDE_STYLE ('',( #327 ) ) ;
#158 = EDGE_LOOP ( 'NONE', ( #113, #130, #116, #122 ) ) ;
#159 = DIRECTION ( 'NONE',  ( 1.000000000000000000, 0.0000000000000000000, 0.0000000000000000000 ) ) ;
#160 = PRESENTATION_LAYER_ASSIGNMENT (  '', '', ( #222 ) ) ;
#161 = EDGE_CURVE ( 'NONE', #196, #307, #361, .T. ) ;
#162 = CARTESIAN_POINT ( 'NONE',  ( -0.09500000000000004274, 0.0000000000000000000, 0.0000000000000000000 ) ) ;
#163 = DIRECTION ( 'NONE',  ( 0.0000000000000000000, 0.0000000000000000000, -1.000000000000000000 ) ) ;
#164 = DIRECTION ( 'NONE',  ( 1.000000000000000000, 0.0000000000000000000, 0.0000000000000000000 ) ) ;
#165 = CIRCLE ( 'NONE', #379, 0.1875000000000000278 ) ;
#166 = DIRECTION ( 'NONE',  ( -0.0000000000000000000, -0.0000000000000000000, -1.000000000000000000 ) ) ;
#167 = DIRECTION ( 'NONE',  ( -1.000000000000000000, 0.0000000000000000000, 0.0000000000000000000 ) ) ;
#168 = DIRECTION ( 'NONE',  ( 0.0000000000000000000, 0.0000000000000000000, 1.000000000000000000 ) ) ;
#169 = DIRECTION ( 'NONE',  ( 0.0000000000000000000, 0.0000000000000000000, 1.000000000000000000 ) ) ;
#170 = DIMENSIONAL_EXPONENTS ( 1.000000000000000000, 0.0000000000000000000, 0.0000000000000000000, 0.0000000000000000000, 0.0000000000000000000, 0.0000000000000000000, 0.0000000000000000000 ) ;
#171 = DIRECTION ( 'NONE',  ( -0.0000000000000000000, -0.0000000000000000000, -1.000000000000000000 ) ) ;
#172 = CARTESIAN_POINT ( 'NONE',  ( 0.0000000000000000000, 0.0000000000000000000, 0.0000000000000000000 ) ) ;
#173 = ADVANCED_FACE ( 'NONE', ( #110, #182 ), #376, .T. ) ;
#174 = VECTOR ( 'NONE', #219, 39.37007874015748143 ) ;
#175 = AXIS2_PLACEMENT_3D ( 'NONE', #48, #281, #24 ) ;
#176 = ORIENTED_EDGE ( 'NONE', *, *, #15, .F. ) ;
#177 = ORIENTED_EDGE ( 'NONE', *, *, #280, .F. ) ;
#178 = EDGE_CURVE ( 'NONE', #256, #346, #272, .T. ) ;
#179 = AXIS2_PLACEMENT_3D ( 'NONE', #126, #19, #352 ) ;
#180 = ORIENTED_EDGE ( 'NONE', *, *, #370, .T. ) ;
#181 = ORIENTED_EDGE ( 'NONE', *, *, #114, .F. ) ;
#182 = FACE_OUTER_BOUND ( 'NONE', #94, .T. ) ;
#183 = ORIENTED_EDGE ( 'NONE', *, *, #294, .T. ) ;
#184 = UNCERTAINTY_MEASURE_WITH_UNIT (LENGTH_MEASURE( 1.000000000000000082E-05 ), #85, 'distance_accuracy_value', 'NONE');
#185 = DIRECTION ( 'NONE',  ( 0.7071067811865385799, 8.659560562354823157E-17, -0.7071067811865563435 ) ) ;
#186 = AXIS2_PLACEMENT_3D ( 'NONE', #288, #31, #198 ) ;
#187 = EDGE_CURVE ( 'NONE', #225, #297, #107, .T. ) ;
#188 = LINE ( 'NONE', #162, #368 ) ;
#189 = APPLICATION_CONTEXT ( 'automotive_design' ) ;
#190 = ADVANCED_FACE ( 'NONE', ( #72 ), #251, .T. ) ;
#191 = CARTESIAN_POINT ( 'NONE',  ( 0.0000000000000000000, 0.0000000000000000000, 0.5999999999999999778 ) ) ;
#192 = DIRECTION ( 'NONE',  ( -1.000000000000000000, 0.0000000000000000000, 0.0000000000000000000 ) ) ;
#193 = AXIS2_PLACEMENT_3D ( 'NONE', #275, #348, #78 ) ;
#194 = FACE_OUTER_BOUND ( 'NONE', #98, .T. ) ;
#195 = LINE ( 'NONE', #350, #133 ) ;
#196 = VERTEX_POINT ( 'NONE', #21 ) ;
#197 = ADVANCED_FACE ( 'NONE', ( #138 ), #218, .T. ) ;
#198 = DIRECTION ( 'NONE',  ( 1.000000000000000000, 0.0000000000000000000, -0.0000000000000000000 ) ) ;
#199 = CARTESIAN_POINT ( 'NONE',  ( 0.1875000000000000278, 2.296212748401287726E-17, 0.0000000000000000000 ) ) ;
#200 = SURFACE_STYLE_FILL_AREA ( #227 ) ;
#201 = CARTESIAN_POINT ( 'NONE',  ( 0.0000000000000000000, 0.0000000000000000000, 0.0000000000000000000 ) ) ;
#202 = EDGE_CURVE ( 'NONE', #7, #346, #195, .T. ) ;
#203 = LENGTH_MEASURE_WITH_UNIT ( LENGTH_MEASURE( 0.02539999999999999897 ), #320 );
#204 = VECTOR ( 'NONE', #310, 39.37007874015748143 ) ;
#205 =( NAMED_UNIT ( * ) SI_UNIT ( $, .STERADIAN. ) SOLID_ANGLE_UNIT ( ) );
#206 = EDGE_LOOP ( 'NONE', ( #68, #100 ) ) ;
#207 = VERTEX_POINT ( 'NONE', #52 ) ;
#208 = VERTEX_POINT ( 'NONE', #55 ) ;
#209 =( LENGTH_UNIT ( ) NAMED_UNIT ( * ) SI_UNIT ( $, .METRE. ) );
#210 = ORIENTED_EDGE ( 'NONE', *, *, #187, .T. ) ;
#211 = DIRECTION ( 'NONE',  ( -1.000000000000000000, 0.0000000000000000000, 0.0000000000000000000 ) ) ;
#212 = ORIENTED_EDGE ( 'NONE', *, *, #296, .T. ) ;
#213 = CARTESIAN_POINT ( 'NONE',  ( 0.0000000000000000000, 0.0000000000000000000, 0.0000000000000000000 ) ) ;
#214 = DIRECTION ( 'NONE',  ( -0.0000000000000000000, -0.0000000000000000000, -1.000000000000000000 ) ) ;
#215 = AXIS2_PLACEMENT_3D ( 'NONE', #338, #214, #313 ) ;
#216 = AXIS2_PLACEMENT_3D ( 'NONE', #121, #257, #86 ) ;
#217 = FACE_OUTER_BOUND ( 'NONE', #295, .T. ) ;
#218 = CYLINDRICAL_SURFACE ( 'NONE', #268, 0.1875000000000000278 ) ;
#219 = DIRECTION ( 'NONE',  ( -0.7071067811865489050, 8.659560562354950115E-17, 0.7071067811865461294 ) ) ;
#220 = CARTESIAN_POINT ( 'NONE',  ( -0.09500000000000005662, 1.729813603795637197E-17, 0.5999999999999999778 ) ) ;
#221 = MECHANICAL_DESIGN_GEOMETRIC_PRESENTATION_REPRESENTATION (  '', ( #309 ), #235 ) ;
#222 = STYLED_ITEM ( 'NONE', ( #4 ), #65 ) ;
#223 = FILL_AREA_STYLE_COLOUR ( '', #146 ) ;
#224 = FACE_OUTER_BOUND ( 'NONE', #13, .T. ) ;
#225 = VERTEX_POINT ( 'NONE', #226 ) ;
#226 = CARTESIAN_POINT ( 'NONE',  ( 0.09500000000000005662, 0.0000000000000000000, 0.5999999999999999778 ) ) ;
#227 = FILL_AREA_STYLE ('',( #223 ) ) ;
#228 = DIRECTION ( 'NONE',  ( -1.000000000000000000, 0.0000000000000000000, 0.0000000000000000000 ) ) ;
#229 = ADVANCED_FACE ( 'NONE', ( #224 ), #3, .T. ) ;
#230 =( NAMED_UNIT ( * ) PLANE_ANGLE_UNIT ( ) SI_UNIT ( $, .RADIAN. ) );
#231 = CIRCLE ( 'NONE', #179, 0.1875000000000000555 ) ;
#232 = DIRECTION ( 'NONE',  ( -1.000000000000000000, 0.0000000000000000000, 0.0000000000000000000 ) ) ;
#233 = CARTESIAN_POINT ( 'NONE',  ( 0.0000000000000000000, 0.0000000000000000000, 0.0000000000000000000 ) ) ;
#234 = ORIENTED_EDGE ( 'NONE', *, *, #280, .T. ) ;
#235 =( GEOMETRIC_REPRESENTATION_CONTEXT ( 3 ) GLOBAL_UNCERTAINTY_ASSIGNED_CONTEXT ( ( #305 ) ) GLOBAL_UNIT_ASSIGNED_CONTEXT ( ( #270, #57, #205 ) ) REPRESENTATION_CONTEXT ( 'NONE', 'WORKASPACE' ) );
#236 = AXIS2_PLACEMENT_3D ( 'NONE', #201, #171, #80 ) ;
#237 = ADVANCED_FACE ( 'NONE', ( #318 ), #112, .F. ) ;
#238 = ORIENTED_EDGE ( 'NONE', *, *, #26, .T. ) ;
#239 = DIRECTION ( 'NONE',  ( 0.0000000000000000000, 0.0000000000000000000, -1.000000000000000000 ) ) ;
#240 = ORIENTED_EDGE ( 'NONE', *, *, #354, .F. ) ;
#241 = EDGE_LOOP ( 'NONE', ( #34, #33, #183, #64 ) ) ;
#242 = PRESENTATION_STYLE_ASSIGNMENT (( #61 ) ) ;
#243 = ORIENTED_EDGE ( 'NONE', *, *, #202, .F. ) ;
#244 = CIRCLE ( 'NONE', #347, 0.1724999999999995981 ) ;
#245 = CONICAL_SURFACE ( 'NONE', #322, 0.09500000000000005662, 0.7853981633974502774 ) ;
#246 = CARTESIAN_POINT ( 'NONE',  ( 0.1875000000000000278, 2.296212748401287726E-17, 2.484999999999999432 ) ) ;
#247 = FACE_OUTER_BOUND ( 'NONE', #12, .T. ) ;
#248 = DIRECTION ( 'NONE',  ( -0.0000000000000000000, -0.0000000000000000000, -1.000000000000000000 ) ) ;
#249 = PRODUCT_DEFINITION_CONTEXT ( 'detailed design', #18, 'design' ) ;
#250 = DIRECTION ( 'NONE',  ( -0.0000000000000000000, -0.0000000000000000000, -1.000000000000000000 ) ) ;
#251 = CONICAL_SURFACE ( 'NONE', #298, 0.09500000000000005662, 0.7853981633974502774 ) ;
#252 = CARTESIAN_POINT ( 'NONE',  ( 0.0000000000000000000, 0.0000000000000000000, 2.500000000000000000 ) ) ;
#253 = DIRECTION ( 'NONE',  ( -0.0000000000000000000, -0.0000000000000000000, -1.000000000000000000 ) ) ;
#254 = ADVANCED_FACE ( 'NONE', ( #353 ), #245, .T. ) ;
#255 = LINE ( 'NONE', #377, #151 ) ;
#256 = VERTEX_POINT ( 'NONE', #119 ) ;
#257 = DIRECTION ( 'NONE',  ( -0.0000000000000000000, -0.0000000000000000000, -1.000000000000000000 ) ) ;
#258 = DIRECTION ( 'NONE',  ( -0.7071067811865385799, 0.0000000000000000000, -0.7071067811865563435 ) ) ;
#259 = ADVANCED_FACE ( 'NONE', ( #117 ), #283, .T. ) ;
#260 = DIRECTION ( 'NONE',  ( -0.0000000000000000000, -0.0000000000000000000, -1.000000000000000000 ) ) ;
#261 = VECTOR ( 'NONE', #269, 39.37007874015748143 ) ;
#262 = AXIS2_PLACEMENT_3D ( 'NONE', #140, #253, #211 ) ;
#263 = DIRECTION ( 'NONE',  ( 1.000000000000000000, 0.0000000000000000000, -0.0000000000000000000 ) ) ;
#264 = EDGE_LOOP ( 'NONE', ( #212, #360 ) ) ;
#265 = ADVANCED_FACE ( 'NONE', ( #194 ), #355, .T. ) ;
#266 = ORIENTED_EDGE ( 'NONE', *, *, #99, .T. ) ;
#267 = AXIS2_PLACEMENT_3D ( 'NONE', #213, #336, #277 ) ;
#268 = AXIS2_PLACEMENT_3D ( 'NONE', #252, #344, #192 ) ;
#269 = DIRECTION ( 'NONE',  ( -0.0000000000000000000, -0.0000000000000000000, -1.000000000000000000 ) ) ;
#270 =( CONVERSION_BASED_UNIT ( 'INCH', #302 ) LENGTH_UNIT ( ) NAMED_UNIT ( #358 ) );
#271 = ORIENTED_EDGE ( 'NONE', *, *, #99, .F. ) ;
#272 = CIRCLE ( 'NONE', #42, 0.1875000000000000278 ) ;
#273 = CARTESIAN_POINT ( 'NONE',  ( 0.0000000000000000000, 0.0000000000000000000, 2.500000000000000000 ) ) ;
#274 = AXIS2_PLACEMENT_3D ( 'NONE', #233, #90, #326 ) ;
#275 = CARTESIAN_POINT ( 'NONE',  ( 0.0000000000000000000, 0.0000000000000000000, 0.6924999999999995604 ) ) ;
#276 = ADVANCED_FACE ( 'NONE', ( #30 ), #150, .T. ) ;
#277 = DIRECTION ( 'NONE',  ( 1.000000000000000000, 0.0000000000000000000, 0.0000000000000000000 ) ) ;
#278 = CARTESIAN_POINT ( 'NONE',  ( 0.0000000000000000000, 0.0000000000000000000, 2.500000000000000000 ) ) ;
#279 = FACE_OUTER_BOUND ( 'NONE', #241, .T. ) ;
#280 = EDGE_CURVE ( 'NONE', #307, #196, #349, .T. ) ;
#281 = DIRECTION ( 'NONE',  ( 0.0000000000000000000, 0.0000000000000000000, -1.000000000000000000 ) ) ;
#282 = VERTEX_POINT ( 'NONE', #286 ) ;
#283 = PLANE ( 'NONE',  #186 ) ;
#284 = AXIS2_PLACEMENT_3D ( 'NONE', #95, #71, #74 ) ;
#285 =( NAMED_UNIT ( * ) PLANE_ANGLE_UNIT ( ) SI_UNIT ( $, .RADIAN. ) );
#286 = CARTESIAN_POINT ( 'NONE',  ( 0.1724999999999995981, 2.204364238465233357E-17, 2.500000000000000000 ) ) ;
#287 = SURFACE_STYLE_USAGE ( .BOTH. , #292 ) ;
#288 = CARTESIAN_POINT ( 'NONE',  ( 0.0000000000000000000, 0.0000000000000000000, 2.500000000000000000 ) ) ;
#289 =( NAMED_UNIT ( * ) SI_UNIT ( $, .STERADIAN. ) SOLID_ANGLE_UNIT ( ) );
#290 = DIRECTION ( 'NONE',  ( -0.0000000000000000000, -0.0000000000000000000, -1.000000000000000000 ) ) ;
#291 = VECTOR ( 'NONE', #17, 39.37007874015748143 ) ;
#292 = SURFACE_SIDE_STYLE ('',( #200 ) ) ;
#293 =( GEOMETRIC_REPRESENTATION_CONTEXT ( 3 ) GLOBAL_UNCERTAINTY_ASSIGNED_CONTEXT ( ( #184 ) ) GLOBAL_UNIT_ASSIGNED_CONTEXT ( ( #85, #285, #289 ) ) REPRESENTATION_CONTEXT ( 'NONE', 'WORKASPACE' ) );
#294 = EDGE_CURVE ( 'NONE', #207, #60, #56, .T. ) ;
#295 = EDGE_LOOP ( 'NONE', ( #364, #38, #81, #153 ) ) ;
#296 = EDGE_CURVE ( 'NONE', #127, #208, #108, .T. ) ;
#297 = VERTEX_POINT ( 'NONE', #220 ) ;
#298 = AXIS2_PLACEMENT_3D ( 'NONE', #191, #314, #164 ) ;
#299 = AXIS2_PLACEMENT_3D ( 'NONE', #324, #316, #232 ) ;
#300 = DIRECTION ( 'NONE',  ( 0.0000000000000000000, 0.0000000000000000000, 1.000000000000000000 ) ) ;
#301 = ORIENTED_EDGE ( 'NONE', *, *, #39, .T. ) ;
#302 = LENGTH_MEASURE_WITH_UNIT ( LENGTH_MEASURE( 0.02539999999999999897 ), #209 );
#303 = PRODUCT_DEFINITION ( 'UNKNOWN', '', #356, #249 ) ;
#304 = VERTEX_POINT ( 'NONE', #345 ) ;
#305 = UNCERTAINTY_MEASURE_WITH_UNIT (LENGTH_MEASURE( 1.000000000000000082E-05 ), #270, 'distance_accuracy_value', 'NONE');
#306 = CARTESIAN_POINT ( 'NONE',  ( 0.0000000000000000000, 0.0000000000000000000, 0.5999999999999999778 ) ) ;
#307 = VERTEX_POINT ( 'NONE', #199 ) ;
#308 = PRODUCT_DEFINITION_SHAPE ( 'NONE', 'NONE',  #303 ) ;
#309 = STYLED_ITEM ( 'NONE', ( #242 ), #84 ) ;
#310 = DIRECTION ( 'NONE',  ( -0.0000000000000000000, -0.0000000000000000000, -1.000000000000000000 ) ) ;
#311 = CONICAL_SURFACE ( 'NONE', #175, 0.1724999999999995981, 0.7853981633974357335 ) ;
#312 = EDGE_CURVE ( 'NONE', #304, #11, #93, .T. ) ;
#313 = DIRECTION ( 'NONE',  ( -1.000000000000000000, 0.0000000000000000000, 0.0000000000000000000 ) ) ;
#314 = DIRECTION ( 'NONE',  ( 0.0000000000000000000, 0.0000000000000000000, 1.000000000000000000 ) ) ;
#315 = CARTESIAN_POINT ( 'NONE',  ( 0.1724999999999995981, 2.112515728529179297E-17, 2.500000000000000000 ) ) ;
#316 = DIRECTION ( 'NONE',  ( -0.0000000000000000000, -0.0000000000000000000, -1.000000000000000000 ) ) ;
#317 = APPLICATION_PROTOCOL_DEFINITION ( 'draft international standard', 'automotive_design', 1998, #18 ) ;
#318 = FACE_OUTER_BOUND ( 'NONE', #49, .T. ) ;
#319 = ORIENTED_EDGE ( 'NONE', *, *, #370, .F. ) ;
#320 =( LENGTH_UNIT ( ) NAMED_UNIT ( * ) SI_UNIT ( $, .METRE. ) );
#321 = CARTESIAN_POINT ( 'NONE',  ( 0.0000000000000000000, 0.0000000000000000000, 2.500000000000000000 ) ) ;
#322 = AXIS2_PLACEMENT_3D ( 'NONE', #83, #5, #27 ) ;
#323 =( CONVERSION_BASED_UNIT ( 'INCH', #203 ) LENGTH_UNIT ( ) NAMED_UNIT ( #170 ) );
#324 = CARTESIAN_POINT ( 'NONE',  ( 0.0000000000000000000, 0.0000000000000000000, 0.1559999999999999998 ) ) ;
#325 = DIRECTION ( 'NONE',  ( 1.000000000000000000, 0.0000000000000000000, 0.0000000000000000000 ) ) ;
#326 = DIRECTION ( 'NONE',  ( 1.000000000000000000, 0.0000000000000000000, 0.0000000000000000000 ) ) ;
#327 = SURFACE_STYLE_FILL_AREA ( #129 ) ;
#328 = CARTESIAN_POINT ( 'NONE',  ( 0.0000000000000000000, 0.0000000000000000000, 2.500000000000000000 ) ) ;
#329 = ORIENTED_EDGE ( 'NONE', *, *, #15, .T. ) ;
#330 = CARTESIAN_POINT ( 'NONE',  ( 0.0000000000000000000, 0.0000000000000000000, 2.484999999999999432 ) ) ;
#331 = ORIENTED_EDGE ( 'NONE', *, *, #339, .T. ) ;
#332 = ORIENTED_EDGE ( 'NONE', *, *, #312, .T. ) ;
#333 = COLOUR_RGB ( '',0.7921568627450980005, 0.8196078431372548767, 0.9333333333333333481 ) ;
#334 = PRODUCT_RELATED_PRODUCT_CATEGORY ( 'part', '', ( #63 ) ) ;
#335 = ORIENTED_EDGE ( 'NONE', *, *, #187, .F. ) ;
#336 = DIRECTION ( 'NONE',  ( 0.0000000000000000000, 0.0000000000000000000, 1.000000000000000000 ) ) ;
#337 = LINE ( 'NONE', #152, #261 ) ;
#338 = CARTESIAN_POINT ( 'NONE',  ( 0.0000000000000000000, 0.0000000000000000000, 2.500000000000000000 ) ) ;
#339 = EDGE_CURVE ( 'NONE', #225, #346, #75, .T. ) ;
#340 = AXIS2_PLACEMENT_3D ( 'NONE', #73, #163, #159 ) ;
#341 = DIRECTION ( 'NONE',  ( -1.000000000000000000, 0.0000000000000000000, 0.0000000000000000000 ) ) ;
#342 = CARTESIAN_POINT ( 'NONE',  ( -0.09500000000000005662, 1.163414459189986360E-17, 0.5999999999999999778 ) ) ;
#343 = ADVANCED_FACE ( 'NONE', ( #89 ), #311, .T. ) ;
#344 = DIRECTION ( 'NONE',  ( -0.0000000000000000000, -0.0000000000000000000, -1.000000000000000000 ) ) ;
#345 = CARTESIAN_POINT ( 'NONE',  ( 0.1875000000000000555, 2.296212748401288034E-17, 0.1559999999999999998 ) ) ;
#346 = VERTEX_POINT ( 'NONE', #142 ) ;
#347 = AXIS2_PLACEMENT_3D ( 'NONE', #328, #300, #36 ) ;
#348 = DIRECTION ( 'NONE',  ( -0.0000000000000000000, -0.0000000000000000000, -1.000000000000000000 ) ) ;
#349 = CIRCLE ( 'NONE', #16, 0.1875000000000000278 ) ;
#350 = CARTESIAN_POINT ( 'NONE',  ( 0.1875000000000000278, 2.296212748401287726E-17, 2.500000000000000000 ) ) ;
#351 = EDGE_LOOP ( 'NONE', ( #181, #125, #369, #103 ) ) ;
#352 = DIRECTION ( 'NONE',  ( -1.000000000000000000, 0.0000000000000000000, 0.0000000000000000000 ) ) ;
#353 = FACE_OUTER_BOUND ( 'NONE', #366, .T. ) ;
#354 = EDGE_CURVE ( 'NONE', #225, #208, #255, .T. ) ;
#355 = CYLINDRICAL_SURFACE ( 'NONE', #76, 0.1875000000000000278 ) ;
#356 = PRODUCT_DEFINITION_FORMATION_WITH_SPECIFIED_SOURCE ( 'ANY', '', #63, .NOT_KNOWN. ) ;
#357 = DIRECTION ( 'NONE',  ( 0.7071067811865489050, 0.0000000000000000000, 0.7071067811865461294 ) ) ;
#358 = DIMENSIONAL_EXPONENTS ( 1.000000000000000000, 0.0000000000000000000, 0.0000000000000000000, 0.0000000000000000000, 0.0000000000000000000, 0.0000000000000000000, 0.0000000000000000000 ) ;
#359 = EDGE_CURVE ( 'NONE', #297, #225, #137, .T. ) ;
#360 = ORIENTED_EDGE ( 'NONE', *, *, #155, .T. ) ;
#361 = CIRCLE ( 'NONE', #267, 0.1875000000000000278 ) ;
#362 = VECTOR ( 'NONE', #357, 39.37007874015748143 ) ;
#363 = DIRECTION ( 'NONE',  ( 1.000000000000000000, 0.0000000000000000000, 0.0000000000000000000 ) ) ;
#364 = ORIENTED_EDGE ( 'NONE', *, *, #359, .T. ) ;
#365 = CARTESIAN_POINT ( 'NONE',  ( -0.1875000000000000555, 0.0000000000000000000, 0.1559999999999999998 ) ) ;
#366 = EDGE_LOOP ( 'NONE', ( #176, #335, #331, #238 ) ) ;
#367 = ORIENTED_EDGE ( 'NONE', *, *, #161, .F. ) ;
#368 = VECTOR ( 'NONE', #248, 39.37007874015748143 ) ;
#369 = ORIENTED_EDGE ( 'NONE', *, *, #106, .F. ) ;
#370 = EDGE_CURVE ( 'NONE', #11, #304, #231, .T. ) ;
#371 = CARTESIAN_POINT ( 'NONE',  ( -0.09500000000000001499, 0.0000000000000000000, 0.1559999999999999998 ) ) ;
#372 = UNCERTAINTY_MEASURE_WITH_UNIT (LENGTH_MEASURE( 1.000000000000000082E-05 ), #323, 'distance_accuracy_value', 'NONE');
#373 = CARTESIAN_POINT ( 'NONE',  ( -0.1875000000000000278, 0.0000000000000000000, 2.500000000000000000 ) ) ;
#374 = DIRECTION ( 'NONE',  ( -1.000000000000000000, 0.0000000000000000000, 0.0000000000000000000 ) ) ;
#375 = CARTESIAN_POINT ( 'NONE',  ( 0.1875000000000000555, 0.0000000000000000000, 0.1559999999999999998 ) ) ;
#376 = PLANE ( 'NONE',  #87 ) ;
#377 = CARTESIAN_POINT ( 'NONE',  ( 0.09500000000000004274, 1.163414459189986206E-17, 0.0000000000000000000 ) ) ;
#378 = ORIENTED_EDGE ( 'NONE', *, *, #139, .F. ) ;
#379 = AXIS2_PLACEMENT_3D ( 'NONE', #330, #239, #363 ) ;
ENDSEC;
END-ISO-10303-21;
