ISO-10303-21;
HEADER;
FILE_DESCRIPTION (( 'STEP AP214' ),
    '1' );
FILE_NAME ('Micro_BEM-312-02.STEP',
    '2021-09-03T13:10:47',
    ( '' ),
    ( '' ),
    'SwSTEP 2.0',
    'SolidWorks 2020',
    '' );
FILE_SCHEMA (( 'AUTOMOTIVE_DESIGN' ));
ENDSEC;

DATA;
#1 = UNCERTAINTY_MEASURE_WITH_UNIT (LENGTH_MEASURE( 1.000000000000000082E-05 ), #111, 'distance_accuracy_value', 'NONE');
#2 = ADVANCED_FACE ( 'NONE', ( #64 ), #132, .T. ) ;
#3 = DIRECTION ( 'NONE',  ( -0.7071067811865410224, 0.0000000000000000000, -0.7071067811865539010 ) ) ;
#4 = ORIENTED_EDGE ( 'NONE', *, *, #171, .T. ) ;
#5 = DIRECTION ( 'NONE',  ( -0.0000000000000000000, -0.0000000000000000000, -1.000000000000000000 ) ) ;
#6 = CARTESIAN_POINT ( 'NONE',  ( 0.0000000000000000000, 0.0000000000000000000, 0.0000000000000000000 ) ) ;
#7 = VERTEX_POINT ( 'NONE', #57 ) ;
#8 = ADVANCED_FACE ( 'NONE', ( #162 ), #214, .T. ) ;
#9 = DIRECTION ( 'NONE',  ( -1.224646799147353207E-16, -0.0000000000000000000, -1.000000000000000000 ) ) ;
#10 = DIRECTION ( 'NONE',  ( -1.224646799147353207E-16, -0.0000000000000000000, -1.000000000000000000 ) ) ;
#11 = EDGE_CURVE ( 'NONE', #184, #165, #289, .T. ) ;
#12 = CIRCLE ( 'NONE', #222, 0.1560937499999999756 ) ;
#13 = EDGE_CURVE ( 'NONE', #184, #123, #170, .T. ) ;
#14 = CARTESIAN_POINT ( 'NONE',  ( 0.0000000000000000000, 0.0000000000000000000, 2.500000000000000000 ) ) ;
#15 = DIRECTION ( 'NONE',  ( -0.0000000000000000000, -0.0000000000000000000, -1.000000000000000000 ) ) ;
#16 = FILL_AREA_STYLE_COLOUR ( '', #286 ) ;
#17 = LINE ( 'NONE', #79, #58 ) ;
#18 = FILL_AREA_STYLE ('',( #16 ) ) ;
#19 = CIRCLE ( 'NONE', #99, 0.1560937499999999756 ) ;
#20 = AXIS2_PLACEMENT_3D ( 'NONE', #158, #317, #243 ) ;
#21 = PRODUCT_CONTEXT ( 'NONE', #98, 'mechanical' ) ;
#22 = EDGE_CURVE ( 'NONE', #25, #280, #19, .T. ) ;
#23 = ORIENTED_EDGE ( 'NONE', *, *, #13, .T. ) ;
#24 = DIRECTION ( 'NONE',  ( 1.000000000000000000, 0.0000000000000000000, 0.0000000000000000000 ) ) ;
#25 = VERTEX_POINT ( 'NONE', #39 ) ;
#26 = EDGE_CURVE ( 'NONE', #225, #7, #150, .T. ) ;
#27 = FACE_OUTER_BOUND ( 'NONE', #203, .T. ) ;
#28 = ORIENTED_EDGE ( 'NONE', *, *, #258, .F. ) ;
#29 =( NAMED_UNIT ( * ) SI_UNIT ( $, .STERADIAN. ) SOLID_ANGLE_UNIT ( ) );
#30 = STYLED_ITEM ( 'NONE', ( #46 ), #164 ) ;
#31 = CARTESIAN_POINT ( 'NONE',  ( 0.1562500000000000000, 1.913510623667739463E-17, 2.500000000000000000 ) ) ;
#32 = CARTESIAN_POINT ( 'NONE',  ( 1.911597113044071690E-17, 0.0000000000000000000, 0.1560937499999999756 ) ) ;
#33 = FACE_OUTER_BOUND ( 'NONE', #262, .T. ) ;
#34 = ORIENTED_EDGE ( 'NONE', *, *, #11, .F. ) ;
#35 = DIRECTION ( 'NONE',  ( -1.000000000000000000, 0.0000000000000000000, 2.187666060992403218E-16 ) ) ;
#36 = ORIENTED_EDGE ( 'NONE', *, *, #171, .F. ) ;
#37 = CONICAL_SURFACE ( 'NONE', #298, 0.1412499999999994871, 0.7853981633974391752 ) ;
#38 = DIRECTION ( 'NONE',  ( -0.0000000000000000000, -0.0000000000000000000, -1.000000000000000000 ) ) ;
#39 = CARTESIAN_POINT ( 'NONE',  ( 0.1560937500000000311, 1.911597113044071690E-17, 0.1560937499999999478 ) ) ;
#40 = PRODUCT_RELATED_PRODUCT_CATEGORY ( 'part', '', ( #139 ) ) ;
#41 = CARTESIAN_POINT ( 'NONE',  ( 0.0000000000000000000, 0.0000000000000000000, 2.500000000000000000 ) ) ;
#42 = DIRECTION ( 'NONE',  ( -1.000000000000000000, 0.0000000000000000000, 0.0000000000000000000 ) ) ;
#43 = CARTESIAN_POINT ( 'NONE',  ( -0.1560937499999999756, 0.0000000000000000000, 1.911597113044071690E-17 ) ) ;
#44 = CONICAL_SURFACE ( 'NONE', #20, 0.1560937499999999756, 0.1745329251994338915 ) ;
#45 = DIRECTION ( 'NONE',  ( -1.000000000000000000, 0.0000000000000000000, 0.0000000000000000000 ) ) ;
#46 = PRESENTATION_STYLE_ASSIGNMENT (( #273 ) ) ;
#47 = LENGTH_MEASURE_WITH_UNIT ( LENGTH_MEASURE( 0.02539999999999999897 ), #245 );
#48 = CIRCLE ( 'NONE', #306, 0.1412499999999994871 ) ;
#49 =( LENGTH_UNIT ( ) NAMED_UNIT ( * ) SI_UNIT ( $, .METRE. ) );
#50 = EDGE_CURVE ( 'NONE', #123, #184, #48, .T. ) ;
#51 = EDGE_LOOP ( 'NONE', ( #34, #75, #320, #103 ) ) ;
#52 = EDGE_LOOP ( 'NONE', ( #4, #226, #119, #308 ) ) ;
#53 = DIRECTION ( 'NONE',  ( 1.224646799147353207E-16, 0.0000000000000000000, 1.000000000000000000 ) ) ;
#54 = EDGE_LOOP ( 'NONE', ( #157, #288, #282, #131 ) ) ;
#55 = ADVANCED_FACE ( 'NONE', ( #291 ), #172, .T. ) ;
#56 = DIRECTION ( 'NONE',  ( 1.000000000000000000, 0.0000000000000000000, 0.0000000000000000000 ) ) ;
#57 = CARTESIAN_POINT ( 'NONE',  ( -0.1562499999999999167, 0.0000000000000000000, 0.8138861377843152889 ) ) ;
#58 = VECTOR ( 'NONE', #259, 39.37007874015748143 ) ;
#59 = PRESENTATION_LAYER_ASSIGNMENT (  '', '', ( #30 ) ) ;
#60 = DIRECTION ( 'NONE',  ( -1.000000000000000000, 0.0000000000000000000, 0.0000000000000000000 ) ) ;
#61 = ORIENTED_EDGE ( 'NONE', *, *, #141, .F. ) ;
#62 = CARTESIAN_POINT ( 'NONE',  ( -0.1412499999999994871, 0.0000000000000000000, 2.500000000000000000 ) ) ;
#63 = ORIENTED_EDGE ( 'NONE', *, *, #218, .F. ) ;
#64 = FACE_OUTER_BOUND ( 'NONE', #191, .T. ) ;
#65 = DIRECTION ( 'NONE',  ( 1.000000000000000000, 0.0000000000000000000, 0.0000000000000000000 ) ) ;
#66 = EDGE_CURVE ( 'NONE', #266, #280, #180, .T. ) ;
#67 = CARTESIAN_POINT ( 'NONE',  ( 0.1560937500000000866, 0.0000000000000000000, 0.8129999999999999449 ) ) ;
#68 = MANIFOLD_SOLID_BREP ( 'Fillet1', #213 ) ;
#69 = SURFACE_STYLE_FILL_AREA ( #121 ) ;
#70 = PLANE ( 'NONE',  #276 ) ;
#71 = CYLINDRICAL_SURFACE ( 'NONE', #113, 0.1562500000000000000 ) ;
#72 = UNCERTAINTY_MEASURE_WITH_UNIT (LENGTH_MEASURE( 1.000000000000000082E-05 ), #294, 'distance_accuracy_value', 'NONE');
#73 = DIRECTION ( 'NONE',  ( 1.000000000000000000, 0.0000000000000000000, 0.0000000000000000000 ) ) ;
#74 = UNCERTAINTY_MEASURE_WITH_UNIT (LENGTH_MEASURE( 1.000000000000000082E-05 ), #318, 'distance_accuracy_value', 'NONE');
#75 = ORIENTED_EDGE ( 'NONE', *, *, #50, .F. ) ;
#76 = CIRCLE ( 'NONE', #117, 0.1560937499999999756 ) ;
#77 =( GEOMETRIC_REPRESENTATION_CONTEXT ( 3 ) GLOBAL_UNCERTAINTY_ASSIGNED_CONTEXT ( ( #74 ) ) GLOBAL_UNIT_ASSIGNED_CONTEXT ( ( #318, #246, #153 ) ) REPRESENTATION_CONTEXT ( 'NONE', 'WORKASPACE' ) );
#78 = DIMENSIONAL_EXPONENTS ( 1.000000000000000000, 0.0000000000000000000, 0.0000000000000000000, 0.0000000000000000000, 0.0000000000000000000, 0.0000000000000000000, 0.0000000000000000000 ) ;
#79 = CARTESIAN_POINT ( 'NONE',  ( 0.1560937500000000866, 0.0000000000000000000, 0.8129999999999999449 ) ) ;
#80 = EDGE_LOOP ( 'NONE', ( #300, #211, #257, #254 ) ) ;
#81 = EDGE_CURVE ( 'NONE', #242, #225, #17, .T. ) ;
#82 = FACE_OUTER_BOUND ( 'NONE', #80, .T. ) ;
#83 = ADVANCED_FACE ( 'NONE', ( #283 ), #197, .T. ) ;
#84 = CARTESIAN_POINT ( 'NONE',  ( 1.911597113044071690E-17, 0.0000000000000000000, 0.1560937499999999756 ) ) ;
#85 = EDGE_LOOP ( 'NONE', ( #63, #233, #91, #251 ) ) ;
#86 = EDGE_CURVE ( 'NONE', #277, #242, #142, .T. ) ;
#87 = CARTESIAN_POINT ( 'NONE',  ( 0.1562500000000000000, 1.913510623667739463E-17, 2.484999999999999432 ) ) ;
#88 = DIRECTION ( 'NONE',  ( 1.224646799147353207E-16, 0.0000000000000000000, 1.000000000000000000 ) ) ;
#89 = AXIS2_PLACEMENT_3D ( 'NONE', #32, #193, #209 ) ;
#90 = CARTESIAN_POINT ( 'NONE',  ( 1.911597113044071690E-17, 0.0000000000000000000, 0.1560937499999999756 ) ) ;
#91 = ORIENTED_EDGE ( 'NONE', *, *, #258, .T. ) ;
#92 = CARTESIAN_POINT ( 'NONE',  ( 0.0000000000000000000, 0.0000000000000000000, 2.500000000000000000 ) ) ;
#93 = DIRECTION ( 'NONE',  ( 0.0000000000000000000, 0.0000000000000000000, 1.000000000000000000 ) ) ;
#94 = MECHANICAL_DESIGN_GEOMETRIC_PRESENTATION_REPRESENTATION (  '', ( #30 ), #77 ) ;
#95 =( NAMED_UNIT ( * ) SI_UNIT ( $, .STERADIAN. ) SOLID_ANGLE_UNIT ( ) );
#96 = PRODUCT_DEFINITION_SHAPE ( 'NONE', 'NONE',  #215 ) ;
#97 = DIRECTION ( 'NONE',  ( -0.0000000000000000000, -0.0000000000000000000, -1.000000000000000000 ) ) ;
#98 = APPLICATION_CONTEXT ( 'automotive_design' ) ;
#99 = AXIS2_PLACEMENT_3D ( 'NONE', #290, #88, #264 ) ;
#100 = DIRECTION ( 'NONE',  ( 1.224646799147353207E-16, 1.000000000000000000, -0.0000000000000000000 ) ) ;
#101 = DIRECTION ( 'NONE',  ( -0.1736481776669311916, 2.126576849575783316E-17, 0.9848077530122080203 ) ) ;
#102 = AXIS2_PLACEMENT_3D ( 'NONE', #129, #166, #56 ) ;
#103 = ORIENTED_EDGE ( 'NONE', *, *, #154, .F. ) ;
#104 = DIRECTION ( 'NONE',  ( 1.000000000000000000, 0.0000000000000000000, 0.0000000000000000000 ) ) ;
#105 = VECTOR ( 'NONE', #5, 39.37007874015748143 ) ;
#106 = VECTOR ( 'NONE', #10, 39.37007874015748143 ) ;
#107 = ADVANCED_FACE ( 'NONE', ( #33 ), #37, .T. ) ;
#108 = EDGE_CURVE ( 'NONE', #165, #225, #324, .T. ) ;
#109 = DIRECTION ( 'NONE',  ( 0.0000000000000000000, 0.0000000000000000000, -1.000000000000000000 ) ) ;
#110 = CARTESIAN_POINT ( 'NONE',  ( 0.1412499999999994871, 1.729813603795630110E-17, 2.500000000000000000 ) ) ;
#111 =( CONVERSION_BASED_UNIT ( 'INCH', #133 ) LENGTH_UNIT ( ) NAMED_UNIT ( #202 ) );
#112 = ORIENTED_EDGE ( 'NONE', *, *, #50, .T. ) ;
#113 = AXIS2_PLACEMENT_3D ( 'NONE', #274, #97, #196 ) ;
#114 = DIRECTION ( 'NONE',  ( -1.000000000000000000, 0.0000000000000000000, 1.224646799147353454E-16 ) ) ;
#115 = DIRECTION ( 'NONE',  ( -1.224646799147353207E-16, -0.0000000000000000000, -1.000000000000000000 ) ) ;
#116 = DIRECTION ( 'NONE',  ( -1.224646799147353207E-16, -0.0000000000000000000, -1.000000000000000000 ) ) ;
#117 = AXIS2_PLACEMENT_3D ( 'NONE', #84, #256, #35 ) ;
#118 = LINE ( 'NONE', #267, #151 ) ;
#119 = ORIENTED_EDGE ( 'NONE', *, *, #231, .F. ) ;
#120 = SURFACE_STYLE_FILL_AREA ( #18 ) ;
#121 = FILL_AREA_STYLE ('',( #147 ) ) ;
#122 = CARTESIAN_POINT ( 'NONE',  ( 0.1560937499999999756, 1.911597113044071690E-17, -1.911597113044071690E-17 ) ) ;
#123 = VERTEX_POINT ( 'NONE', #156 ) ;
#124 = AXIS2_PLACEMENT_3D ( 'NONE', #198, #100, #296 ) ;
#125 = EDGE_CURVE ( 'NONE', #123, #284, #190, .T. ) ;
#126 = ORIENTED_EDGE ( 'NONE', *, *, #141, .T. ) ;
#127 = DIRECTION ( 'NONE',  ( 0.0000000000000000000, 0.0000000000000000000, -1.000000000000000000 ) ) ;
#128 = ORIENTED_EDGE ( 'NONE', *, *, #66, .T. ) ;
#129 = CARTESIAN_POINT ( 'NONE',  ( 1.911597113044071690E-17, 0.0000000000000000000, 0.1560937499999999756 ) ) ;
#130 = DIRECTION ( 'NONE',  ( -1.224646799147353207E-16, -0.0000000000000000000, -1.000000000000000000 ) ) ;
#131 = ORIENTED_EDGE ( 'NONE', *, *, #26, .F. ) ;
#132 = CYLINDRICAL_SURFACE ( 'NONE', #285, 0.1560937499999999756 ) ;
#133 = LENGTH_MEASURE_WITH_UNIT ( LENGTH_MEASURE( 0.02539999999999999897 ), #261 );
#134 = ORIENTED_EDGE ( 'NONE', *, *, #22, .T. ) ;
#135 = MECHANICAL_DESIGN_GEOMETRIC_PRESENTATION_REPRESENTATION (  '', ( #281 ), #263 ) ;
#136 = CIRCLE ( 'NONE', #292, 0.1562500000000000000 ) ;
#137 = ORIENTED_EDGE ( 'NONE', *, *, #231, .T. ) ;
#138 = ADVANCED_FACE ( 'NONE', ( #27 ), #278, .T. ) ;
#139 = PRODUCT ( 'Micro_BEM-312-02', 'Micro_BEM-312-02', '', ( #21 ) ) ;
#140 = DIRECTION ( 'NONE',  ( 1.000000000000000000, 0.0000000000000000000, -0.0000000000000000000 ) ) ;
#141 = EDGE_CURVE ( 'NONE', #266, #25, #12, .T. ) ;
#142 = CIRCLE ( 'NONE', #255, 0.1560937499999999756 ) ;
#143 = CIRCLE ( 'NONE', #237, 0.1562500000000000000 ) ;
#144 = EDGE_CURVE ( 'NONE', #280, #25, #76, .T. ) ;
#145 = DIRECTION ( 'NONE',  ( 1.000000000000000000, 0.0000000000000000000, 0.0000000000000000000 ) ) ;
#146 = ORIENTED_EDGE ( 'NONE', *, *, #144, .F. ) ;
#147 = FILL_AREA_STYLE_COLOUR ( '', #227 ) ;
#148 = CARTESIAN_POINT ( 'NONE',  ( -0.1560937499999998923, 1.912553868355905422E-17, 0.8129999999999999449 ) ) ;
#149 = ADVANCED_FACE ( 'NONE', ( #185 ), #235, .T. ) ;
#150 = CIRCLE ( 'NONE', #325, 0.1562500000000000000 ) ;
#151 = VECTOR ( 'NONE', #101, 39.37007874015747433 ) ;
#152 = ORIENTED_EDGE ( 'NONE', *, *, #268, .T. ) ;
#153 =( NAMED_UNIT ( * ) SI_UNIT ( $, .STERADIAN. ) SOLID_ANGLE_UNIT ( ) );
#154 = EDGE_CURVE ( 'NONE', #165, #284, #189, .T. ) ;
#155 = SHAPE_DEFINITION_REPRESENTATION ( #96, #164 ) ;
#156 = CARTESIAN_POINT ( 'NONE',  ( -0.1412499999999994871, 0.0000000000000000000, 2.500000000000000000 ) ) ;
#157 = ORIENTED_EDGE ( 'NONE', *, *, #108, .F. ) ;
#158 = CARTESIAN_POINT ( 'NONE',  ( 9.956378477067980482E-17, 0.0000000000000000000, 0.8129999999999999449 ) ) ;
#159 = CARTESIAN_POINT ( 'NONE',  ( 9.956378477067980482E-17, 0.0000000000000000000, 0.8129999999999999449 ) ) ;
#160 = EDGE_LOOP ( 'NONE', ( #181, #152, #137, #220 ) ) ;
#161 = DIRECTION ( 'NONE',  ( -1.224646799147353207E-16, -0.0000000000000000000, -1.000000000000000000 ) ) ;
#162 = FACE_OUTER_BOUND ( 'NONE', #167, .T. ) ;
#163 = CARTESIAN_POINT ( 'NONE',  ( 0.1412499999999994871, 1.821662113731684786E-17, 2.500000000000000000 ) ) ;
#164 = ADVANCED_BREP_SHAPE_REPRESENTATION ( 'Micro_BEM-312-02', ( #68, #265 ), #223 ) ;
#165 = VERTEX_POINT ( 'NONE', #87 ) ;
#166 = DIRECTION ( 'NONE',  ( 0.0000000000000000000, 1.000000000000000000, 0.0000000000000000000 ) ) ;
#167 = EDGE_LOOP ( 'NONE', ( #61, #128, #322 ) ) ;
#168 = APPLICATION_CONTEXT ( 'automotive_design' ) ;
#169 = ORIENTED_EDGE ( 'NONE', *, *, #218, .T. ) ;
#170 = CIRCLE ( 'NONE', #234, 0.1412499999999994871 ) ;
#171 = EDGE_CURVE ( 'NONE', #284, #165, #143, .T. ) ;
#172 = CYLINDRICAL_SURFACE ( 'NONE', #295, 0.1562500000000000000 ) ;
#173 = LINE ( 'NONE', #43, #240 ) ;
#174 = ADVANCED_FACE ( 'NONE', ( #187 ), #321, .T. ) ;
#175 = FACE_OUTER_BOUND ( 'NONE', #52, .T. ) ;
#176 = AXIS2_PLACEMENT_3D ( 'NONE', #204, #287, #60 ) ;
#177 = CARTESIAN_POINT ( 'NONE',  ( 2.867395669566107843E-17, 0.0000000000000000000, 0.0000000000000000000 ) ) ;
#178 = CARTESIAN_POINT ( 'NONE',  ( -0.1562500000000000000, 0.0000000000000000000, 2.484999999999999432 ) ) ;
#179 = DIRECTION ( 'NONE',  ( -1.224646799147353207E-16, -0.0000000000000000000, -1.000000000000000000 ) ) ;
#180 = CIRCLE ( 'NONE', #124, 0.1560937499999999756 ) ;
#181 = ORIENTED_EDGE ( 'NONE', *, *, #86, .F. ) ;
#182 = AXIS2_PLACEMENT_3D ( 'NONE', #159, #53, #205 ) ;
#183 =( NAMED_UNIT ( * ) PLANE_ANGLE_UNIT ( ) SI_UNIT ( $, .RADIAN. ) );
#184 = VERTEX_POINT ( 'NONE', #163 ) ;
#185 = FACE_OUTER_BOUND ( 'NONE', #85, .T. ) ;
#186 = EDGE_LOOP ( 'NONE', ( #112, #23 ) ) ;
#187 = FACE_OUTER_BOUND ( 'NONE', #51, .T. ) ;
#188 = ORIENTED_EDGE ( 'NONE', *, *, #86, .T. ) ;
#189 = CIRCLE ( 'NONE', #217, 0.1562500000000000000 ) ;
#190 = LINE ( 'NONE', #62, #311 ) ;
#191 = EDGE_LOOP ( 'NONE', ( #188, #169, #134, #28 ) ) ;
#192 = CARTESIAN_POINT ( 'NONE',  ( -0.1562500000000000000, 0.0000000000000000000, 2.500000000000000000 ) ) ;
#193 = DIRECTION ( 'NONE',  ( 0.0000000000000000000, 1.000000000000000000, 0.0000000000000000000 ) ) ;
#194 = DIRECTION ( 'NONE',  ( 1.000000000000000000, 0.0000000000000000000, 0.0000000000000000000 ) ) ;
#195 = LINE ( 'NONE', #192, #312 ) ;
#196 = DIRECTION ( 'NONE',  ( -1.000000000000000000, 0.0000000000000000000, 0.0000000000000000000 ) ) ;
#197 = CONICAL_SURFACE ( 'NONE', #182, 0.1560937499999999756, 0.1745329251994338915 ) ;
#198 = CARTESIAN_POINT ( 'NONE',  ( 1.911597113044071690E-17, 0.0000000000000000000, 0.1560937499999999756 ) ) ;
#199 = CARTESIAN_POINT ( 'NONE',  ( 0.1562500000000001110, 1.913510623667740388E-17, 0.8138861377843152889 ) ) ;
#200 = EDGE_CURVE ( 'NONE', #284, #7, #195, .T. ) ;
#201 = CIRCLE ( 'NONE', #224, 0.1560937499999999756 ) ;
#202 = DIMENSIONAL_EXPONENTS ( 1.000000000000000000, 0.0000000000000000000, 0.0000000000000000000, 0.0000000000000000000, 0.0000000000000000000, 0.0000000000000000000, 0.0000000000000000000 ) ;
#203 = EDGE_LOOP ( 'NONE', ( #260, #126, #146 ) ) ;
#204 = CARTESIAN_POINT ( 'NONE',  ( 0.0000000000000000000, 0.0000000000000000000, 2.500000000000000000 ) ) ;
#205 = DIRECTION ( 'NONE',  ( 1.000000000000000000, 0.0000000000000000000, 0.0000000000000000000 ) ) ;
#206 = PRODUCT_DEFINITION_CONTEXT ( 'detailed design', #168, 'design' ) ;
#207 = ADVANCED_FACE ( 'NONE', ( #82 ), #44, .T. ) ;
#208 = ADVANCED_FACE ( 'NONE', ( #175 ), #71, .T. ) ;
#209 = DIRECTION ( 'NONE',  ( 1.000000000000000000, 0.0000000000000000000, 0.0000000000000000000 ) ) ;
#210 = CARTESIAN_POINT ( 'NONE',  ( 9.956378477067980482E-17, 0.0000000000000000000, 0.8129999999999999449 ) ) ;
#211 = ORIENTED_EDGE ( 'NONE', *, *, #275, .F. ) ;
#212 = DIRECTION ( 'NONE',  ( 0.0000000000000000000, 0.0000000000000000000, 1.000000000000000000 ) ) ;
#213 = CLOSED_SHELL ( 'NONE', ( #8, #2, #83, #107, #208, #55, #313, #174, #207, #149, #138 ) ) ;
#214 = SPHERICAL_SURFACE ( 'NONE', #89, 0.1560937499999999756 ) ;
#215 = PRODUCT_DEFINITION ( 'UNKNOWN', '', #216, #206 ) ;
#216 = PRODUCT_DEFINITION_FORMATION_WITH_SPECIFIED_SOURCE ( 'ANY', '', #139, .NOT_KNOWN. ) ;
#217 = AXIS2_PLACEMENT_3D ( 'NONE', #299, #109, #73 ) ;
#218 = EDGE_CURVE ( 'NONE', #242, #25, #219, .T. ) ;
#219 = LINE ( 'NONE', #122, #106 ) ;
#220 = ORIENTED_EDGE ( 'NONE', *, *, #81, .F. ) ;
#221 = SURFACE_SIDE_STYLE ('',( #120 ) ) ;
#222 = AXIS2_PLACEMENT_3D ( 'NONE', #90, #228, #303 ) ;
#223 =( GEOMETRIC_REPRESENTATION_CONTEXT ( 3 ) GLOBAL_UNCERTAINTY_ASSIGNED_CONTEXT ( ( #72 ) ) GLOBAL_UNIT_ASSIGNED_CONTEXT ( ( #294, #239, #95 ) ) REPRESENTATION_CONTEXT ( 'NONE', 'WORKASPACE' ) );
#224 = AXIS2_PLACEMENT_3D ( 'NONE', #271, #269, #42 ) ;
#225 = VERTEX_POINT ( 'NONE', #199 ) ;
#226 = ORIENTED_EDGE ( 'NONE', *, *, #108, .T. ) ;
#227 = COLOUR_RGB ( '',0.7921568627450980005, 0.8196078431372548767, 0.9333333333333333481 ) ;
#228 = DIRECTION ( 'NONE',  ( 0.0000000000000000000, -1.000000000000000000, 0.0000000000000000000 ) ) ;
#229 = DIRECTION ( 'NONE',  ( -1.000000000000000000, 0.0000000000000000000, 1.224646799147353454E-16 ) ) ;
#230 = ORIENTED_EDGE ( 'NONE', *, *, #125, .F. ) ;
#231 = EDGE_CURVE ( 'NONE', #7, #225, #136, .T. ) ;
#232 = CARTESIAN_POINT ( 'NONE',  ( 0.0000000000000000000, 0.0000000000000000000, 2.500000000000000000 ) ) ;
#233 = ORIENTED_EDGE ( 'NONE', *, *, #275, .T. ) ;
#234 = AXIS2_PLACEMENT_3D ( 'NONE', #92, #212, #309 ) ;
#235 = CYLINDRICAL_SURFACE ( 'NONE', #250, 0.1560937499999999756 ) ;
#236 = CARTESIAN_POINT ( 'NONE',  ( 0.0000000000000000000, 0.0000000000000000000, 0.0000000000000000000 ) ) ;
#237 = AXIS2_PLACEMENT_3D ( 'NONE', #253, #127, #104 ) ;
#238 = CARTESIAN_POINT ( 'NONE',  ( 9.967230535079632947E-17, 0.0000000000000000000, 0.8138861377843152889 ) ) ;
#239 =( NAMED_UNIT ( * ) PLANE_ANGLE_UNIT ( ) SI_UNIT ( $, .RADIAN. ) );
#240 = VECTOR ( 'NONE', #179, 39.37007874015748143 ) ;
#241 = FACE_OUTER_BOUND ( 'NONE', #186, .T. ) ;
#242 = VERTEX_POINT ( 'NONE', #67 ) ;
#243 = DIRECTION ( 'NONE',  ( 1.000000000000000000, 0.0000000000000000000, 0.0000000000000000000 ) ) ;
#244 = SURFACE_SIDE_STYLE ('',( #69 ) ) ;
#245 =( LENGTH_UNIT ( ) NAMED_UNIT ( * ) SI_UNIT ( $, .METRE. ) );
#246 =( NAMED_UNIT ( * ) PLANE_ANGLE_UNIT ( ) SI_UNIT ( $, .RADIAN. ) );
#247 = ORIENTED_EDGE ( 'NONE', *, *, #13, .F. ) ;
#248 = CARTESIAN_POINT ( 'NONE',  ( 0.0000000000000000000, 0.0000000000000000000, 0.0000000000000000000 ) ) ;
#249 = PRESENTATION_LAYER_ASSIGNMENT (  '', '', ( #281 ) ) ;
#250 = AXIS2_PLACEMENT_3D ( 'NONE', #6, #130, #229 ) ;
#251 = ORIENTED_EDGE ( 'NONE', *, *, #144, .T. ) ;
#252 = LENGTH_MEASURE_WITH_UNIT ( LENGTH_MEASURE( 0.02539999999999999897 ), #49 );
#253 = CARTESIAN_POINT ( 'NONE',  ( 0.0000000000000000000, 0.0000000000000000000, 2.484999999999999432 ) ) ;
#254 = ORIENTED_EDGE ( 'NONE', *, *, #26, .T. ) ;
#255 = AXIS2_PLACEMENT_3D ( 'NONE', #210, #161, #307 ) ;
#256 = DIRECTION ( 'NONE',  ( 1.224646799147353207E-16, 0.0000000000000000000, 1.000000000000000000 ) ) ;
#257 = ORIENTED_EDGE ( 'NONE', *, *, #81, .T. ) ;
#258 = EDGE_CURVE ( 'NONE', #277, #280, #173, .T. ) ;
#259 = DIRECTION ( 'NONE',  ( 0.1736481776669313859, 0.0000000000000000000, 0.9848077530122077983 ) ) ;
#260 = ORIENTED_EDGE ( 'NONE', *, *, #66, .F. ) ;
#261 =( LENGTH_UNIT ( ) NAMED_UNIT ( * ) SI_UNIT ( $, .METRE. ) );
#262 = EDGE_LOOP ( 'NONE', ( #247, #279, #36, #230 ) ) ;
#263 =( GEOMETRIC_REPRESENTATION_CONTEXT ( 3 ) GLOBAL_UNCERTAINTY_ASSIGNED_CONTEXT ( ( #1 ) ) GLOBAL_UNIT_ASSIGNED_CONTEXT ( ( #111, #183, #29 ) ) REPRESENTATION_CONTEXT ( 'NONE', 'WORKASPACE' ) );
#264 = DIRECTION ( 'NONE',  ( -1.000000000000000000, 0.0000000000000000000, 2.187666060992403218E-16 ) ) ;
#265 = AXIS2_PLACEMENT_3D ( 'NONE', #248, #319, #24 ) ;
#266 = VERTEX_POINT ( 'NONE', #177 ) ;
#267 = CARTESIAN_POINT ( 'NONE',  ( -0.1560937499999998923, 1.911597113044071690E-17, 0.8129999999999999449 ) ) ;
#268 = EDGE_CURVE ( 'NONE', #277, #7, #118, .T. ) ;
#269 = DIRECTION ( 'NONE',  ( -1.224646799147353207E-16, -0.0000000000000000000, -1.000000000000000000 ) ) ;
#270 = VECTOR ( 'NONE', #305, 39.37007874015748854 ) ;
#271 = CARTESIAN_POINT ( 'NONE',  ( 9.956378477067980482E-17, 0.0000000000000000000, 0.8129999999999999449 ) ) ;
#272 = SURFACE_STYLE_USAGE ( .BOTH. , #244 ) ;
#273 = SURFACE_STYLE_USAGE ( .BOTH. , #221 ) ;
#274 = CARTESIAN_POINT ( 'NONE',  ( 0.0000000000000000000, 0.0000000000000000000, 2.500000000000000000 ) ) ;
#275 = EDGE_CURVE ( 'NONE', #242, #277, #201, .T. ) ;
#276 = AXIS2_PLACEMENT_3D ( 'NONE', #14, #314, #140 ) ;
#277 = VERTEX_POINT ( 'NONE', #148 ) ;
#278 = SPHERICAL_SURFACE ( 'NONE', #102, 0.1560937499999999756 ) ;
#279 = ORIENTED_EDGE ( 'NONE', *, *, #11, .T. ) ;
#280 = VERTEX_POINT ( 'NONE', #297 ) ;
#281 = STYLED_ITEM ( 'NONE', ( #315 ), #68 ) ;
#282 = ORIENTED_EDGE ( 'NONE', *, *, #200, .T. ) ;
#283 = FACE_OUTER_BOUND ( 'NONE', #160, .T. ) ;
#284 = VERTEX_POINT ( 'NONE', #178 ) ;
#285 = AXIS2_PLACEMENT_3D ( 'NONE', #236, #115, #114 ) ;
#286 = COLOUR_RGB ( '',0.7921568627450980005, 0.8196078431372548767, 0.9333333333333333481 ) ;
#287 = DIRECTION ( 'NONE',  ( 0.0000000000000000000, 0.0000000000000000000, -1.000000000000000000 ) ) ;
#288 = ORIENTED_EDGE ( 'NONE', *, *, #154, .T. ) ;
#289 = LINE ( 'NONE', #110, #270 ) ;
#290 = CARTESIAN_POINT ( 'NONE',  ( 1.911597113044071690E-17, 0.0000000000000000000, 0.1560937499999999756 ) ) ;
#291 = FACE_OUTER_BOUND ( 'NONE', #54, .T. ) ;
#292 = AXIS2_PLACEMENT_3D ( 'NONE', #293, #116, #145 ) ;
#293 = CARTESIAN_POINT ( 'NONE',  ( 9.967230535079632947E-17, 0.0000000000000000000, 0.8138861377843152889 ) ) ;
#294 =( CONVERSION_BASED_UNIT ( 'INCH', #47 ) LENGTH_UNIT ( ) NAMED_UNIT ( #302 ) );
#295 = AXIS2_PLACEMENT_3D ( 'NONE', #41, #15, #45 ) ;
#296 = DIRECTION ( 'NONE',  ( -1.000000000000000000, 1.224646799147353454E-16, 0.0000000000000000000 ) ) ;
#297 = CARTESIAN_POINT ( 'NONE',  ( -0.1560937499999999478, 0.0000000000000000000, 0.1560937500000000311 ) ) ;
#298 = AXIS2_PLACEMENT_3D ( 'NONE', #232, #304, #301 ) ;
#299 = CARTESIAN_POINT ( 'NONE',  ( 0.0000000000000000000, 0.0000000000000000000, 2.484999999999999432 ) ) ;
#300 = ORIENTED_EDGE ( 'NONE', *, *, #268, .F. ) ;
#301 = DIRECTION ( 'NONE',  ( -1.000000000000000000, 0.0000000000000000000, 0.0000000000000000000 ) ) ;
#302 = DIMENSIONAL_EXPONENTS ( 1.000000000000000000, 0.0000000000000000000, 0.0000000000000000000, 0.0000000000000000000, 0.0000000000000000000, 0.0000000000000000000, 0.0000000000000000000 ) ;
#303 = DIRECTION ( 'NONE',  ( 0.0000000000000000000, 0.0000000000000000000, -1.000000000000000000 ) ) ;
#304 = DIRECTION ( 'NONE',  ( 0.0000000000000000000, 0.0000000000000000000, -1.000000000000000000 ) ) ;
#305 = DIRECTION ( 'NONE',  ( 0.7071067811865410224, 8.659560562354852739E-17, -0.7071067811865539010 ) ) ;
#306 = AXIS2_PLACEMENT_3D ( 'NONE', #310, #93, #194 ) ;
#307 = DIRECTION ( 'NONE',  ( -1.000000000000000000, 0.0000000000000000000, 0.0000000000000000000 ) ) ;
#308 = ORIENTED_EDGE ( 'NONE', *, *, #200, .F. ) ;
#309 = DIRECTION ( 'NONE',  ( 1.000000000000000000, 0.0000000000000000000, 0.0000000000000000000 ) ) ;
#310 = CARTESIAN_POINT ( 'NONE',  ( 0.0000000000000000000, 0.0000000000000000000, 2.500000000000000000 ) ) ;
#311 = VECTOR ( 'NONE', #3, 39.37007874015748854 ) ;
#312 = VECTOR ( 'NONE', #38, 39.37007874015748143 ) ;
#313 = ADVANCED_FACE ( 'NONE', ( #241 ), #70, .T. ) ;
#314 = DIRECTION ( 'NONE',  ( 0.0000000000000000000, 0.0000000000000000000, 1.000000000000000000 ) ) ;
#315 = PRESENTATION_STYLE_ASSIGNMENT (( #272 ) ) ;
#316 = APPLICATION_PROTOCOL_DEFINITION ( 'draft international standard', 'automotive_design', 1998, #98 ) ;
#317 = DIRECTION ( 'NONE',  ( 1.224646799147353207E-16, 0.0000000000000000000, 1.000000000000000000 ) ) ;
#318 =( CONVERSION_BASED_UNIT ( 'INCH', #252 ) LENGTH_UNIT ( ) NAMED_UNIT ( #78 ) );
#319 = DIRECTION ( 'NONE',  ( 0.0000000000000000000, 0.0000000000000000000, 1.000000000000000000 ) ) ;
#320 = ORIENTED_EDGE ( 'NONE', *, *, #125, .T. ) ;
#321 = CONICAL_SURFACE ( 'NONE', #176, 0.1412499999999994871, 0.7853981633974391752 ) ;
#322 = ORIENTED_EDGE ( 'NONE', *, *, #22, .F. ) ;
#323 = APPLICATION_PROTOCOL_DEFINITION ( 'draft international standard', 'automotive_design', 1998, #168 ) ;
#324 = LINE ( 'NONE', #31, #105 ) ;
#325 = AXIS2_PLACEMENT_3D ( 'NONE', #238, #9, #65 ) ;
ENDSEC;
END-ISO-10303-21;
