ISO-10303-21;
HEADER;
FILE_DESCRIPTION (( 'STEP AP214' ),
    '1' );
FILE_NAME ('49256.STEP',
    '2023-06-30T21:59:17',
    ( '' ),
    ( '' ),
    'SwSTEP 2.0',
    'SolidWorks 2023',
    '' );
FILE_SCHEMA (( 'AUTOMOTIVE_DESIGN' ));
ENDSEC;

DATA;
#1 = DIRECTION ( 'NONE',  ( -0.000000000000000000, -1.000000000000000000, -0.000000000000000000 ) ) ;
#2 = ORIENTED_EDGE ( 'NONE', *, *, #294, .T. ) ;
#3 = PLANE ( 'NONE',  #335 ) ;
#4 = VERTEX_POINT ( 'NONE', #373 ) ;
#5 = DIRECTION ( 'NONE',  ( 1.000000000000000000, 0.000000000000000000, 0.000000000000000000 ) ) ;
#6 = CARTESIAN_POINT ( 'NONE',  ( 0.000000000000000000, 0.000000000000000000, 0.000000000000000000 ) ) ;
#7 =( NAMED_UNIT ( * ) SI_UNIT ( $, .STERADIAN. ) SOLID_ANGLE_UNIT ( ) );
#8 =( LENGTH_UNIT ( ) NAMED_UNIT ( * ) SI_UNIT ( $, .METRE. ) );
#9 = ADVANCED_FACE ( 'NONE', ( #258 ), #88, .F. ) ;
#10 =( NAMED_UNIT ( * ) PLANE_ANGLE_UNIT ( ) SI_UNIT ( $, .RADIAN. ) );
#11 = CIRCLE ( 'NONE', #334, 0.2499999999999999167 ) ;
#12 = APPLICATION_CONTEXT ( 'automotive_design' ) ;
#13 = COLOUR_RGB ( '',1.000000000000000000, 0.000000000000000000, 0.000000000000000000 ) ;
#14 =( CONVERSION_BASED_UNIT ( 'INCH', #30 ) LENGTH_UNIT ( ) NAMED_UNIT ( #97 ) );
#15 = DIRECTION ( 'NONE',  ( -0.000000000000000000, -1.000000000000000000, -0.000000000000000000 ) ) ;
#16 = CYLINDRICAL_SURFACE ( 'NONE', #367, 0.2499999999999999722 ) ;
#17 = EDGE_CURVE ( 'NONE', #85, #344, #26, .T. ) ;
#18 = PRESENTATION_STYLE_ASSIGNMENT (( #311 ) ) ;
#19 =( LENGTH_UNIT ( ) NAMED_UNIT ( * ) SI_UNIT ( $, .METRE. ) );
#20 = CIRCLE ( 'NONE', #201, 0.2500000000000000000 ) ;
#21 =( GEOMETRIC_REPRESENTATION_CONTEXT ( 3 ) GLOBAL_UNCERTAINTY_ASSIGNED_CONTEXT ( ( #331 ) ) GLOBAL_UNIT_ASSIGNED_CONTEXT ( ( #269, #358, #300 ) ) REPRESENTATION_CONTEXT ( 'NONE', 'WORKASPACE' ) );
#22 = FILL_AREA_STYLE ('',( #163 ) ) ;
#23 = ORIENTED_EDGE ( 'NONE', *, *, #227, .T. ) ;
#24 =( LENGTH_UNIT ( ) NAMED_UNIT ( * ) SI_UNIT ( $, .METRE. ) );
#25 = DIRECTION ( 'NONE',  ( -0.000000000000000000, -1.000000000000000000, -0.000000000000000000 ) ) ;
#26 = CIRCLE ( 'NONE', #318, 0.2499999999999995559 ) ;
#27 = DIRECTION ( 'NONE',  ( -1.229331597148918448E-16, 1.000000000000000000, -0.000000000000000000 ) ) ;
#28 = DIRECTION ( 'NONE',  ( -1.229331597148918448E-16, 1.000000000000000000, -0.000000000000000000 ) ) ;
#29 = ORIENTED_EDGE ( 'NONE', *, *, #364, .T. ) ;
#30 = LENGTH_MEASURE_WITH_UNIT ( LENGTH_MEASURE( 0.02539999999999999897 ), #315 );
#31 = DIRECTION ( 'NONE',  ( -0.000000000000000000, -1.000000000000000000, -0.000000000000000000 ) ) ;
#32 = CIRCLE ( 'NONE', #158, 0.2500000000000000000 ) ;
#33 = FILL_AREA_STYLE ('',( #174 ) ) ;
#34 = EDGE_CURVE ( 'NONE', #4, #314, #240, .T. ) ;
#35 = PRESENTATION_STYLE_ASSIGNMENT (( #66 ) ) ;
#36 = UNCERTAINTY_MEASURE_WITH_UNIT (LENGTH_MEASURE( 1.000000000000000082E-05 ), #299, 'distance_accuracy_value', 'NONE');
#37 = EDGE_CURVE ( 'NONE', #295, #339, #11, .T. ) ;
#38 = LINE ( 'NONE', #125, #62 ) ;
#39 =( GEOMETRIC_REPRESENTATION_CONTEXT ( 3 ) GLOBAL_UNCERTAINTY_ASSIGNED_CONTEXT ( ( #252 ) ) GLOBAL_UNIT_ASSIGNED_CONTEXT ( ( #326, #98, #361 ) ) REPRESENTATION_CONTEXT ( 'NONE', 'WORKASPACE' ) );
#40 = DIRECTION ( 'NONE',  ( -1.000000000000000000, 0.000000000000000000, 0.000000000000000000 ) ) ;
#41 = CIRCLE ( 'NONE', #142, 0.2500000000000000000 ) ;
#42 = CARTESIAN_POINT ( 'NONE',  ( -1.530808498934191509E-17, 0.000000000000000000, 0.000000000000000000 ) ) ;
#43 = LENGTH_MEASURE_WITH_UNIT ( LENGTH_MEASURE( 0.02539999999999999897 ), #19 );
#44 = FACE_OUTER_BOUND ( 'NONE', #234, .T. ) ;
#45 = UNCERTAINTY_MEASURE_WITH_UNIT (LENGTH_MEASURE( 1.000000000000000082E-05 ), #160, 'distance_accuracy_value', 'NONE');
#46 = DIRECTION ( 'NONE',  ( -1.000000000000000000, 0.000000000000000000, 0.000000000000000000 ) ) ;
#47 = EDGE_LOOP ( 'NONE', ( #138, #333 ) ) ;
#48 = DIRECTION ( 'NONE',  ( 0.000000000000000000, 0.000000000000000000, 1.000000000000000000 ) ) ;
#49 = CARTESIAN_POINT ( 'NONE',  ( -3.061616997868383018E-17, 0.2500000000000000000, 0.000000000000000000 ) ) ;
#50 = LENGTH_MEASURE_WITH_UNIT ( LENGTH_MEASURE( 0.02539999999999999897 ), #337 );
#51 = STYLED_ITEM ( 'NONE', ( #336 ), #197 ) ;
#52 = CARTESIAN_POINT ( 'NONE',  ( 3.529643543801575483E-16, 0.6250000000000000000, 0.000000000000000000 ) ) ;
#53 = ORIENTED_EDGE ( 'NONE', *, *, #101, .F. ) ;
#54 = ORIENTED_EDGE ( 'NONE', *, *, #34, .F. ) ;
#55 = EDGE_LOOP ( 'NONE', ( #254, #260 ) ) ;
#56 = MECHANICAL_DESIGN_GEOMETRIC_PRESENTATION_REPRESENTATION (  '', ( #222 ), #39 ) ;
#57 = DIRECTION ( 'NONE',  ( 0.000000000000000000, 0.000000000000000000, -1.000000000000000000 ) ) ;
#58 = ORIENTED_EDGE ( 'NONE', *, *, #177, .T. ) ;
#59 = DIRECTION ( 'NONE',  ( 0.000000000000000000, 0.000000000000000000, -1.000000000000000000 ) ) ;
#60 = ORIENTED_EDGE ( 'NONE', *, *, #227, .F. ) ;
#61 = SURFACE_STYLE_USAGE ( .BOTH. , #363 ) ;
#62 = VECTOR ( 'NONE', #149, 39.37007874015748143 ) ;
#63 = PRESENTATION_LAYER_ASSIGNMENT (  '', '', ( #230 ) ) ;
#64 = DIRECTION ( 'NONE',  ( 0.000000000000000000, 0.000000000000000000, 1.000000000000000000 ) ) ;
#65 = DIRECTION ( 'NONE',  ( -1.229331597148918448E-16, 1.000000000000000000, -0.000000000000000000 ) ) ;
#66 = SURFACE_STYLE_USAGE ( .BOTH. , #353 ) ;
#67 = PRESENTATION_STYLE_ASSIGNMENT (( #61 ) ) ;
#68 = DIRECTION ( 'NONE',  ( 0.000000000000000000, 0.000000000000000000, -1.000000000000000000 ) ) ;
#69 = SURFACE_SIDE_STYLE ('',( #212 ) ) ;
#70 = STYLED_ITEM ( 'NONE', ( #136 ), #214 ) ;
#71 = CYLINDRICAL_SURFACE ( 'NONE', #341, 0.2499999999999996947 ) ;
#72 = MANIFOLD_SOLID_BREP ( 'Revolve - Cutting Edge', #305 ) ;
#73 =( NAMED_UNIT ( * ) PLANE_ANGLE_UNIT ( ) SI_UNIT ( $, .RADIAN. ) );
#74 = CARTESIAN_POINT ( 'NONE',  ( 0.000000000000000000, 0.000000000000000000, 0.000000000000000000 ) ) ;
#75 = SPHERICAL_SURFACE ( 'NONE', #297, 0.2500000000000000000 ) ;
#76 = APPLICATION_PROTOCOL_DEFINITION ( 'draft international standard', 'automotive_design', 1998, #12 ) ;
#77 = PRODUCT_DEFINITION_CONTEXT ( 'detailed design', #208, 'design' ) ;
#78 = FILL_AREA_STYLE_COLOUR ( '', #263 ) ;
#79 = CYLINDRICAL_SURFACE ( 'NONE', #134, 0.2499999999999996947 ) ;
#80 = AXIS2_PLACEMENT_3D ( 'NONE', #301, #303, #40 ) ;
#81 = ORIENTED_EDGE ( 'NONE', *, *, #106, .T. ) ;
#82 = CARTESIAN_POINT ( 'NONE',  ( 3.529643543801575483E-16, 0.6250000000000000000, 0.000000000000000000 ) ) ;
#83 = EDGE_LOOP ( 'NONE', ( #199, #290 ) ) ;
#84 = ADVANCED_FACE ( 'NONE', ( #210 ), #79, .T. ) ;
#85 = VERTEX_POINT ( 'NONE', #239 ) ;
#86 = AXIS2_PLACEMENT_3D ( 'NONE', #52, #28, #117 ) ;
#87 = FACE_OUTER_BOUND ( 'NONE', #165, .T. ) ;
#88 = PLANE ( 'NONE',  #186 ) ;
#89 = ADVANCED_FACE ( 'NONE', ( #178 ), #90, .T. ) ;
#90 = CYLINDRICAL_SURFACE ( 'NONE', #271, 0.2499999999999999722 ) ;
#91 = CARTESIAN_POINT ( 'NONE',  ( 0.000000000000000000, 0.2500000000000000555, 0.000000000000000000 ) ) ;
#92 = CARTESIAN_POINT ( 'NONE',  ( 3.061616997868382402E-17, 0.000000000000000000, 0.2499999999999999722 ) ) ;
#93 =( GEOMETRIC_REPRESENTATION_CONTEXT ( 3 ) GLOBAL_UNCERTAINTY_ASSIGNED_CONTEXT ( ( #218 ) ) GLOBAL_UNIT_ASSIGNED_CONTEXT ( ( #156, #73, #251 ) ) REPRESENTATION_CONTEXT ( 'NONE', 'WORKASPACE' ) );
#94 =( NAMED_UNIT ( * ) PLANE_ANGLE_UNIT ( ) SI_UNIT ( $, .RADIAN. ) );
#95 = CARTESIAN_POINT ( 'NONE',  ( 3.061616997868383634E-17, 0.2500000000000000555, 0.2500000000000000555 ) ) ;
#96 = SURFACE_STYLE_USAGE ( .BOTH. , #69 ) ;
#97 = DIMENSIONAL_EXPONENTS ( 1.000000000000000000, 0.000000000000000000, 0.000000000000000000, 0.000000000000000000, 0.000000000000000000, 0.000000000000000000, 0.000000000000000000 ) ;
#98 =( NAMED_UNIT ( * ) PLANE_ANGLE_UNIT ( ) SI_UNIT ( $, .RADIAN. ) );
#99 = PRESENTATION_LAYER_ASSIGNMENT (  '', '', ( #222 ) ) ;
#100 = STYLED_ITEM ( 'NONE', ( #343 ), #310 ) ;
#101 = EDGE_CURVE ( 'NONE', #292, #371, #319, .T. ) ;
#102 = CARTESIAN_POINT ( 'NONE',  ( 0.000000000000000000, 0.000000000000000000, -0.2499999999999999722 ) ) ;
#103 = SHAPE_DEFINITION_REPRESENTATION ( #265, #261 ) ;
#104 =( NAMED_UNIT ( * ) PLANE_ANGLE_UNIT ( ) SI_UNIT ( $, .RADIAN. ) );
#105 = CIRCLE ( 'NONE', #86, 0.2499999999999995559 ) ;
#106 = EDGE_CURVE ( 'NONE', #339, #371, #154, .T. ) ;
#107 = DIRECTION ( 'NONE',  ( -1.229331597148918448E-16, 1.000000000000000000, -0.000000000000000000 ) ) ;
#108 = DIRECTION ( 'NONE',  ( 0.000000000000000000, 0.000000000000000000, -1.000000000000000000 ) ) ;
#109 = SURFACE_SIDE_STYLE ('',( #283 ) ) ;
#110 = EDGE_LOOP ( 'NONE', ( #194, #167, #348, #54, #145 ) ) ;
#111 = STYLED_ITEM ( 'NONE', ( #18 ), #128 ) ;
#112 = EDGE_CURVE ( 'NONE', #256, #196, #169, .T. ) ;
#113 = DIRECTION ( 'NONE',  ( 1.000000000000000000, 0.000000000000000000, -1.224646799147353207E-16 ) ) ;
#114 = EDGE_LOOP ( 'NONE', ( #262, #81, #53, #320, #317 ) ) ;
#115 = FACE_OUTER_BOUND ( 'NONE', #55, .T. ) ;
#116 = ORIENTED_EDGE ( 'NONE', *, *, #34, .T. ) ;
#117 = DIRECTION ( 'NONE',  ( -1.000000000000000000, 0.000000000000000000, 0.000000000000000000 ) ) ;
#118 = VERTEX_POINT ( 'NONE', #42 ) ;
#119 = PRESENTATION_LAYER_ASSIGNMENT (  '', '', ( #70 ) ) ;
#120 =( NAMED_UNIT ( * ) SI_UNIT ( $, .STERADIAN. ) SOLID_ANGLE_UNIT ( ) );
#121 = FILL_AREA_STYLE ('',( #241 ) ) ;
#122 =( CONVERSION_BASED_UNIT ( 'INCH', #268 ) LENGTH_UNIT ( ) NAMED_UNIT ( #153 ) );
#123 = MECHANICAL_DESIGN_GEOMETRIC_PRESENTATION_REPRESENTATION (  '', ( #51 ), #93 ) ;
#124 = DIRECTION ( 'NONE',  ( -0.000000000000000000, -1.000000000000000000, -0.000000000000000000 ) ) ;
#125 = CARTESIAN_POINT ( 'NONE',  ( 0.2499999999999998335, 2.500000000000000000, 3.061616997868379320E-17 ) ) ;
#126 = DIMENSIONAL_EXPONENTS ( 1.000000000000000000, 0.000000000000000000, 0.000000000000000000, 0.000000000000000000, 0.000000000000000000, 0.000000000000000000, 0.000000000000000000 ) ;
#127 = SURFACE_SIDE_STYLE ('',( #249 ) ) ;
#128 = ADVANCED_FACE ( 'NONE', ( #44 ), #75, .T. ) ;
#129 = AXIS2_PLACEMENT_3D ( 'NONE', #275, #280, #190 ) ;
#130 = FILL_AREA_STYLE_COLOUR ( '', #13 ) ;
#131 =( NAMED_UNIT ( * ) SI_UNIT ( $, .STERADIAN. ) SOLID_ANGLE_UNIT ( ) );
#132 = SURFACE_STYLE_USAGE ( .BOTH. , #245 ) ;
#133 =( NAMED_UNIT ( * ) SI_UNIT ( $, .STERADIAN. ) SOLID_ANGLE_UNIT ( ) );
#134 = AXIS2_PLACEMENT_3D ( 'NONE', #325, #65, #354 ) ;
#135 = AXIS2_PLACEMENT_3D ( 'NONE', #266, #124, #68 ) ;
#136 = PRESENTATION_STYLE_ASSIGNMENT (( #345 ) ) ;
#137 = FILL_AREA_STYLE ('',( #78 ) ) ;
#138 = ORIENTED_EDGE ( 'NONE', *, *, #37, .F. ) ;
#139 = EDGE_CURVE ( 'NONE', #339, #295, #217, .T. ) ;
#140 = LENGTH_MEASURE_WITH_UNIT ( LENGTH_MEASURE( 0.02539999999999999897 ), #24 );
#141 = ORIENTED_EDGE ( 'NONE', *, *, #364, .F. ) ;
#142 = AXIS2_PLACEMENT_3D ( 'NONE', #232, #1, #192 ) ;
#143 = SURFACE_STYLE_FILL_AREA ( #137 ) ;
#144 = DIRECTION ( 'NONE',  ( 0.000000000000000000, 0.000000000000000000, -1.000000000000000000 ) ) ;
#145 = ORIENTED_EDGE ( 'NONE', *, *, #246, .F. ) ;
#146 = EDGE_LOOP ( 'NONE', ( #2, #29, #309, #189 ) ) ;
#147 = CIRCLE ( 'NONE', #175, 0.2499999999999998057 ) ;
#148 = DIRECTION ( 'NONE',  ( -0.000000000000000000, -1.000000000000000000, -0.000000000000000000 ) ) ;
#149 = DIRECTION ( 'NONE',  ( -1.229331597148918448E-16, 1.000000000000000000, -0.000000000000000000 ) ) ;
#150 =( GEOMETRIC_REPRESENTATION_CONTEXT ( 3 ) GLOBAL_UNCERTAINTY_ASSIGNED_CONTEXT ( ( #36 ) ) GLOBAL_UNIT_ASSIGNED_CONTEXT ( ( #299, #179, #120 ) ) REPRESENTATION_CONTEXT ( 'NONE', 'WORKASPACE' ) );
#151 = COLOUR_RGB ( '',0.7921568627450980005, 0.8196078431372548767, 0.9333333333333333481 ) ;
#152 = CARTESIAN_POINT ( 'NONE',  ( 0.000000000000000000, 0.6250000000000000000, 0.000000000000000000 ) ) ;
#153 = DIMENSIONAL_EXPONENTS ( 1.000000000000000000, 0.000000000000000000, 0.000000000000000000, 0.000000000000000000, 0.000000000000000000, 0.000000000000000000, 0.000000000000000000 ) ;
#154 = LINE ( 'NONE', #92, #277 ) ;
#155 = EDGE_CURVE ( 'NONE', #295, #314, #188, .T. ) ;
#156 =( CONVERSION_BASED_UNIT ( 'INCH', #43 ) LENGTH_UNIT ( ) NAMED_UNIT ( #279 ) );
#157 = APPLICATION_PROTOCOL_DEFINITION ( 'draft international standard', 'automotive_design', 1998, #208 ) ;
#158 = AXIS2_PLACEMENT_3D ( 'NONE', #247, #225, #46 ) ;
#159 = CARTESIAN_POINT ( 'NONE',  ( 0.2499999999999999167, 2.500000000000000000, 3.061616997868379936E-17 ) ) ;
#160 =( CONVERSION_BASED_UNIT ( 'INCH', #50 ) LENGTH_UNIT ( ) NAMED_UNIT ( #328 ) );
#161 = UNCERTAINTY_MEASURE_WITH_UNIT (LENGTH_MEASURE( 1.000000000000000082E-05 ), #200, 'distance_accuracy_value', 'NONE');
#162 = FILL_AREA_STYLE ('',( #130 ) ) ;
#163 = FILL_AREA_STYLE_COLOUR ( '', #203 ) ;
#164 = PRESENTATION_LAYER_ASSIGNMENT (  '', '', ( #111 ) ) ;
#165 = EDGE_LOOP ( 'NONE', ( #60, #116, #316, #58 ) ) ;
#166 = ADVANCED_FACE ( 'NONE', ( #219 ), #71, .T. ) ;
#167 = ORIENTED_EDGE ( 'NONE', *, *, #139, .T. ) ;
#168 = CARTESIAN_POINT ( 'NONE',  ( 3.529643543801575483E-16, 0.6250000000000000000, 0.000000000000000000 ) ) ;
#169 = CIRCLE ( 'NONE', #80, 0.2499999999999998057 ) ;
#170 = CARTESIAN_POINT ( 'NONE',  ( -0.2499999999999996669, 2.500000000000000000, 0.000000000000000000 ) ) ;
#171 = ORIENTED_EDGE ( 'NONE', *, *, #17, .T. ) ;
#172 = CARTESIAN_POINT ( 'NONE',  ( 0.000000000000000000, 0.6250000000000000000, 0.000000000000000000 ) ) ;
#173 = PRODUCT ( '49256', '49256', '', ( #274 ) ) ;
#174 = FILL_AREA_STYLE_COLOUR ( '', #193 ) ;
#175 = AXIS2_PLACEMENT_3D ( 'NONE', #224, #107, #308 ) ;
#176 = SURFACE_STYLE_FILL_AREA ( #213 ) ;
#177 = EDGE_CURVE ( 'NONE', #292, #118, #32, .T. ) ;
#178 = FACE_OUTER_BOUND ( 'NONE', #110, .T. ) ;
#179 =( NAMED_UNIT ( * ) PLANE_ANGLE_UNIT ( ) SI_UNIT ( $, .RADIAN. ) );
#180 = DIRECTION ( 'NONE',  ( -0.000000000000000000, -1.000000000000000000, -0.000000000000000000 ) ) ;
#181 = PRODUCT_DEFINITION_FORMATION_WITH_SPECIFIED_SOURCE ( 'ANY', '', #173, .NOT_KNOWN. ) ;
#182 = MECHANICAL_DESIGN_GEOMETRIC_PRESENTATION_REPRESENTATION (  '', ( #349 ), #21 ) ;
#183 = DIRECTION ( 'NONE',  ( 0.000000000000000000, 0.000000000000000000, -1.000000000000000000 ) ) ;
#184 = FILL_AREA_STYLE_COLOUR ( '', #223 ) ;
#185 =( GEOMETRIC_REPRESENTATION_CONTEXT ( 3 ) GLOBAL_UNCERTAINTY_ASSIGNED_CONTEXT ( ( #221 ) ) GLOBAL_UNIT_ASSIGNED_CONTEXT ( ( #122, #10, #131 ) ) REPRESENTATION_CONTEXT ( 'NONE', 'WORKASPACE' ) );
#186 = AXIS2_PLACEMENT_3D ( 'NONE', #235, #205, #228 ) ;
#187 = VECTOR ( 'NONE', #233, 39.37007874015748143 ) ;
#188 = LINE ( 'NONE', #102, #255 ) ;
#189 = ORIENTED_EDGE ( 'NONE', *, *, #276, .F. ) ;
#190 = DIRECTION ( 'NONE',  ( 0.000000000000000000, 0.000000000000000000, -1.000000000000000000 ) ) ;
#191 = EDGE_CURVE ( 'NONE', #196, #256, #147, .T. ) ;
#192 = DIRECTION ( 'NONE',  ( 0.000000000000000000, 0.000000000000000000, -1.000000000000000000 ) ) ;
#193 = COLOUR_RGB ( '',1.000000000000000000, 0.000000000000000000, 0.000000000000000000 ) ;
#194 = ORIENTED_EDGE ( 'NONE', *, *, #106, .F. ) ;
#195 =( GEOMETRIC_REPRESENTATION_CONTEXT ( 3 ) GLOBAL_UNCERTAINTY_ASSIGNED_CONTEXT ( ( #243 ) ) GLOBAL_UNIT_ASSIGNED_CONTEXT ( ( #14, #94, #7 ) ) REPRESENTATION_CONTEXT ( 'NONE', 'WORKASPACE' ) );
#196 = VERTEX_POINT ( 'NONE', #159 ) ;
#197 = MANIFOLD_SOLID_BREP ( 'Revolve - Tool Body (Straight Shanked)', #236 ) ;
#198 = DIRECTION ( 'NONE',  ( -1.000000000000000000, -1.229331597148918448E-16, 0.000000000000000000 ) ) ;
#199 = ORIENTED_EDGE ( 'NONE', *, *, #112, .T. ) ;
#200 =( CONVERSION_BASED_UNIT ( 'INCH', #140 ) LENGTH_UNIT ( ) NAMED_UNIT ( #362 ) );
#201 = AXIS2_PLACEMENT_3D ( 'NONE', #91, #242, #59 ) ;
#202 = ORIENTED_EDGE ( 'NONE', *, *, #101, .T. ) ;
#203 = COLOUR_RGB ( '',1.000000000000000000, 0.000000000000000000, 0.000000000000000000 ) ;
#204 = CARTESIAN_POINT ( 'NONE',  ( 0.000000000000000000, 0.2500000000000000555, -0.2500000000000000000 ) ) ;
#205 = DIRECTION ( 'NONE',  ( 1.229331597148918448E-16, -1.000000000000000000, 0.000000000000000000 ) ) ;
#206 = SPHERICAL_SURFACE ( 'NONE', #365, 0.2500000000000000000 ) ;
#207 = FILL_AREA_STYLE_COLOUR ( '', #250 ) ;
#208 = APPLICATION_CONTEXT ( 'automotive_design' ) ;
#209 = PRODUCT_RELATED_PRODUCT_CATEGORY ( 'part', '', ( #173 ) ) ;
#210 = FACE_OUTER_BOUND ( 'NONE', #146, .T. ) ;
#211 = AXIS2_PLACEMENT_3D ( 'NONE', #253, #338, #113 ) ;
#212 = SURFACE_STYLE_FILL_AREA ( #121 ) ;
#213 = FILL_AREA_STYLE ('',( #207 ) ) ;
#214 = ADVANCED_FACE ( 'NONE', ( #259 ), #16, .T. ) ;
#215 = CARTESIAN_POINT ( 'NONE',  ( -0.2499999999999992228, 0.6250000000000000000, 0.000000000000000000 ) ) ;
#216 = PRESENTATION_LAYER_ASSIGNMENT (  '', '', ( #349 ) ) ;
#217 = CIRCLE ( 'NONE', #129, 0.2499999999999999167 ) ;
#218 = UNCERTAINTY_MEASURE_WITH_UNIT (LENGTH_MEASURE( 1.000000000000000082E-05 ), #156, 'distance_accuracy_value', 'NONE');
#219 = FACE_OUTER_BOUND ( 'NONE', #352, .T. ) ;
#220 = DIRECTION ( 'NONE',  ( 1.000000000000000000, 0.000000000000000000, 0.000000000000000000 ) ) ;
#221 = UNCERTAINTY_MEASURE_WITH_UNIT (LENGTH_MEASURE( 1.000000000000000082E-05 ), #122, 'distance_accuracy_value', 'NONE');
#222 = STYLED_ITEM ( 'NONE', ( #356 ), #72 ) ;
#223 = COLOUR_RGB ( '',0.7921568627450980005, 0.8196078431372548767, 0.9333333333333333481 ) ;
#224 = CARTESIAN_POINT ( 'NONE',  ( 1.224646799147353207E-16, 2.500000000000000000, 0.000000000000000000 ) ) ;
#225 = DIRECTION ( 'NONE',  ( 0.000000000000000000, 0.000000000000000000, -1.000000000000000000 ) ) ;
#226 = ORIENTED_EDGE ( 'NONE', *, *, #246, .T. ) ;
#227 = EDGE_CURVE ( 'NONE', #4, #118, #306, .T. ) ;
#228 = DIRECTION ( 'NONE',  ( 1.000000000000000000, 1.229331597148918448E-16, 0.000000000000000000 ) ) ;
#229 = SURFACE_STYLE_USAGE ( .BOTH. , #109 ) ;
#230 = STYLED_ITEM ( 'NONE', ( #35 ), #330 ) ;
#231 = ORIENTED_EDGE ( 'NONE', *, *, #191, .F. ) ;
#232 = CARTESIAN_POINT ( 'NONE',  ( 0.000000000000000000, 0.2500000000000000555, 0.000000000000000000 ) ) ;
#233 = DIRECTION ( 'NONE',  ( -1.229331597148918448E-16, 1.000000000000000000, -0.000000000000000000 ) ) ;
#234 = EDGE_LOOP ( 'NONE', ( #226, #23, #284, #202 ) ) ;
#235 = CARTESIAN_POINT ( 'NONE',  ( 0.2499999999999999167, 2.500000000000000000, 0.000000000000000000 ) ) ;
#236 = CLOSED_SHELL ( 'NONE', ( #84, #264, #166, #9 ) ) ;
#237 =( GEOMETRIC_REPRESENTATION_CONTEXT ( 3 ) GLOBAL_UNCERTAINTY_ASSIGNED_CONTEXT ( ( #45 ) ) GLOBAL_UNIT_ASSIGNED_CONTEXT ( ( #160, #104, #133 ) ) REPRESENTATION_CONTEXT ( 'NONE', 'WORKASPACE' ) );
#238 = DIRECTION ( 'NONE',  ( 0.000000000000000000, 1.000000000000000000, 0.000000000000000000 ) ) ;
#239 = CARTESIAN_POINT ( 'NONE',  ( 0.2499999999999999167, 0.6250000000000000000, 3.061616997868379936E-17 ) ) ;
#240 = CIRCLE ( 'NONE', #287, 0.2500000000000000000 ) ;
#241 = FILL_AREA_STYLE_COLOUR ( '', #151 ) ;
#242 = DIRECTION ( 'NONE',  ( -0.000000000000000000, -1.000000000000000000, -0.000000000000000000 ) ) ;
#243 = UNCERTAINTY_MEASURE_WITH_UNIT (LENGTH_MEASURE( 1.000000000000000082E-05 ), #14, 'distance_accuracy_value', 'NONE');
#244 = MECHANICAL_DESIGN_GEOMETRIC_PRESENTATION_REPRESENTATION (  '', ( #111 ), #237 ) ;
#245 = SURFACE_SIDE_STYLE ('',( #312 ) ) ;
#246 = EDGE_CURVE ( 'NONE', #371, #4, #41, .T. ) ;
#247 = CARTESIAN_POINT ( 'NONE',  ( -3.061616997868383018E-17, 0.2500000000000000000, 0.000000000000000000 ) ) ;
#248 = DIMENSIONAL_EXPONENTS ( 1.000000000000000000, 0.000000000000000000, 0.000000000000000000, 0.000000000000000000, 0.000000000000000000, 0.000000000000000000, 0.000000000000000000 ) ;
#249 = SURFACE_STYLE_FILL_AREA ( #162 ) ;
#250 = COLOUR_RGB ( '',1.000000000000000000, 0.000000000000000000, 0.000000000000000000 ) ;
#251 =( NAMED_UNIT ( * ) SI_UNIT ( $, .STERADIAN. ) SOLID_ANGLE_UNIT ( ) );
#252 = UNCERTAINTY_MEASURE_WITH_UNIT (LENGTH_MEASURE( 1.000000000000000082E-05 ), #326, 'distance_accuracy_value', 'NONE');
#253 = CARTESIAN_POINT ( 'NONE',  ( -3.061616997868383018E-17, 0.2500000000000000000, 0.000000000000000000 ) ) ;
#254 = ORIENTED_EDGE ( 'NONE', *, *, #294, .F. ) ;
#255 = VECTOR ( 'NONE', #15, 39.37007874015748143 ) ;
#256 = VERTEX_POINT ( 'NONE', #170 ) ;
#257 = DIRECTION ( 'NONE',  ( -0.000000000000000000, -1.000000000000000000, -0.000000000000000000 ) ) ;
#258 = FACE_OUTER_BOUND ( 'NONE', #83, .T. ) ;
#259 = FACE_OUTER_BOUND ( 'NONE', #114, .T. ) ;
#260 = ORIENTED_EDGE ( 'NONE', *, *, #17, .F. ) ;
#261 = ADVANCED_BREP_SHAPE_REPRESENTATION ( '49256', ( #72, #197, #286 ), #185 ) ;
#262 = ORIENTED_EDGE ( 'NONE', *, *, #37, .T. ) ;
#263 = COLOUR_RGB ( '',1.000000000000000000, 0.000000000000000000, 0.000000000000000000 ) ;
#264 = ADVANCED_FACE ( 'NONE', ( #115 ), #3, .F. ) ;
#265 = PRODUCT_DEFINITION_SHAPE ( 'NONE', 'NONE',  #342 ) ;
#266 = CARTESIAN_POINT ( 'NONE',  ( 0.000000000000000000, 0.2500000000000000555, 0.000000000000000000 ) ) ;
#267 = LENGTH_MEASURE_WITH_UNIT ( LENGTH_MEASURE( 0.02539999999999999897 ), #8 );
#268 = LENGTH_MEASURE_WITH_UNIT ( LENGTH_MEASURE( 0.02539999999999999897 ), #324 );
#269 =( CONVERSION_BASED_UNIT ( 'INCH', #267 ) LENGTH_UNIT ( ) NAMED_UNIT ( #248 ) );
#270 = MECHANICAL_DESIGN_GEOMETRIC_PRESENTATION_REPRESENTATION (  '', ( #230 ), #150 ) ;
#271 = AXIS2_PLACEMENT_3D ( 'NONE', #6, #148, #183 ) ;
#272 = PLANE ( 'NONE',  #340 ) ;
#273 = LENGTH_MEASURE_WITH_UNIT ( LENGTH_MEASURE( 0.02539999999999999897 ), #296 );
#274 = PRODUCT_CONTEXT ( 'NONE', #12, 'mechanical' ) ;
#275 = CARTESIAN_POINT ( 'NONE',  ( 0.000000000000000000, 0.6250000000000000000, 0.000000000000000000 ) ) ;
#276 = EDGE_CURVE ( 'NONE', #344, #256, #321, .T. ) ;
#277 = VECTOR ( 'NONE', #180, 39.37007874015748143 ) ;
#278 = FILL_AREA_STYLE ('',( #184 ) ) ;
#279 = DIMENSIONAL_EXPONENTS ( 1.000000000000000000, 0.000000000000000000, 0.000000000000000000, 0.000000000000000000, 0.000000000000000000, 0.000000000000000000, 0.000000000000000000 ) ;
#280 = DIRECTION ( 'NONE',  ( -0.000000000000000000, -1.000000000000000000, -0.000000000000000000 ) ) ;
#281 = MECHANICAL_DESIGN_GEOMETRIC_PRESENTATION_REPRESENTATION (  '', ( #70 ), #329 ) ;
#282 =( NAMED_UNIT ( * ) PLANE_ANGLE_UNIT ( ) SI_UNIT ( $, .RADIAN. ) );
#283 = SURFACE_STYLE_FILL_AREA ( #22 ) ;
#284 = ORIENTED_EDGE ( 'NONE', *, *, #177, .F. ) ;
#285 = CARTESIAN_POINT ( 'NONE',  ( 0.000000000000000000, 0.2500000000000000555, 0.000000000000000000 ) ) ;
#286 = AXIS2_PLACEMENT_3D ( 'NONE', #74, #48, #307 ) ;
#287 = AXIS2_PLACEMENT_3D ( 'NONE', #285, #25, #144 ) ;
#288 =( NAMED_UNIT ( * ) SI_UNIT ( $, .STERADIAN. ) SOLID_ANGLE_UNIT ( ) );
#289 = PRESENTATION_LAYER_ASSIGNMENT (  '', '', ( #51 ) ) ;
#290 = ORIENTED_EDGE ( 'NONE', *, *, #191, .T. ) ;
#291 = DIRECTION ( 'NONE',  ( -1.229331597148918448E-16, 1.000000000000000000, 0.000000000000000000 ) ) ;
#292 = VERTEX_POINT ( 'NONE', #347 ) ;
#293 = FACE_OUTER_BOUND ( 'NONE', #47, .T. ) ;
#294 = EDGE_CURVE ( 'NONE', #344, #85, #105, .T. ) ;
#295 = VERTEX_POINT ( 'NONE', #350 ) ;
#296 =( LENGTH_UNIT ( ) NAMED_UNIT ( * ) SI_UNIT ( $, .METRE. ) );
#297 = AXIS2_PLACEMENT_3D ( 'NONE', #49, #366, #220 ) ;
#298 = LENGTH_MEASURE_WITH_UNIT ( LENGTH_MEASURE( 0.02539999999999999897 ), #357 );
#299 =( CONVERSION_BASED_UNIT ( 'INCH', #298 ) LENGTH_UNIT ( ) NAMED_UNIT ( #126 ) );
#300 =( NAMED_UNIT ( * ) SI_UNIT ( $, .STERADIAN. ) SOLID_ANGLE_UNIT ( ) );
#301 = CARTESIAN_POINT ( 'NONE',  ( 1.224646799147353207E-16, 2.500000000000000000, 0.000000000000000000 ) ) ;
#302 = PRESENTATION_LAYER_ASSIGNMENT (  '', '', ( #100 ) ) ;
#303 = DIRECTION ( 'NONE',  ( -1.229331597148918448E-16, 1.000000000000000000, -0.000000000000000000 ) ) ;
#304 = DIRECTION ( 'NONE',  ( -1.229331597148918448E-16, 1.000000000000000000, -0.000000000000000000 ) ) ;
#305 = CLOSED_SHELL ( 'NONE', ( #128, #214, #330, #89, #310 ) ) ;
#306 = CIRCLE ( 'NONE', #211, 0.2500000000000000000 ) ;
#307 = DIRECTION ( 'NONE',  ( 1.000000000000000000, 0.000000000000000000, 0.000000000000000000 ) ) ;
#308 = DIRECTION ( 'NONE',  ( -1.000000000000000000, 0.000000000000000000, 0.000000000000000000 ) ) ;
#309 = ORIENTED_EDGE ( 'NONE', *, *, #112, .F. ) ;
#310 = ADVANCED_FACE ( 'NONE', ( #87 ), #206, .T. ) ;
#311 = SURFACE_STYLE_USAGE ( .BOTH. , #127 ) ;
#312 = SURFACE_STYLE_FILL_AREA ( #278 ) ;
#313 = CARTESIAN_POINT ( 'NONE',  ( -0.2499999999999995559, 2.500000000000000000, 0.000000000000000000 ) ) ;
#314 = VERTEX_POINT ( 'NONE', #204 ) ;
#315 =( LENGTH_UNIT ( ) NAMED_UNIT ( * ) SI_UNIT ( $, .METRE. ) );
#316 = ORIENTED_EDGE ( 'NONE', *, *, #369, .T. ) ;
#317 = ORIENTED_EDGE ( 'NONE', *, *, #155, .F. ) ;
#318 = AXIS2_PLACEMENT_3D ( 'NONE', #168, #27, #322 ) ;
#319 = CIRCLE ( 'NONE', #135, 0.2500000000000000000 ) ;
#320 = ORIENTED_EDGE ( 'NONE', *, *, #369, .F. ) ;
#321 = LINE ( 'NONE', #313, #187 ) ;
#322 = DIRECTION ( 'NONE',  ( -1.000000000000000000, 0.000000000000000000, 0.000000000000000000 ) ) ;
#323 = CARTESIAN_POINT ( 'NONE',  ( -3.061616997868383018E-17, 0.2500000000000000000, 0.000000000000000000 ) ) ;
#324 =( LENGTH_UNIT ( ) NAMED_UNIT ( * ) SI_UNIT ( $, .METRE. ) );
#325 = CARTESIAN_POINT ( 'NONE',  ( 1.224646799147353207E-16, 2.500000000000000000, 0.000000000000000000 ) ) ;
#326 =( CONVERSION_BASED_UNIT ( 'INCH', #273 ) LENGTH_UNIT ( ) NAMED_UNIT ( #359 ) );
#327 = SURFACE_STYLE_FILL_AREA ( #33 ) ;
#328 = DIMENSIONAL_EXPONENTS ( 1.000000000000000000, 0.000000000000000000, 0.000000000000000000, 0.000000000000000000, 0.000000000000000000, 0.000000000000000000, 0.000000000000000000 ) ;
#329 =( GEOMETRIC_REPRESENTATION_CONTEXT ( 3 ) GLOBAL_UNCERTAINTY_ASSIGNED_CONTEXT ( ( #161 ) ) GLOBAL_UNIT_ASSIGNED_CONTEXT ( ( #200, #282, #288 ) ) REPRESENTATION_CONTEXT ( 'NONE', 'WORKASPACE' ) );
#330 = ADVANCED_FACE ( 'NONE', ( #293 ), #272, .T. ) ;
#331 = UNCERTAINTY_MEASURE_WITH_UNIT (LENGTH_MEASURE( 1.000000000000000082E-05 ), #269, 'distance_accuracy_value', 'NONE');
#332 = DIRECTION ( 'NONE',  ( -1.000000000000000000, 0.000000000000000000, 0.000000000000000000 ) ) ;
#333 = ORIENTED_EDGE ( 'NONE', *, *, #139, .F. ) ;
#334 = AXIS2_PLACEMENT_3D ( 'NONE', #172, #31, #108 ) ;
#335 = AXIS2_PLACEMENT_3D ( 'NONE', #82, #291, #198 ) ;
#336 = PRESENTATION_STYLE_ASSIGNMENT (( #132 ) ) ;
#337 =( LENGTH_UNIT ( ) NAMED_UNIT ( * ) SI_UNIT ( $, .METRE. ) );
#338 = DIRECTION ( 'NONE',  ( 1.224646799147353207E-16, -0.000000000000000000, 1.000000000000000000 ) ) ;
#339 = VERTEX_POINT ( 'NONE', #355 ) ;
#340 = AXIS2_PLACEMENT_3D ( 'NONE', #152, #238, #360 ) ;
#341 = AXIS2_PLACEMENT_3D ( 'NONE', #368, #304, #332 ) ;
#342 = PRODUCT_DEFINITION ( 'UNKNOWN', '', #181, #77 ) ;
#343 = PRESENTATION_STYLE_ASSIGNMENT (( #229 ) ) ;
#344 = VERTEX_POINT ( 'NONE', #215 ) ;
#345 = SURFACE_STYLE_USAGE ( .BOTH. , #370 ) ;
#346 = ORIENTED_EDGE ( 'NONE', *, *, #276, .T. ) ;
#347 = CARTESIAN_POINT ( 'NONE',  ( 0.2500000000000000000, 0.2500000000000000555, 0.000000000000000000 ) ) ;
#348 = ORIENTED_EDGE ( 'NONE', *, *, #155, .T. ) ;
#349 = STYLED_ITEM ( 'NONE', ( #67 ), #89 ) ;
#350 = CARTESIAN_POINT ( 'NONE',  ( 0.000000000000000000, 0.6250000000000000000, -0.2499999999999999167 ) ) ;
#351 = MECHANICAL_DESIGN_GEOMETRIC_PRESENTATION_REPRESENTATION (  '', ( #100 ), #195 ) ;
#352 = EDGE_LOOP ( 'NONE', ( #141, #171, #346, #231 ) ) ;
#353 = SURFACE_SIDE_STYLE ('',( #327 ) ) ;
#354 = DIRECTION ( 'NONE',  ( -1.000000000000000000, 0.000000000000000000, 0.000000000000000000 ) ) ;
#355 = CARTESIAN_POINT ( 'NONE',  ( 3.061616997868382402E-17, 0.6250000000000000000, 0.2499999999999999167 ) ) ;
#356 = PRESENTATION_STYLE_ASSIGNMENT (( #96 ) ) ;
#357 =( LENGTH_UNIT ( ) NAMED_UNIT ( * ) SI_UNIT ( $, .METRE. ) );
#358 =( NAMED_UNIT ( * ) PLANE_ANGLE_UNIT ( ) SI_UNIT ( $, .RADIAN. ) );
#359 = DIMENSIONAL_EXPONENTS ( 1.000000000000000000, 0.000000000000000000, 0.000000000000000000, 0.000000000000000000, 0.000000000000000000, 0.000000000000000000, 0.000000000000000000 ) ;
#360 = DIRECTION ( 'NONE',  ( 0.000000000000000000, -0.000000000000000000, 1.000000000000000000 ) ) ;
#361 =( NAMED_UNIT ( * ) SI_UNIT ( $, .STERADIAN. ) SOLID_ANGLE_UNIT ( ) );
#362 = DIMENSIONAL_EXPONENTS ( 1.000000000000000000, 0.000000000000000000, 0.000000000000000000, 0.000000000000000000, 0.000000000000000000, 0.000000000000000000, 0.000000000000000000 ) ;
#363 = SURFACE_SIDE_STYLE ('',( #176 ) ) ;
#364 = EDGE_CURVE ( 'NONE', #85, #196, #38, .T. ) ;
#365 = AXIS2_PLACEMENT_3D ( 'NONE', #323, #64, #5 ) ;
#366 = DIRECTION ( 'NONE',  ( 0.000000000000000000, 0.000000000000000000, 1.000000000000000000 ) ) ;
#367 = AXIS2_PLACEMENT_3D ( 'NONE', #372, #257, #57 ) ;
#368 = CARTESIAN_POINT ( 'NONE',  ( 1.224646799147353207E-16, 2.500000000000000000, 0.000000000000000000 ) ) ;
#369 = EDGE_CURVE ( 'NONE', #314, #292, #20, .T. ) ;
#370 = SURFACE_SIDE_STYLE ('',( #143 ) ) ;
#371 = VERTEX_POINT ( 'NONE', #95 ) ;
#372 = CARTESIAN_POINT ( 'NONE',  ( 0.000000000000000000, 0.000000000000000000, 0.000000000000000000 ) ) ;
#373 = CARTESIAN_POINT ( 'NONE',  ( -0.2500000000000000000, 0.2500000000000000555, 3.061616997868382402E-17 ) ) ;
ENDSEC;
END-ISO-10303-21;
