ISO-10303-21;
HEADER;
FILE_DESCRIPTION (( 'STEP AP214' ),
    '1' );
FILE_NAME ('Micro_SBM-375-4X.STEP',
    '2021-09-02T17:02:25',
    ( '' ),
    ( '' ),
    'SwSTEP 2.0',
    'SolidWorks 2020',
    '' );
FILE_SCHEMA (( 'AUTOMOTIVE_DESIGN' ));
ENDSEC;

DATA;
#1 = CARTESIAN_POINT ( 'NONE',  ( 0.0000000000000000000, 0.0000000000000000000, 0.3000000000000000999 ) ) ;
#2 = EDGE_CURVE ( 'NONE', #153, #280, #66, .T. ) ;
#3 = CARTESIAN_POINT ( 'NONE',  ( -0.1875000000000000278, 0.0000000000000000000, 3.984999999999998987 ) ) ;
#4 = CARTESIAN_POINT ( 'NONE',  ( 0.0000000000000000000, 0.0000000000000000000, 0.0000000000000000000 ) ) ;
#5 = APPLICATION_PROTOCOL_DEFINITION ( 'draft international standard', 'automotive_design', 1998, #273 ) ;
#6 = ORIENTED_EDGE ( 'NONE', *, *, #272, .T. ) ;
#7 = CARTESIAN_POINT ( 'NONE',  ( 0.0000000000000000000, 0.0000000000000000000, 4.000000000000000000 ) ) ;
#8 = ORIENTED_EDGE ( 'NONE', *, *, #26, .T. ) ;
#9 = CARTESIAN_POINT ( 'NONE',  ( 0.0000000000000000000, 0.0000000000000000000, 0.8000000000000000444 ) ) ;
#10 = DIRECTION ( 'NONE',  ( -1.000000000000000000, 0.0000000000000000000, 0.0000000000000000000 ) ) ;
#11 = ORIENTED_EDGE ( 'NONE', *, *, #318, .T. ) ;
#12 = CONICAL_SURFACE ( 'NONE', #217, 0.1724999999999998757, 0.7853981633974266297 ) ;
#13 = DIRECTION ( 'NONE',  ( -0.0000000000000000000, -0.0000000000000000000, -1.000000000000000000 ) ) ;
#14 = CARTESIAN_POINT ( 'NONE',  ( -0.1875000000000000278, 0.0000000000000000000, 4.000000000000000000 ) ) ;
#15 = ORIENTED_EDGE ( 'NONE', *, *, #318, .F. ) ;
#16 = DIRECTION ( 'NONE',  ( 0.0000000000000000000, 1.000000000000000000, 0.0000000000000000000 ) ) ;
#17 = VERTEX_POINT ( 'NONE', #122 ) ;
#18 = DIRECTION ( 'NONE',  ( -0.0000000000000000000, -0.0000000000000000000, -1.000000000000000000 ) ) ;
#19 =( LENGTH_UNIT ( ) NAMED_UNIT ( * ) SI_UNIT ( $, .METRE. ) );
#20 = EDGE_LOOP ( 'NONE', ( #231, #69, #41, #229 ) ) ;
#21 = EDGE_CURVE ( 'NONE', #93, #153, #269, .T. ) ;
#22 = PRODUCT_DEFINITION_CONTEXT ( 'detailed design', #293, 'design' ) ;
#23 = ORIENTED_EDGE ( 'NONE', *, *, #2, .F. ) ;
#24 = AXIS2_PLACEMENT_3D ( 'NONE', #105, #248, #251 ) ;
#25 = AXIS2_PLACEMENT_3D ( 'NONE', #184, #207, #214 ) ;
#26 = EDGE_CURVE ( 'NONE', #17, #225, #218, .T. ) ;
#27 = AXIS2_PLACEMENT_3D ( 'NONE', #1, #344, #299 ) ;
#28 = EDGE_CURVE ( 'NONE', #93, #277, #125, .T. ) ;
#29 = ADVANCED_BREP_SHAPE_REPRESENTATION ( 'Micro_SBM-375-4X', ( #141, #85 ), #328 ) ;
#30 = CLOSED_SHELL ( 'NONE', ( #294, #254, #67, #96, #237, #164, #76, #189, #301, #243, #216 ) ) ;
#31 = DIRECTION ( 'NONE',  ( -1.000000000000000000, 0.0000000000000000000, 0.0000000000000000000 ) ) ;
#32 = LENGTH_MEASURE_WITH_UNIT ( LENGTH_MEASURE( 0.02539999999999999897 ), #134 );
#33 = EDGE_CURVE ( 'NONE', #93, #17, #119, .T. ) ;
#34 = CARTESIAN_POINT ( 'NONE',  ( 0.0000000000000000000, 0.0000000000000000000, 4.000000000000000000 ) ) ;
#35 = ORIENTED_EDGE ( 'NONE', *, *, #42, .F. ) ;
#36 = DIRECTION ( 'NONE',  ( -1.000000000000000000, 0.0000000000000000000, 0.0000000000000000000 ) ) ;
#37 = EDGE_LOOP ( 'NONE', ( #116, #124, #60, #240 ) ) ;
#38 = ORIENTED_EDGE ( 'NONE', *, *, #161, .F. ) ;
#39 = DIRECTION ( 'NONE',  ( -1.000000000000000000, 0.0000000000000000000, 0.0000000000000000000 ) ) ;
#40 = ORIENTED_EDGE ( 'NONE', *, *, #136, .T. ) ;
#41 = ORIENTED_EDGE ( 'NONE', *, *, #81, .T. ) ;
#42 = EDGE_CURVE ( 'NONE', #340, #236, #194, .T. ) ;
#43 = ORIENTED_EDGE ( 'NONE', *, *, #193, .T. ) ;
#44 = DIRECTION ( 'NONE',  ( -0.0000000000000000000, -0.0000000000000000000, -1.000000000000000000 ) ) ;
#45 = UNCERTAINTY_MEASURE_WITH_UNIT (LENGTH_MEASURE( 1.000000000000000082E-05 ), #264, 'distance_accuracy_value', 'NONE');
#46 = CARTESIAN_POINT ( 'NONE',  ( -0.1499999999999998834, 2.066591473561157967E-17, 0.8000000000000000444 ) ) ;
#47 = DIRECTION ( 'NONE',  ( 0.0000000000000000000, 0.0000000000000000000, 1.000000000000000000 ) ) ;
#48 = VECTOR ( 'NONE', #117, 39.37007874015748143 ) ;
#49 = AXIS2_PLACEMENT_3D ( 'NONE', #291, #39, #47 ) ;
#50 = SURFACE_STYLE_FILL_AREA ( #322 ) ;
#51 = EDGE_CURVE ( 'NONE', #339, #236, #226, .T. ) ;
#52 = CYLINDRICAL_SURFACE ( 'NONE', #24, 0.1875000000000000278 ) ;
#53 = CARTESIAN_POINT ( 'NONE',  ( 0.1875000000000000278, 2.296212748401287726E-17, 4.000000000000000000 ) ) ;
#54 = AXIS2_PLACEMENT_3D ( 'NONE', #7, #330, #78 ) ;
#55 = VECTOR ( 'NONE', #259, 39.37007874015748143 ) ;
#56 = FACE_OUTER_BOUND ( 'NONE', #179, .T. ) ;
#57 =( NAMED_UNIT ( * ) SI_UNIT ( $, .STERADIAN. ) SOLID_ANGLE_UNIT ( ) );
#58 = LINE ( 'NONE', #53, #176 ) ;
#59 = DIRECTION ( 'NONE',  ( 1.000000000000000000, 0.0000000000000000000, 0.0000000000000000000 ) ) ;
#60 = ORIENTED_EDGE ( 'NONE', *, *, #174, .T. ) ;
#61 = CIRCLE ( 'NONE', #345, 0.1499999999999999389 ) ;
#62 = ORIENTED_EDGE ( 'NONE', *, *, #51, .T. ) ;
#63 = SURFACE_SIDE_STYLE ('',( #309 ) ) ;
#64 = ORIENTED_EDGE ( 'NONE', *, *, #161, .T. ) ;
#65 = DIRECTION ( 'NONE',  ( 0.7071067811865321406, 8.659560562354744271E-17, -0.7071067811865627828 ) ) ;
#66 = LINE ( 'NONE', #312, #68 ) ;
#67 = ADVANCED_FACE ( 'NONE', ( #88 ), #204, .T. ) ;
#68 = VECTOR ( 'NONE', #315, 39.37007874015748143 ) ;
#69 = ORIENTED_EDGE ( 'NONE', *, *, #307, .T. ) ;
#70 = UNCERTAINTY_MEASURE_WITH_UNIT (LENGTH_MEASURE( 1.000000000000000082E-05 ), #295, 'distance_accuracy_value', 'NONE');
#71 = CARTESIAN_POINT ( 'NONE',  ( 0.0000000000000000000, 0.0000000000000000000, 0.3000000000000000999 ) ) ;
#72 = CARTESIAN_POINT ( 'NONE',  ( 0.0000000000000000000, 0.0000000000000000000, 1.200000000000000178 ) ) ;
#73 = PRESENTATION_STYLE_ASSIGNMENT (( #180 ) ) ;
#74 = CIRCLE ( 'NONE', #271, 0.1875000000000000278 ) ;
#75 = CIRCLE ( 'NONE', #130, 0.1499999999999998834 ) ;
#76 = ADVANCED_FACE ( 'NONE', ( #258 ), #95, .T. ) ;
#77 = STYLED_ITEM ( 'NONE', ( #270 ), #29 ) ;
#78 = DIRECTION ( 'NONE',  ( 1.000000000000000000, 0.0000000000000000000, 0.0000000000000000000 ) ) ;
#79 = DIRECTION ( 'NONE',  ( 1.000000000000000000, 1.224646799147353207E-16, -0.0000000000000000000 ) ) ;
#80 = AXIS2_PLACEMENT_3D ( 'NONE', #276, #143, #31 ) ;
#81 = EDGE_CURVE ( 'NONE', #86, #277, #165, .T. ) ;
#82 = ORIENTED_EDGE ( 'NONE', *, *, #136, .F. ) ;
#83 = DIRECTION ( 'NONE',  ( 1.000000000000000000, 0.0000000000000000000, -0.0000000000000000000 ) ) ;
#84 = EDGE_CURVE ( 'NONE', #153, #93, #75, .T. ) ;
#85 = AXIS2_PLACEMENT_3D ( 'NONE', #156, #140, #235 ) ;
#86 = VERTEX_POINT ( 'NONE', #190 ) ;
#87 = AXIS2_PLACEMENT_3D ( 'NONE', #71, #13, #335 ) ;
#88 = FACE_OUTER_BOUND ( 'NONE', #186, .T. ) ;
#89 = ORIENTED_EDGE ( 'NONE', *, *, #51, .F. ) ;
#90 = CARTESIAN_POINT ( 'NONE',  ( -0.1499999999999999112, 0.0000000000000000000, 0.0000000000000000000 ) ) ;
#91 = ORIENTED_EDGE ( 'NONE', *, *, #193, .F. ) ;
#92 = DIRECTION ( 'NONE',  ( 1.000000000000000000, 0.0000000000000000000, 0.0000000000000000000 ) ) ;
#93 = VERTEX_POINT ( 'NONE', #46 ) ;
#94 = CARTESIAN_POINT ( 'NONE',  ( 0.0000000000000000000, 0.0000000000000000000, 3.984999999999998987 ) ) ;
#95 = CONICAL_SURFACE ( 'NONE', #228, 0.2062499999999998224, 0.09347678115858976122 ) ;
#96 = ADVANCED_FACE ( 'NONE', ( #253 ), #106, .T. ) ;
#97 = DIRECTION ( 'NONE',  ( 0.0000000000000000000, 0.0000000000000000000, 1.000000000000000000 ) ) ;
#98 = ORIENTED_EDGE ( 'NONE', *, *, #222, .F. ) ;
#99 = CARTESIAN_POINT ( 'NONE',  ( 0.0000000000000000000, 0.0000000000000000000, 0.0000000000000000000 ) ) ;
#100 = DIRECTION ( 'NONE',  ( -0.0000000000000000000, -0.0000000000000000000, -1.000000000000000000 ) ) ;
#101 = AXIS2_PLACEMENT_3D ( 'NONE', #325, #59, #137 ) ;
#102 = AXIS2_PLACEMENT_3D ( 'NONE', #123, #97, #205 ) ;
#103 = EDGE_CURVE ( 'NONE', #340, #277, #342, .T. ) ;
#104 = PRESENTATION_LAYER_ASSIGNMENT (  '', '', ( #77 ) ) ;
#105 = CARTESIAN_POINT ( 'NONE',  ( 0.0000000000000000000, 0.0000000000000000000, 4.000000000000000000 ) ) ;
#106 = CONICAL_SURFACE ( 'NONE', #306, 0.2062499999999998224, 0.09347678115858976122 ) ;
#107 = CARTESIAN_POINT ( 'NONE',  ( 0.1499999999999999389, 1.836970198721029133E-17, 0.3000000000000000999 ) ) ;
#108 = CARTESIAN_POINT ( 'NONE',  ( -0.1875000000000000278, 2.296212748401287726E-17, 1.200000000000000178 ) ) ;
#109 =( GEOMETRIC_REPRESENTATION_CONTEXT ( 3 ) GLOBAL_UNCERTAINTY_ASSIGNED_CONTEXT ( ( #265 ) ) GLOBAL_UNIT_ASSIGNED_CONTEXT ( ( #297, #249, #223 ) ) REPRESENTATION_CONTEXT ( 'NONE', 'WORKASPACE' ) );
#110 = CARTESIAN_POINT ( 'NONE',  ( 0.0000000000000000000, 0.0000000000000000000, 0.1875000000000000278 ) ) ;
#111 = AXIS2_PLACEMENT_3D ( 'NONE', #94, #238, #187 ) ;
#112 = EDGE_LOOP ( 'NONE', ( #181, #11, #8, #332 ) ) ;
#113 = CIRCLE ( 'NONE', #27, 0.1499999999999999389 ) ;
#114 = EDGE_CURVE ( 'NONE', #206, #340, #337, .T. ) ;
#115 = PLANE ( 'NONE',  #343 ) ;
#116 = ORIENTED_EDGE ( 'NONE', *, *, #28, .F. ) ;
#117 = DIRECTION ( 'NONE',  ( 0.09334070869305856333, 0.0000000000000000000, 0.9956342260592879745 ) ) ;
#118 = CARTESIAN_POINT ( 'NONE',  ( -0.2062499999999998224, 2.525834023241413787E-17, 1.399999999999997469 ) ) ;
#119 = LINE ( 'NONE', #90, #338 ) ;
#120 = PRODUCT_DEFINITION_SHAPE ( 'NONE', 'NONE',  #163 ) ;
#121 =( NAMED_UNIT ( * ) PLANE_ANGLE_UNIT ( ) SI_UNIT ( $, .RADIAN. ) );
#122 = CARTESIAN_POINT ( 'NONE',  ( -0.1499999999999999389, 0.0000000000000000000, 0.3000000000000000999 ) ) ;
#123 = CARTESIAN_POINT ( 'NONE',  ( 0.0000000000000000000, 0.0000000000000000000, 1.200000000000000178 ) ) ;
#124 = ORIENTED_EDGE ( 'NONE', *, *, #84, .F. ) ;
#125 = LINE ( 'NONE', #118, #55 ) ;
#126 = DIMENSIONAL_EXPONENTS ( 1.000000000000000000, 0.0000000000000000000, 0.0000000000000000000, 0.0000000000000000000, 0.0000000000000000000, 0.0000000000000000000, 0.0000000000000000000 ) ;
#127 = EDGE_LOOP ( 'NONE', ( #23, #157, #209, #15, #38 ) ) ;
#128 = CIRCLE ( 'NONE', #49, 0.1874999999999999445 ) ;
#129 = ORIENTED_EDGE ( 'NONE', *, *, #2, .T. ) ;
#130 = AXIS2_PLACEMENT_3D ( 'NONE', #183, #44, #262 ) ;
#131 = FACE_OUTER_BOUND ( 'NONE', #112, .T. ) ;
#132 = AXIS2_PLACEMENT_3D ( 'NONE', #110, #79, #221 ) ;
#133 = EDGE_CURVE ( 'NONE', #277, #86, #162, .T. ) ;
#134 =( LENGTH_UNIT ( ) NAMED_UNIT ( * ) SI_UNIT ( $, .METRE. ) );
#135 = STYLED_ITEM ( 'NONE', ( #73 ), #141 ) ;
#136 = EDGE_CURVE ( 'NONE', #225, #280, #61, .T. ) ;
#137 = DIRECTION ( 'NONE',  ( 0.0000000000000000000, 1.000000000000000000, 0.0000000000000000000 ) ) ;
#138 =( NAMED_UNIT ( * ) PLANE_ANGLE_UNIT ( ) SI_UNIT ( $, .RADIAN. ) );
#139 = AXIS2_PLACEMENT_3D ( 'NONE', #245, #195, #196 ) ;
#140 = DIRECTION ( 'NONE',  ( 0.0000000000000000000, 0.0000000000000000000, 1.000000000000000000 ) ) ;
#141 = MANIFOLD_SOLID_BREP ( 'Cut-Revolve3', #30 ) ;
#142 = DIRECTION ( 'NONE',  ( -0.0000000000000000000, -0.0000000000000000000, -1.000000000000000000 ) ) ;
#143 = DIRECTION ( 'NONE',  ( -0.0000000000000000000, -0.0000000000000000000, -1.000000000000000000 ) ) ;
#144 = APPLICATION_PROTOCOL_DEFINITION ( 'draft international standard', 'automotive_design', 1998, #293 ) ;
#145 = VERTEX_POINT ( 'NONE', #160 ) ;
#146 = EDGE_LOOP ( 'NONE', ( #98, #62, #35, #302 ) ) ;
#147 = EDGE_CURVE ( 'NONE', #225, #213, #128, .T. ) ;
#148 = SPHERICAL_SURFACE ( 'NONE', #320, 0.1874999999999999722 ) ;
#149 = ORIENTED_EDGE ( 'NONE', *, *, #174, .F. ) ;
#150 = AXIS2_PLACEMENT_3D ( 'NONE', #239, #211, #36 ) ;
#151 = DIRECTION ( 'NONE',  ( -1.000000000000000000, 0.0000000000000000000, 0.0000000000000000000 ) ) ;
#152 = FILL_AREA_STYLE ('',( #289 ) ) ;
#153 = VERTEX_POINT ( 'NONE', #313 ) ;
#154 = ORIENTED_EDGE ( 'NONE', *, *, #81, .F. ) ;
#155 = DIRECTION ( 'NONE',  ( -0.7071067811865321406, 0.0000000000000000000, -0.7071067811865627828 ) ) ;
#156 = CARTESIAN_POINT ( 'NONE',  ( 0.0000000000000000000, 0.0000000000000000000, 0.0000000000000000000 ) ) ;
#157 = ORIENTED_EDGE ( 'NONE', *, *, #84, .T. ) ;
#158 = CARTESIAN_POINT ( 'NONE',  ( 0.2062499999999998224, 0.0000000000000000000, 1.399999999999997469 ) ) ;
#159 = CARTESIAN_POINT ( 'NONE',  ( 0.1724999999999998757, 2.112515728529182686E-17, 4.000000000000000000 ) ) ;
#160 = CARTESIAN_POINT ( 'NONE',  ( 1.836970198721028825E-17, -0.1499999999999999112, 0.3000000000000000999 ) ) ;
#161 = EDGE_CURVE ( 'NONE', #280, #145, #199, .T. ) ;
#162 = CIRCLE ( 'NONE', #102, 0.1875000000000000278 ) ;
#163 = PRODUCT_DEFINITION ( 'UNKNOWN', '', #210, #22 ) ;
#164 = ADVANCED_FACE ( 'NONE', ( #131 ), #148, .T. ) ;
#165 = CIRCLE ( 'NONE', #241, 0.1875000000000000278 ) ;
#166 = EDGE_CURVE ( 'NONE', #206, #339, #257, .T. ) ;
#167 = SURFACE_SIDE_STYLE ('',( #50 ) ) ;
#168 =( LENGTH_UNIT ( ) NAMED_UNIT ( * ) SI_UNIT ( $, .METRE. ) );
#169 = CIRCLE ( 'NONE', #54, 0.1724999999999998757 ) ;
#170 = DIRECTION ( 'NONE',  ( 0.0000000000000000000, 0.0000000000000000000, -1.000000000000000000 ) ) ;
#171 = VECTOR ( 'NONE', #188, 39.37007874015748143 ) ;
#172 = SPHERICAL_SURFACE ( 'NONE', #101, 0.1874999999999999722 ) ;
#173 = DIRECTION ( 'NONE',  ( 0.0000000000000000000, 0.0000000000000000000, -1.000000000000000000 ) ) ;
#174 = EDGE_CURVE ( 'NONE', #153, #86, #285, .T. ) ;
#175 = FACE_OUTER_BOUND ( 'NONE', #278, .T. ) ;
#176 = VECTOR ( 'NONE', #321, 39.37007874015748143 ) ;
#177 = DIRECTION ( 'NONE',  ( -1.000000000000000000, 0.0000000000000000000, 0.0000000000000000000 ) ) ;
#178 = FACE_OUTER_BOUND ( 'NONE', #20, .T. ) ;
#179 = EDGE_LOOP ( 'NONE', ( #40, #64, #6, #290 ) ) ;
#180 = SURFACE_STYLE_USAGE ( .BOTH. , #63 ) ;
#181 = ORIENTED_EDGE ( 'NONE', *, *, #272, .F. ) ;
#182 = ORIENTED_EDGE ( 'NONE', *, *, #103, .T. ) ;
#183 = CARTESIAN_POINT ( 'NONE',  ( 0.0000000000000000000, 0.0000000000000000000, 0.8000000000000000444 ) ) ;
#184 = CARTESIAN_POINT ( 'NONE',  ( 0.0000000000000000000, 0.0000000000000000000, 4.000000000000000000 ) ) ;
#185 = SHAPE_DEFINITION_REPRESENTATION ( #120, #29 ) ;
#186 = EDGE_LOOP ( 'NONE', ( #283, #129, #82, #334, #333 ) ) ;
#187 = DIRECTION ( 'NONE',  ( 1.000000000000000000, 0.0000000000000000000, 0.0000000000000000000 ) ) ;
#188 = DIRECTION ( 'NONE',  ( -0.0000000000000000000, -0.0000000000000000000, -1.000000000000000000 ) ) ;
#189 = ADVANCED_FACE ( 'NONE', ( #232 ), #203, .T. ) ;
#190 = CARTESIAN_POINT ( 'NONE',  ( 0.1875000000000000278, 0.0000000000000000000, 1.200000000000000178 ) ) ;
#191 = CARTESIAN_POINT ( 'NONE',  ( 0.0000000000000000000, 0.0000000000000000000, 0.3000000000000000999 ) ) ;
#192 = MECHANICAL_DESIGN_GEOMETRIC_PRESENTATION_REPRESENTATION (  '', ( #135 ), #200 ) ;
#193 = EDGE_CURVE ( 'NONE', #236, #340, #74, .T. ) ;
#194 = CIRCLE ( 'NONE', #111, 0.1875000000000000278 ) ;
#195 = DIRECTION ( 'NONE',  ( 0.0000000000000000000, 0.0000000000000000000, -1.000000000000000000 ) ) ;
#196 = DIRECTION ( 'NONE',  ( -1.000000000000000000, 0.0000000000000000000, 0.0000000000000000000 ) ) ;
#197 = FILL_AREA_STYLE_COLOUR ( '', #263 ) ;
#198 = CYLINDRICAL_SURFACE ( 'NONE', #80, 0.1875000000000000278 ) ;
#199 = CIRCLE ( 'NONE', #150, 0.1499999999999999389 ) ;
#200 =( GEOMETRIC_REPRESENTATION_CONTEXT ( 3 ) GLOBAL_UNCERTAINTY_ASSIGNED_CONTEXT ( ( #45 ) ) GLOBAL_UNIT_ASSIGNED_CONTEXT ( ( #264, #121, #317 ) ) REPRESENTATION_CONTEXT ( 'NONE', 'WORKASPACE' ) );
#201 = COLOUR_RGB ( '',0.7921568627450980005, 0.8196078431372548767, 0.9333333333333333481 ) ;
#202 = ORIENTED_EDGE ( 'NONE', *, *, #28, .T. ) ;
#203 = CYLINDRICAL_SURFACE ( 'NONE', #292, 0.1499999999999999112 ) ;
#204 = CYLINDRICAL_SURFACE ( 'NONE', #314, 0.1499999999999999112 ) ;
#205 = DIRECTION ( 'NONE',  ( 1.000000000000000000, 0.0000000000000000000, 0.0000000000000000000 ) ) ;
#206 = VERTEX_POINT ( 'NONE', #250 ) ;
#207 = DIRECTION ( 'NONE',  ( 0.0000000000000000000, 0.0000000000000000000, 1.000000000000000000 ) ) ;
#208 = EDGE_LOOP ( 'NONE', ( #261, #43, #182, #336 ) ) ;
#209 = ORIENTED_EDGE ( 'NONE', *, *, #33, .T. ) ;
#210 = PRODUCT_DEFINITION_FORMATION_WITH_SPECIFIED_SOURCE ( 'ANY', '', #279, .NOT_KNOWN. ) ;
#211 = DIRECTION ( 'NONE',  ( -0.0000000000000000000, -0.0000000000000000000, -1.000000000000000000 ) ) ;
#212 = EDGE_LOOP ( 'NONE', ( #327, #202, #154, #149 ) ) ;
#213 = VERTEX_POINT ( 'NONE', #220 ) ;
#214 = DIRECTION ( 'NONE',  ( 1.000000000000000000, 0.0000000000000000000, 0.0000000000000000000 ) ) ;
#215 = DIRECTION ( 'NONE',  ( -0.0000000000000000000, -0.0000000000000000000, -1.000000000000000000 ) ) ;
#216 = ADVANCED_FACE ( 'NONE', ( #296 ), #12, .T. ) ;
#217 = AXIS2_PLACEMENT_3D ( 'NONE', #34, #170, #10 ) ;
#218 = CIRCLE ( 'NONE', #87, 0.1499999999999999389 ) ;
#219 = LENGTH_MEASURE_WITH_UNIT ( LENGTH_MEASURE( 0.02539999999999999897 ), #168 );
#220 = CARTESIAN_POINT ( 'NONE',  ( 0.0000000000000000000, 1.148106374200643401E-17, 3.414809992080329023E-17 ) ) ;
#221 = DIRECTION ( 'NONE',  ( -1.224646799147353207E-16, 1.000000000000000000, 0.0000000000000000000 ) ) ;
#222 = EDGE_CURVE ( 'NONE', #339, #206, #169, .T. ) ;
#223 =( NAMED_UNIT ( * ) SI_UNIT ( $, .STERADIAN. ) SOLID_ANGLE_UNIT ( ) );
#224 = CARTESIAN_POINT ( 'NONE',  ( 0.0000000000000000000, 0.0000000000000000000, 4.000000000000000000 ) ) ;
#225 = VERTEX_POINT ( 'NONE', #300 ) ;
#226 = LINE ( 'NONE', #159, #252 ) ;
#227 = CONICAL_SURFACE ( 'NONE', #139, 0.1724999999999998757, 0.7853981633974266297 ) ;
#228 = AXIS2_PLACEMENT_3D ( 'NONE', #233, #288, #92 ) ;
#229 = ORIENTED_EDGE ( 'NONE', *, *, #103, .F. ) ;
#230 = DIRECTION ( 'NONE',  ( 1.000000000000000000, 0.0000000000000000000, 0.0000000000000000000 ) ) ;
#231 = ORIENTED_EDGE ( 'NONE', *, *, #42, .T. ) ;
#232 = FACE_OUTER_BOUND ( 'NONE', #127, .T. ) ;
#233 = CARTESIAN_POINT ( 'NONE',  ( 0.0000000000000000000, 0.0000000000000000000, 1.399999999999997469 ) ) ;
#234 = LENGTH_MEASURE_WITH_UNIT ( LENGTH_MEASURE( 0.02539999999999999897 ), #19 );
#235 = DIRECTION ( 'NONE',  ( 1.000000000000000000, 0.0000000000000000000, 0.0000000000000000000 ) ) ;
#236 = VERTEX_POINT ( 'NONE', #298 ) ;
#237 = ADVANCED_FACE ( 'NONE', ( #56 ), #172, .T. ) ;
#238 = DIRECTION ( 'NONE',  ( 0.0000000000000000000, 0.0000000000000000000, -1.000000000000000000 ) ) ;
#239 = CARTESIAN_POINT ( 'NONE',  ( 0.0000000000000000000, 0.0000000000000000000, 0.3000000000000000999 ) ) ;
#240 = ORIENTED_EDGE ( 'NONE', *, *, #133, .F. ) ;
#241 = AXIS2_PLACEMENT_3D ( 'NONE', #72, #316, #329 ) ;
#242 = ORIENTED_EDGE ( 'NONE', *, *, #114, .T. ) ;
#243 = ADVANCED_FACE ( 'NONE', ( #175 ), #115, .T. ) ;
#244 = CIRCLE ( 'NONE', #132, 0.1874999999999999722 ) ;
#245 = CARTESIAN_POINT ( 'NONE',  ( 0.0000000000000000000, 0.0000000000000000000, 4.000000000000000000 ) ) ;
#246 = FACE_OUTER_BOUND ( 'NONE', #146, .T. ) ;
#247 = DIRECTION ( 'NONE',  ( 0.0000000000000000000, 0.0000000000000000000, 1.000000000000000000 ) ) ;
#248 = DIRECTION ( 'NONE',  ( -0.0000000000000000000, -0.0000000000000000000, -1.000000000000000000 ) ) ;
#249 =( NAMED_UNIT ( * ) PLANE_ANGLE_UNIT ( ) SI_UNIT ( $, .RADIAN. ) );
#250 = CARTESIAN_POINT ( 'NONE',  ( -0.1724999999999998757, 0.0000000000000000000, 4.000000000000000000 ) ) ;
#251 = DIRECTION ( 'NONE',  ( -1.000000000000000000, 0.0000000000000000000, 0.0000000000000000000 ) ) ;
#252 = VECTOR ( 'NONE', #65, 39.37007874015748854 ) ;
#253 = FACE_OUTER_BOUND ( 'NONE', #212, .T. ) ;
#254 = ADVANCED_FACE ( 'NONE', ( #178 ), #198, .T. ) ;
#255 = DIRECTION ( 'NONE',  ( -0.0000000000000000000, -0.0000000000000000000, -1.000000000000000000 ) ) ;
#256 = CARTESIAN_POINT ( 'NONE',  ( 0.0000000000000000000, 0.0000000000000000000, 0.1875000000000000278 ) ) ;
#257 = CIRCLE ( 'NONE', #25, 0.1724999999999998757 ) ;
#258 = FACE_OUTER_BOUND ( 'NONE', #37, .T. ) ;
#259 = DIRECTION ( 'NONE',  ( -0.09334070869305856333, 1.143094001310997027E-17, 0.9956342260592879745 ) ) ;
#260 = DIRECTION ( 'NONE',  ( -1.000000000000000000, 0.0000000000000000000, 0.0000000000000000000 ) ) ;
#261 = ORIENTED_EDGE ( 'NONE', *, *, #307, .F. ) ;
#262 = DIRECTION ( 'NONE',  ( -1.000000000000000000, 0.0000000000000000000, 0.0000000000000000000 ) ) ;
#263 = COLOUR_RGB ( '',0.7921568627450980005, 0.8196078431372548767, 0.9333333333333333481 ) ;
#264 =( CONVERSION_BASED_UNIT ( 'INCH', #234 ) LENGTH_UNIT ( ) NAMED_UNIT ( #281 ) );
#265 = UNCERTAINTY_MEASURE_WITH_UNIT (LENGTH_MEASURE( 1.000000000000000082E-05 ), #297, 'distance_accuracy_value', 'NONE');
#266 = AXIS2_PLACEMENT_3D ( 'NONE', #9, #255, #308 ) ;
#267 = CARTESIAN_POINT ( 'NONE',  ( -0.1724999999999998757, 0.0000000000000000000, 4.000000000000000000 ) ) ;
#268 = PRODUCT_RELATED_PRODUCT_CATEGORY ( 'part', '', ( #279 ) ) ;
#269 = CIRCLE ( 'NONE', #266, 0.1499999999999998834 ) ;
#270 = PRESENTATION_STYLE_ASSIGNMENT (( #274 ) ) ;
#271 = AXIS2_PLACEMENT_3D ( 'NONE', #303, #173, #304 ) ;
#272 = EDGE_CURVE ( 'NONE', #145, #213, #244, .T. ) ;
#273 = APPLICATION_CONTEXT ( 'automotive_design' ) ;
#274 = SURFACE_STYLE_USAGE ( .BOTH. , #167 ) ;
#275 = CARTESIAN_POINT ( 'NONE',  ( 0.1724999999999998757, 2.204364238465235514E-17, 4.000000000000000000 ) ) ;
#276 = CARTESIAN_POINT ( 'NONE',  ( 0.0000000000000000000, 0.0000000000000000000, 4.000000000000000000 ) ) ;
#277 = VERTEX_POINT ( 'NONE', #108 ) ;
#278 = EDGE_LOOP ( 'NONE', ( #282, #311 ) ) ;
#279 = PRODUCT ( 'Micro_SBM-375-4X', 'Micro_SBM-375-4X', '', ( #305 ) ) ;
#280 = VERTEX_POINT ( 'NONE', #107 ) ;
#281 = DIMENSIONAL_EXPONENTS ( 1.000000000000000000, 0.0000000000000000000, 0.0000000000000000000, 0.0000000000000000000, 0.0000000000000000000, 0.0000000000000000000, 0.0000000000000000000 ) ;
#282 = ORIENTED_EDGE ( 'NONE', *, *, #166, .T. ) ;
#283 = ORIENTED_EDGE ( 'NONE', *, *, #21, .T. ) ;
#284 = DIRECTION ( 'NONE',  ( 1.000000000000000000, 0.0000000000000000000, 0.0000000000000000000 ) ) ;
#285 = LINE ( 'NONE', #158, #48 ) ;
#286 = CARTESIAN_POINT ( 'NONE',  ( 0.0000000000000000000, 0.0000000000000000000, 1.399999999999997469 ) ) ;
#287 = EDGE_LOOP ( 'NONE', ( #89, #310, #242, #91 ) ) ;
#288 = DIRECTION ( 'NONE',  ( 0.0000000000000000000, 0.0000000000000000000, 1.000000000000000000 ) ) ;
#289 = FILL_AREA_STYLE_COLOUR ( '', #201 ) ;
#290 = ORIENTED_EDGE ( 'NONE', *, *, #147, .F. ) ;
#291 = CARTESIAN_POINT ( 'NONE',  ( 0.0000000000000000000, 0.0000000000000000000, 0.1875000000000000278 ) ) ;
#292 = AXIS2_PLACEMENT_3D ( 'NONE', #4, #142, #177 ) ;
#293 = APPLICATION_CONTEXT ( 'automotive_design' ) ;
#294 = ADVANCED_FACE ( 'NONE', ( #246 ), #227, .T. ) ;
#295 =( CONVERSION_BASED_UNIT ( 'INCH', #219 ) LENGTH_UNIT ( ) NAMED_UNIT ( #341 ) );
#296 = FACE_OUTER_BOUND ( 'NONE', #287, .T. ) ;
#297 =( CONVERSION_BASED_UNIT ( 'INCH', #32 ) LENGTH_UNIT ( ) NAMED_UNIT ( #126 ) );
#298 = CARTESIAN_POINT ( 'NONE',  ( 0.1875000000000000278, 2.296212748401287726E-17, 3.984999999999998987 ) ) ;
#299 = DIRECTION ( 'NONE',  ( -1.000000000000000000, 0.0000000000000000000, 0.0000000000000000000 ) ) ;
#300 = CARTESIAN_POINT ( 'NONE',  ( 0.0000000000000000000, 0.1499999999999999112, 0.3000000000000000999 ) ) ;
#301 = ADVANCED_FACE ( 'NONE', ( #323 ), #52, .T. ) ;
#302 = ORIENTED_EDGE ( 'NONE', *, *, #114, .F. ) ;
#303 = CARTESIAN_POINT ( 'NONE',  ( 0.0000000000000000000, 0.0000000000000000000, 3.984999999999998987 ) ) ;
#304 = DIRECTION ( 'NONE',  ( 1.000000000000000000, 0.0000000000000000000, 0.0000000000000000000 ) ) ;
#305 = PRODUCT_CONTEXT ( 'NONE', #273, 'mechanical' ) ;
#306 = AXIS2_PLACEMENT_3D ( 'NONE', #286, #247, #284 ) ;
#307 = EDGE_CURVE ( 'NONE', #236, #86, #58, .T. ) ;
#308 = DIRECTION ( 'NONE',  ( -1.000000000000000000, 0.0000000000000000000, 0.0000000000000000000 ) ) ;
#309 = SURFACE_STYLE_FILL_AREA ( #152 ) ;
#310 = ORIENTED_EDGE ( 'NONE', *, *, #166, .F. ) ;
#311 = ORIENTED_EDGE ( 'NONE', *, *, #222, .T. ) ;
#312 = CARTESIAN_POINT ( 'NONE',  ( 0.1499999999999999112, 1.836970198721028825E-17, 0.0000000000000000000 ) ) ;
#313 = CARTESIAN_POINT ( 'NONE',  ( 0.1499999999999998834, 0.0000000000000000000, 0.8000000000000000444 ) ) ;
#314 = AXIS2_PLACEMENT_3D ( 'NONE', #99, #215, #151 ) ;
#315 = DIRECTION ( 'NONE',  ( -0.0000000000000000000, -0.0000000000000000000, -1.000000000000000000 ) ) ;
#316 = DIRECTION ( 'NONE',  ( 0.0000000000000000000, 0.0000000000000000000, 1.000000000000000000 ) ) ;
#317 =( NAMED_UNIT ( * ) SI_UNIT ( $, .STERADIAN. ) SOLID_ANGLE_UNIT ( ) );
#318 = EDGE_CURVE ( 'NONE', #145, #17, #113, .T. ) ;
#319 = VECTOR ( 'NONE', #155, 39.37007874015748854 ) ;
#320 = AXIS2_PLACEMENT_3D ( 'NONE', #256, #230, #16 ) ;
#321 = DIRECTION ( 'NONE',  ( -0.0000000000000000000, -0.0000000000000000000, -1.000000000000000000 ) ) ;
#322 = FILL_AREA_STYLE ('',( #197 ) ) ;
#323 = FACE_OUTER_BOUND ( 'NONE', #208, .T. ) ;
#324 = MECHANICAL_DESIGN_GEOMETRIC_PRESENTATION_REPRESENTATION (  '', ( #77 ), #109 ) ;
#325 = CARTESIAN_POINT ( 'NONE',  ( 0.0000000000000000000, 0.0000000000000000000, 0.1875000000000000278 ) ) ;
#326 = DIRECTION ( 'NONE',  ( 0.0000000000000000000, 0.0000000000000000000, 1.000000000000000000 ) ) ;
#327 = ORIENTED_EDGE ( 'NONE', *, *, #21, .F. ) ;
#328 =( GEOMETRIC_REPRESENTATION_CONTEXT ( 3 ) GLOBAL_UNCERTAINTY_ASSIGNED_CONTEXT ( ( #70 ) ) GLOBAL_UNIT_ASSIGNED_CONTEXT ( ( #295, #138, #57 ) ) REPRESENTATION_CONTEXT ( 'NONE', 'WORKASPACE' ) );
#329 = DIRECTION ( 'NONE',  ( 1.000000000000000000, 0.0000000000000000000, 0.0000000000000000000 ) ) ;
#330 = DIRECTION ( 'NONE',  ( 0.0000000000000000000, 0.0000000000000000000, 1.000000000000000000 ) ) ;
#331 = PRESENTATION_LAYER_ASSIGNMENT (  '', '', ( #135 ) ) ;
#332 = ORIENTED_EDGE ( 'NONE', *, *, #147, .T. ) ;
#333 = ORIENTED_EDGE ( 'NONE', *, *, #33, .F. ) ;
#334 = ORIENTED_EDGE ( 'NONE', *, *, #26, .F. ) ;
#335 = DIRECTION ( 'NONE',  ( -1.000000000000000000, 0.0000000000000000000, 0.0000000000000000000 ) ) ;
#336 = ORIENTED_EDGE ( 'NONE', *, *, #133, .T. ) ;
#337 = LINE ( 'NONE', #267, #319 ) ;
#338 = VECTOR ( 'NONE', #18, 39.37007874015748143 ) ;
#339 = VERTEX_POINT ( 'NONE', #275 ) ;
#340 = VERTEX_POINT ( 'NONE', #3 ) ;
#341 = DIMENSIONAL_EXPONENTS ( 1.000000000000000000, 0.0000000000000000000, 0.0000000000000000000, 0.0000000000000000000, 0.0000000000000000000, 0.0000000000000000000, 0.0000000000000000000 ) ;
#342 = LINE ( 'NONE', #14, #171 ) ;
#343 = AXIS2_PLACEMENT_3D ( 'NONE', #224, #326, #83 ) ;
#344 = DIRECTION ( 'NONE',  ( -0.0000000000000000000, -0.0000000000000000000, -1.000000000000000000 ) ) ;
#345 = AXIS2_PLACEMENT_3D ( 'NONE', #191, #100, #260 ) ;
ENDSEC;
END-ISO-10303-21;
