ISO-10303-21;
HEADER;
FILE_DESCRIPTION (( 'STEP AP214' ),
    '1' );
FILE_NAME ('03600.STEP',
    '2023-06-22T15:31:11',
    ( '' ),
    ( '' ),
    'SwSTEP 2.0',
    'SolidWorks 2023',
    '' );
FILE_SCHEMA (( 'AUTOMOTIVE_DESIGN' ));
ENDSEC;

DATA;
#1 = AXIS2_PLACEMENT_3D ( 'NONE', #304, #130, #142 ) ;
#2 =( NAMED_UNIT ( * ) PLANE_ANGLE_UNIT ( ) SI_UNIT ( $, .RADIAN. ) );
#3 = EDGE_LOOP ( 'NONE', ( #84, #39 ) ) ;
#4 = SURFACE_SIDE_STYLE ('',( #200 ) ) ;
#5 = ORIENTED_EDGE ( 'NONE', *, *, #23, .T. ) ;
#6 =( CONVERSION_BASED_UNIT ( 'INCH', #154 ) LENGTH_UNIT ( ) NAMED_UNIT ( #135 ) );
#7 = CARTESIAN_POINT ( 'NONE',  ( -1.224646799147353207E-16, 5.000000000000000000, 0.000000000000000000 ) ) ;
#8 = AXIS2_PLACEMENT_3D ( 'NONE', #188, #137, #66 ) ;
#9 =( CONVERSION_BASED_UNIT ( 'INCH', #10 ) LENGTH_UNIT ( ) NAMED_UNIT ( #189 ) );
#10 = LENGTH_MEASURE_WITH_UNIT ( LENGTH_MEASURE( 0.02539999999999999897 ), #238 );
#11 = VERTEX_POINT ( 'NONE', #250 ) ;
#12 =( GEOMETRIC_REPRESENTATION_CONTEXT ( 3 ) GLOBAL_UNCERTAINTY_ASSIGNED_CONTEXT ( ( #21 ) ) GLOBAL_UNIT_ASSIGNED_CONTEXT ( ( #78, #2, #16 ) ) REPRESENTATION_CONTEXT ( 'NONE', 'WORKASPACE' ) );
#13 = PRESENTATION_LAYER_ASSIGNMENT (  '', '', ( #79 ) ) ;
#14 = CARTESIAN_POINT ( 'NONE',  ( 0.3124999999999999445, 5.000000000000000000, 3.827021247335479543E-17 ) ) ;
#15 = ADVANCED_FACE ( 'NONE', ( #239 ), #287, .T. ) ;
#16 =( NAMED_UNIT ( * ) SI_UNIT ( $, .STERADIAN. ) SOLID_ANGLE_UNIT ( ) );
#17 = AXIS2_PLACEMENT_3D ( 'NONE', #43, #122, #176 ) ;
#18 = DIRECTION ( 'NONE',  ( -0.000000000000000000, -1.000000000000000000, -0.000000000000000000 ) ) ;
#19 = ORIENTED_EDGE ( 'NONE', *, *, #65, .T. ) ;
#20 = DIRECTION ( 'NONE',  ( 0.000000000000000000, 0.000000000000000000, -1.000000000000000000 ) ) ;
#21 = UNCERTAINTY_MEASURE_WITH_UNIT (LENGTH_MEASURE( 1.000000000000000082E-05 ), #78, 'distance_accuracy_value', 'NONE');
#22 = AXIS2_PLACEMENT_3D ( 'NONE', #87, #18, #20 ) ;
#23 = EDGE_CURVE ( 'NONE', #26, #101, #56, .T. ) ;
#24 = CIRCLE ( 'NONE', #227, 0.3125000000000000000 ) ;
#25 = FILL_AREA_STYLE ('',( #198 ) ) ;
#26 = VERTEX_POINT ( 'NONE', #194 ) ;
#27 = CIRCLE ( 'NONE', #22, 0.3125000000000000000 ) ;
#28 = PRESENTATION_STYLE_ASSIGNMENT (( #179 ) ) ;
#29 = FACE_OUTER_BOUND ( 'NONE', #223, .T. ) ;
#30 = DIRECTION ( 'NONE',  ( -4.898587196589412459E-17, 1.000000000000000000, -0.000000000000000000 ) ) ;
#31 = DIRECTION ( 'NONE',  ( -4.898587196589413075E-17, 1.000000000000000000, -0.000000000000000000 ) ) ;
#32 = MECHANICAL_DESIGN_GEOMETRIC_PRESENTATION_REPRESENTATION (  '', ( #288 ), #219 ) ;
#33 = ORIENTED_EDGE ( 'NONE', *, *, #192, .T. ) ;
#34 = ADVANCED_FACE ( 'NONE', ( #289 ), #299, .T. ) ;
#35 = AXIS2_PLACEMENT_3D ( 'NONE', #155, #255, #100 ) ;
#36 = SURFACE_SIDE_STYLE ('',( #258 ) ) ;
#37 = CIRCLE ( 'NONE', #115, 0.3125000000000000000 ) ;
#38 = PLANE ( 'NONE',  #8 ) ;
#39 = ORIENTED_EDGE ( 'NONE', *, *, #292, .T. ) ;
#40 = CYLINDRICAL_SURFACE ( 'NONE', #187, 0.3125000000000000555 ) ;
#41 = PRESENTATION_LAYER_ASSIGNMENT (  '', '', ( #162 ) ) ;
#42 = CARTESIAN_POINT ( 'NONE',  ( 0.3125000000000000000, 2.500000000000000000, 3.827021247335479543E-17 ) ) ;
#43 = CARTESIAN_POINT ( 'NONE',  ( 0.000000000000000000, 0.000000000000000000, 0.000000000000000000 ) ) ;
#44 = AXIS2_PLACEMENT_3D ( 'NONE', #7, #278, #61 ) ;
#45 = ORIENTED_EDGE ( 'NONE', *, *, #232, .T. ) ;
#46 = ADVANCED_FACE ( 'NONE', ( #99 ), #300, .T. ) ;
#47 = CLOSED_SHELL ( 'NONE', ( #34, #237, #15, #75 ) ) ;
#48 = PRODUCT_DEFINITION_CONTEXT ( 'detailed design', #83, 'design' ) ;
#49 = STYLED_ITEM ( 'NONE', ( #165 ), #265 ) ;
#50 = SURFACE_SIDE_STYLE ('',( #93 ) ) ;
#51 =( NAMED_UNIT ( * ) SI_UNIT ( $, .STERADIAN. ) SOLID_ANGLE_UNIT ( ) );
#52 = CARTESIAN_POINT ( 'NONE',  ( 0.000000000000000000, 2.500000000000000000, 0.000000000000000000 ) ) ;
#53 = FILL_AREA_STYLE_COLOUR ( '', #89 ) ;
#54 = PRESENTATION_LAYER_ASSIGNMENT (  '', '', ( #49 ) ) ;
#55 = DIRECTION ( 'NONE',  ( -1.000000000000000000, 0.000000000000000000, 0.000000000000000000 ) ) ;
#56 = CIRCLE ( 'NONE', #241, 0.3125000000000000000 ) ;
#57 =( NAMED_UNIT ( * ) PLANE_ANGLE_UNIT ( ) SI_UNIT ( $, .RADIAN. ) );
#58 = AXIS2_PLACEMENT_3D ( 'NONE', #72, #168, #55 ) ;
#59 = SHAPE_DEFINITION_REPRESENTATION ( #126, #233 ) ;
#60 = DIRECTION ( 'NONE',  ( -0.000000000000000000, -1.000000000000000000, -0.000000000000000000 ) ) ;
#61 = DIRECTION ( 'NONE',  ( -1.000000000000000000, 0.000000000000000000, 0.000000000000000000 ) ) ;
#62 = ORIENTED_EDGE ( 'NONE', *, *, #192, .F. ) ;
#63 = DIRECTION ( 'NONE',  ( 0.000000000000000000, 0.000000000000000000, -1.000000000000000000 ) ) ;
#64 = CIRCLE ( 'NONE', #95, 0.3125000000000001665 ) ;
#65 = EDGE_CURVE ( 'NONE', #274, #11, #24, .T. ) ;
#66 = DIRECTION ( 'NONE',  ( 0.000000000000000000, -0.000000000000000000, 1.000000000000000000 ) ) ;
#67 = ORIENTED_EDGE ( 'NONE', *, *, #133, .F. ) ;
#68 = DIRECTION ( 'NONE',  ( -4.898587196589413075E-17, 1.000000000000000000, -0.000000000000000000 ) ) ;
#69 = SURFACE_STYLE_USAGE ( .BOTH. , #36 ) ;
#70 = DIRECTION ( 'NONE',  ( 4.898587196589412459E-17, -1.000000000000000000, 0.000000000000000000 ) ) ;
#71 = MECHANICAL_DESIGN_GEOMETRIC_PRESENTATION_REPRESENTATION (  '', ( #162 ), #12 ) ;
#72 = CARTESIAN_POINT ( 'NONE',  ( -1.224646799147353207E-16, 5.000000000000000000, 0.000000000000000000 ) ) ;
#73 = DIMENSIONAL_EXPONENTS ( 1.000000000000000000, 0.000000000000000000, 0.000000000000000000, 0.000000000000000000, 0.000000000000000000, 0.000000000000000000, 0.000000000000000000 ) ;
#74 = UNCERTAINTY_MEASURE_WITH_UNIT (LENGTH_MEASURE( 1.000000000000000082E-05 ), #113, 'distance_accuracy_value', 'NONE');
#75 = ADVANCED_FACE ( 'NONE', ( #277 ), #199, .T. ) ;
#76 = VECTOR ( 'NONE', #30, 39.37007874015748143 ) ;
#77 =( LENGTH_UNIT ( ) NAMED_UNIT ( * ) SI_UNIT ( $, .METRE. ) );
#78 =( CONVERSION_BASED_UNIT ( 'INCH', #148 ) LENGTH_UNIT ( ) NAMED_UNIT ( #308 ) );
#79 = STYLED_ITEM ( 'NONE', ( #28 ), #15 ) ;
#80 = EDGE_CURVE ( 'NONE', #294, #283, #64, .T. ) ;
#81 = STYLED_ITEM ( 'NONE', ( #149 ), #170 ) ;
#82 = DIRECTION ( 'NONE',  ( -4.898587196589412459E-17, 1.000000000000000000, 0.000000000000000000 ) ) ;
#83 = APPLICATION_CONTEXT ( 'automotive_design' ) ;
#84 = ORIENTED_EDGE ( 'NONE', *, *, #80, .T. ) ;
#85 = DIMENSIONAL_EXPONENTS ( 1.000000000000000000, 0.000000000000000000, 0.000000000000000000, 0.000000000000000000, 0.000000000000000000, 0.000000000000000000, 0.000000000000000000 ) ;
#86 =( CONVERSION_BASED_UNIT ( 'INCH', #244 ) LENGTH_UNIT ( ) NAMED_UNIT ( #108 ) );
#87 = CARTESIAN_POINT ( 'NONE',  ( 0.000000000000000000, 2.500000000000000000, 0.000000000000000000 ) ) ;
#88 = LINE ( 'NONE', #190, #231 ) ;
#89 = COLOUR_RGB ( '',1.000000000000000000, 0.000000000000000000, 0.000000000000000000 ) ;
#90 = DIRECTION ( 'NONE',  ( -0.000000000000000000, -1.000000000000000000, -0.000000000000000000 ) ) ;
#91 =( LENGTH_UNIT ( ) NAMED_UNIT ( * ) SI_UNIT ( $, .METRE. ) );
#92 = AXIS2_PLACEMENT_3D ( 'NONE', #177, #102, #63 ) ;
#93 = SURFACE_STYLE_FILL_AREA ( #226 ) ;
#94 = DIRECTION ( 'NONE',  ( -1.000000000000000000, 0.000000000000000000, 0.000000000000000000 ) ) ;
#95 = AXIS2_PLACEMENT_3D ( 'NONE', #139, #224, #291 ) ;
#96 = SURFACE_SIDE_STYLE ('',( #157 ) ) ;
#97 = LINE ( 'NONE', #14, #104 ) ;
#98 = VECTOR ( 'NONE', #60, 39.37007874015748143 ) ;
#99 = FACE_OUTER_BOUND ( 'NONE', #151, .T. ) ;
#100 = DIRECTION ( 'NONE',  ( 1.000000000000000000, 0.000000000000000000, 0.000000000000000000 ) ) ;
#101 = VERTEX_POINT ( 'NONE', #245 ) ;
#102 = DIRECTION ( 'NONE',  ( -0.000000000000000000, -1.000000000000000000, -0.000000000000000000 ) ) ;
#103 = DIRECTION ( 'NONE',  ( -4.898587196589412459E-17, 1.000000000000000000, -0.000000000000000000 ) ) ;
#104 = VECTOR ( 'NONE', #103, 39.37007874015748143 ) ;
#105 =( CONVERSION_BASED_UNIT ( 'INCH', #109 ) LENGTH_UNIT ( ) NAMED_UNIT ( #164 ) );
#106 = DIRECTION ( 'NONE',  ( -1.000000000000000000, 0.000000000000000000, 0.000000000000000000 ) ) ;
#107 = PRODUCT_DEFINITION_FORMATION_WITH_SPECIFIED_SOURCE ( 'ANY', '', #184, .NOT_KNOWN. ) ;
#108 = DIMENSIONAL_EXPONENTS ( 1.000000000000000000, 0.000000000000000000, 0.000000000000000000, 0.000000000000000000, 0.000000000000000000, 0.000000000000000000, 0.000000000000000000 ) ;
#109 = LENGTH_MEASURE_WITH_UNIT ( LENGTH_MEASURE( 0.02539999999999999897 ), #263 );
#110 = ADVANCED_FACE ( 'NONE', ( #218 ), #175, .F. ) ;
#111 = CARTESIAN_POINT ( 'NONE',  ( 0.000000000000000000, 0.000000000000000000, -0.3125000000000000000 ) ) ;
#112 = UNCERTAINTY_MEASURE_WITH_UNIT (LENGTH_MEASURE( 1.000000000000000082E-05 ), #6, 'distance_accuracy_value', 'NONE');
#113 =( CONVERSION_BASED_UNIT ( 'INCH', #143 ) LENGTH_UNIT ( ) NAMED_UNIT ( #73 ) );
#114 = MECHANICAL_DESIGN_GEOMETRIC_PRESENTATION_REPRESENTATION (  '', ( #79 ), #260 ) ;
#115 = AXIS2_PLACEMENT_3D ( 'NONE', #259, #68, #210 ) ;
#116 = SURFACE_STYLE_FILL_AREA ( #25 ) ;
#117 = SURFACE_STYLE_FILL_AREA ( #270 ) ;
#118 = ORIENTED_EDGE ( 'NONE', *, *, #253, .F. ) ;
#119 =( NAMED_UNIT ( * ) PLANE_ANGLE_UNIT ( ) SI_UNIT ( $, .RADIAN. ) );
#120 = FILL_AREA_STYLE_COLOUR ( '', #166 ) ;
#121 =( LENGTH_UNIT ( ) NAMED_UNIT ( * ) SI_UNIT ( $, .METRE. ) );
#122 = DIRECTION ( 'NONE',  ( -0.000000000000000000, -1.000000000000000000, -0.000000000000000000 ) ) ;
#123 = LINE ( 'NONE', #208, #76 ) ;
#124 = MECHANICAL_DESIGN_GEOMETRIC_PRESENTATION_REPRESENTATION (  '', ( #49 ), #138 ) ;
#125 = PRESENTATION_STYLE_ASSIGNMENT (( #254 ) ) ;
#126 = PRODUCT_DEFINITION_SHAPE ( 'NONE', 'NONE',  #230 ) ;
#127 = DIRECTION ( 'NONE',  ( -0.000000000000000000, -1.000000000000000000, -0.000000000000000000 ) ) ;
#128 = ORIENTED_EDGE ( 'NONE', *, *, #80, .F. ) ;
#129 = FACE_OUTER_BOUND ( 'NONE', #207, .T. ) ;
#130 = DIRECTION ( 'NONE',  ( 0.000000000000000000, -1.000000000000000000, -0.000000000000000000 ) ) ;
#131 = DIRECTION ( 'NONE',  ( -4.898587196589413075E-17, 1.000000000000000000, -0.000000000000000000 ) ) ;
#132 = PRESENTATION_LAYER_ASSIGNMENT (  '', '', ( #288 ) ) ;
#133 = EDGE_CURVE ( 'NONE', #11, #274, #37, .T. ) ;
#134 = CARTESIAN_POINT ( 'NONE',  ( 0.3125000000000000000, 5.000000000000000000, 3.827021247335479543E-17 ) ) ;
#135 = DIMENSIONAL_EXPONENTS ( 1.000000000000000000, 0.000000000000000000, 0.000000000000000000, 0.000000000000000000, 0.000000000000000000, 0.000000000000000000, 0.000000000000000000 ) ;
#136 = COLOUR_RGB ( '',1.000000000000000000, 0.000000000000000000, 0.000000000000000000 ) ;
#137 = DIRECTION ( 'NONE',  ( 0.000000000000000000, 1.000000000000000000, 0.000000000000000000 ) ) ;
#138 =( GEOMETRIC_REPRESENTATION_CONTEXT ( 3 ) GLOBAL_UNCERTAINTY_ASSIGNED_CONTEXT ( ( #217 ) ) GLOBAL_UNIT_ASSIGNED_CONTEXT ( ( #105, #212, #284 ) ) REPRESENTATION_CONTEXT ( 'NONE', 'WORKASPACE' ) );
#139 = CARTESIAN_POINT ( 'NONE',  ( -1.224646799147353207E-16, 5.000000000000000000, 0.000000000000000000 ) ) ;
#140 = ORIENTED_EDGE ( 'NONE', *, *, #306, .T. ) ;
#141 = FILL_AREA_STYLE_COLOUR ( '', #307 ) ;
#142 = DIRECTION ( 'NONE',  ( 0.000000000000000000, 0.000000000000000000, -1.000000000000000000 ) ) ;
#143 = LENGTH_MEASURE_WITH_UNIT ( LENGTH_MEASURE( 0.02539999999999999897 ), #222 );
#144 =( LENGTH_UNIT ( ) NAMED_UNIT ( * ) SI_UNIT ( $, .METRE. ) );
#145 = CARTESIAN_POINT ( 'NONE',  ( 0.000000000000000000, 0.000000000000000000, 0.000000000000000000 ) ) ;
#146 =( NAMED_UNIT ( * ) SI_UNIT ( $, .STERADIAN. ) SOLID_ANGLE_UNIT ( ) );
#147 = PRODUCT_RELATED_PRODUCT_CATEGORY ( 'part', '', ( #184 ) ) ;
#148 = LENGTH_MEASURE_WITH_UNIT ( LENGTH_MEASURE( 0.02539999999999999897 ), #144 );
#149 = PRESENTATION_STYLE_ASSIGNMENT (( #191 ) ) ;
#150 = CIRCLE ( 'NONE', #92, 0.3125000000000000000 ) ;
#151 = EDGE_LOOP ( 'NONE', ( #280, #19, #140, #262 ) ) ;
#152 = CARTESIAN_POINT ( 'NONE',  ( 0.000000000000000000, 0.000000000000000000, 0.000000000000000000 ) ) ;
#153 = LINE ( 'NONE', #181, #98 ) ;
#154 = LENGTH_MEASURE_WITH_UNIT ( LENGTH_MEASURE( 0.02539999999999999897 ), #121 );
#155 = CARTESIAN_POINT ( 'NONE',  ( 0.000000000000000000, 0.000000000000000000, 0.000000000000000000 ) ) ;
#156 = CARTESIAN_POINT ( 'NONE',  ( 3.749399456654644447E-34, 2.500000000000000000, 0.000000000000000000 ) ) ;
#157 = SURFACE_STYLE_FILL_AREA ( #159 ) ;
#158 = PLANE ( 'NONE',  #201 ) ;
#159 = FILL_AREA_STYLE ('',( #53 ) ) ;
#160 = VERTEX_POINT ( 'NONE', #186 ) ;
#161 = CARTESIAN_POINT ( 'NONE',  ( 0.3125000000000000000, 5.000000000000000000, 0.000000000000000000 ) ) ;
#162 = STYLED_ITEM ( 'NONE', ( #273 ), #237 ) ;
#163 = CARTESIAN_POINT ( 'NONE',  ( -1.224646799147353207E-16, 5.000000000000000000, 0.000000000000000000 ) ) ;
#164 = DIMENSIONAL_EXPONENTS ( 1.000000000000000000, 0.000000000000000000, 0.000000000000000000, 0.000000000000000000, 0.000000000000000000, 0.000000000000000000, 0.000000000000000000 ) ;
#165 = PRESENTATION_STYLE_ASSIGNMENT (( #69 ) ) ;
#166 = COLOUR_RGB ( '',1.000000000000000000, 0.000000000000000000, 0.000000000000000000 ) ;
#167 = ORIENTED_EDGE ( 'NONE', *, *, #293, .T. ) ;
#168 = DIRECTION ( 'NONE',  ( -4.898587196589413075E-17, 1.000000000000000000, -0.000000000000000000 ) ) ;
#169 = CLOSED_SHELL ( 'NONE', ( #243, #305, #46, #110 ) ) ;
#170 = MANIFOLD_SOLID_BREP ( 'Revolve - Cutting Edge', #47 ) ;
#171 = STYLED_ITEM ( 'NONE', ( #271 ), #34 ) ;
#172 =( NAMED_UNIT ( * ) PLANE_ANGLE_UNIT ( ) SI_UNIT ( $, .RADIAN. ) );
#173 = UNCERTAINTY_MEASURE_WITH_UNIT (LENGTH_MEASURE( 1.000000000000000082E-05 ), #9, 'distance_accuracy_value', 'NONE');
#174 =( NAMED_UNIT ( * ) SI_UNIT ( $, .STERADIAN. ) SOLID_ANGLE_UNIT ( ) );
#175 = PLANE ( 'NONE',  #182 ) ;
#176 = DIRECTION ( 'NONE',  ( 0.000000000000000000, 0.000000000000000000, -1.000000000000000000 ) ) ;
#177 = CARTESIAN_POINT ( 'NONE',  ( 0.000000000000000000, 0.000000000000000000, 0.000000000000000000 ) ) ;
#178 = ORIENTED_EDGE ( 'NONE', *, *, #65, .F. ) ;
#179 = SURFACE_STYLE_USAGE ( .BOTH. , #220 ) ;
#180 =( GEOMETRIC_REPRESENTATION_CONTEXT ( 3 ) GLOBAL_UNCERTAINTY_ASSIGNED_CONTEXT ( ( #173 ) ) GLOBAL_UNIT_ASSIGNED_CONTEXT ( ( #9, #275, #203 ) ) REPRESENTATION_CONTEXT ( 'NONE', 'WORKASPACE' ) );
#181 = CARTESIAN_POINT ( 'NONE',  ( 0.000000000000000000, 0.000000000000000000, -0.3125000000000000000 ) ) ;
#182 = AXIS2_PLACEMENT_3D ( 'NONE', #161, #70, #264 ) ;
#183 = COLOUR_RGB ( '',1.000000000000000000, 0.000000000000000000, 0.000000000000000000 ) ;
#184 = PRODUCT ( '03600', '03600', '', ( #234 ) ) ;
#185 = ORIENTED_EDGE ( 'NONE', *, *, #306, .F. ) ;
#186 = CARTESIAN_POINT ( 'NONE',  ( 3.827021247335478926E-17, 0.000000000000000000, 0.3125000000000000000 ) ) ;
#187 = AXIS2_PLACEMENT_3D ( 'NONE', #163, #131, #106 ) ;
#188 = CARTESIAN_POINT ( 'NONE',  ( 0.000000000000000000, 2.500000000000000000, 0.000000000000000000 ) ) ;
#189 = DIMENSIONAL_EXPONENTS ( 1.000000000000000000, 0.000000000000000000, 0.000000000000000000, 0.000000000000000000, 0.000000000000000000, 0.000000000000000000, 0.000000000000000000 ) ;
#190 = CARTESIAN_POINT ( 'NONE',  ( 3.827021247335478926E-17, 0.000000000000000000, 0.3125000000000000000 ) ) ;
#191 = SURFACE_STYLE_USAGE ( .BOTH. , #269 ) ;
#192 = EDGE_CURVE ( 'NONE', #256, #160, #150, .T. ) ;
#193 = EDGE_CURVE ( 'NONE', #274, #283, #97, .T. ) ;
#194 = CARTESIAN_POINT ( 'NONE',  ( 3.827021247335478926E-17, 2.500000000000000000, 0.3125000000000000000 ) ) ;
#195 =( CONVERSION_BASED_UNIT ( 'INCH', #296 ) LENGTH_UNIT ( ) NAMED_UNIT ( #85 ) );
#196 = CIRCLE ( 'NONE', #58, 0.3125000000000001665 ) ;
#197 = DIRECTION ( 'NONE',  ( 0.000000000000000000, 0.000000000000000000, -1.000000000000000000 ) ) ;
#198 = FILL_AREA_STYLE_COLOUR ( '', #136 ) ;
#199 = PLANE ( 'NONE',  #1 ) ;
#200 = SURFACE_STYLE_FILL_AREA ( #225 ) ;
#201 = AXIS2_PLACEMENT_3D ( 'NONE', #156, #82, #251 ) ;
#202 =( NAMED_UNIT ( * ) SI_UNIT ( $, .STERADIAN. ) SOLID_ANGLE_UNIT ( ) );
#203 =( NAMED_UNIT ( * ) SI_UNIT ( $, .STERADIAN. ) SOLID_ANGLE_UNIT ( ) );
#204 = COLOUR_RGB ( '',0.7921568627450980005, 0.8196078431372548767, 0.9333333333333333481 ) ;
#205 = APPLICATION_PROTOCOL_DEFINITION ( 'draft international standard', 'automotive_design', 1998, #209 ) ;
#206 = EDGE_LOOP ( 'NONE', ( #235, #290, #128, #185 ) ) ;
#207 = EDGE_LOOP ( 'NONE', ( #67, #178 ) ) ;
#208 = CARTESIAN_POINT ( 'NONE',  ( -0.3125000000000002220, 5.000000000000000000, 0.000000000000000000 ) ) ;
#209 = APPLICATION_CONTEXT ( 'automotive_design' ) ;
#210 = DIRECTION ( 'NONE',  ( -1.000000000000000000, 0.000000000000000000, 0.000000000000000000 ) ) ;
#211 = ORIENTED_EDGE ( 'NONE', *, *, #293, .F. ) ;
#212 =( NAMED_UNIT ( * ) PLANE_ANGLE_UNIT ( ) SI_UNIT ( $, .RADIAN. ) );
#213 = MECHANICAL_DESIGN_GEOMETRIC_PRESENTATION_REPRESENTATION (  '', ( #171 ), #298 ) ;
#214 = UNCERTAINTY_MEASURE_WITH_UNIT (LENGTH_MEASURE( 1.000000000000000082E-05 ), #86, 'distance_accuracy_value', 'NONE');
#215 = FILL_AREA_STYLE ('',( #141 ) ) ;
#216 = CIRCLE ( 'NONE', #17, 0.3125000000000000000 ) ;
#217 = UNCERTAINTY_MEASURE_WITH_UNIT (LENGTH_MEASURE( 1.000000000000000082E-05 ), #105, 'distance_accuracy_value', 'NONE');
#218 = FACE_OUTER_BOUND ( 'NONE', #3, .T. ) ;
#219 =( GEOMETRIC_REPRESENTATION_CONTEXT ( 3 ) GLOBAL_UNCERTAINTY_ASSIGNED_CONTEXT ( ( #112 ) ) GLOBAL_UNIT_ASSIGNED_CONTEXT ( ( #6, #57, #202 ) ) REPRESENTATION_CONTEXT ( 'NONE', 'WORKASPACE' ) );
#220 = SURFACE_SIDE_STYLE ('',( #116 ) ) ;
#221 = DIRECTION ( 'NONE',  ( 0.000000000000000000, 0.000000000000000000, -1.000000000000000000 ) ) ;
#222 =( LENGTH_UNIT ( ) NAMED_UNIT ( * ) SI_UNIT ( $, .METRE. ) );
#223 = EDGE_LOOP ( 'NONE', ( #118, #240 ) ) ;
#224 = DIRECTION ( 'NONE',  ( -4.898587196589413075E-17, 1.000000000000000000, -0.000000000000000000 ) ) ;
#225 = FILL_AREA_STYLE ('',( #120 ) ) ;
#226 = FILL_AREA_STYLE ('',( #267 ) ) ;
#227 = AXIS2_PLACEMENT_3D ( 'NONE', #276, #31, #94 ) ;
#228 = EDGE_LOOP ( 'NONE', ( #33, #45 ) ) ;
#229 = DIRECTION ( 'NONE',  ( 0.000000000000000000, 0.000000000000000000, -1.000000000000000000 ) ) ;
#230 = PRODUCT_DEFINITION ( 'UNKNOWN', '', #107, #48 ) ;
#231 = VECTOR ( 'NONE', #285, 39.37007874015748143 ) ;
#232 = EDGE_CURVE ( 'NONE', #160, #256, #216, .T. ) ;
#233 = ADVANCED_BREP_SHAPE_REPRESENTATION ( '03600', ( #170, #265, #35 ), #180 ) ;
#234 = PRODUCT_CONTEXT ( 'NONE', #209, 'mechanical' ) ;
#235 = ORIENTED_EDGE ( 'NONE', *, *, #133, .T. ) ;
#236 = ORIENTED_EDGE ( 'NONE', *, *, #232, .F. ) ;
#237 = ADVANCED_FACE ( 'NONE', ( #29 ), #38, .T. ) ;
#238 =( LENGTH_UNIT ( ) NAMED_UNIT ( * ) SI_UNIT ( $, .METRE. ) );
#239 = FACE_OUTER_BOUND ( 'NONE', #301, .T. ) ;
#240 = ORIENTED_EDGE ( 'NONE', *, *, #23, .F. ) ;
#241 = AXIS2_PLACEMENT_3D ( 'NONE', #52, #266, #221 ) ;
#242 = UNCERTAINTY_MEASURE_WITH_UNIT (LENGTH_MEASURE( 1.000000000000000082E-05 ), #195, 'distance_accuracy_value', 'NONE');
#243 = ADVANCED_FACE ( 'NONE', ( #282 ), #40, .T. ) ;
#244 = LENGTH_MEASURE_WITH_UNIT ( LENGTH_MEASURE( 0.02539999999999999897 ), #77 );
#245 = CARTESIAN_POINT ( 'NONE',  ( 0.000000000000000000, 2.500000000000000000, -0.3125000000000000000 ) ) ;
#246 = AXIS2_PLACEMENT_3D ( 'NONE', #152, #127, #229 ) ;
#247 = SURFACE_STYLE_USAGE ( .BOTH. , #4 ) ;
#248 = FILL_AREA_STYLE_COLOUR ( '', #204 ) ;
#249 = SURFACE_STYLE_USAGE ( .BOTH. , #50 ) ;
#250 = CARTESIAN_POINT ( 'NONE',  ( -0.3125000000000000000, 2.500000000000000000, 0.000000000000000000 ) ) ;
#251 = DIRECTION ( 'NONE',  ( -1.000000000000000000, -4.898587196589412459E-17, 0.000000000000000000 ) ) ;
#252 = AXIS2_PLACEMENT_3D ( 'NONE', #145, #90, #197 ) ;
#253 = EDGE_CURVE ( 'NONE', #101, #26, #27, .T. ) ;
#254 = SURFACE_STYLE_USAGE ( .BOTH. , #96 ) ;
#255 = DIRECTION ( 'NONE',  ( 0.000000000000000000, 0.000000000000000000, 1.000000000000000000 ) ) ;
#256 = VERTEX_POINT ( 'NONE', #111 ) ;
#257 = CARTESIAN_POINT ( 'NONE',  ( -0.3125000000000002776, 5.000000000000000000, 0.000000000000000000 ) ) ;
#258 = SURFACE_STYLE_FILL_AREA ( #215 ) ;
#259 = CARTESIAN_POINT ( 'NONE',  ( 1.516480271171051896E-32, 2.500000000000000000, 0.000000000000000000 ) ) ;
#260 =( GEOMETRIC_REPRESENTATION_CONTEXT ( 3 ) GLOBAL_UNCERTAINTY_ASSIGNED_CONTEXT ( ( #242 ) ) GLOBAL_UNIT_ASSIGNED_CONTEXT ( ( #195, #119, #51 ) ) REPRESENTATION_CONTEXT ( 'NONE', 'WORKASPACE' ) );
#261 = PRESENTATION_LAYER_ASSIGNMENT (  '', '', ( #171 ) ) ;
#262 = ORIENTED_EDGE ( 'NONE', *, *, #292, .F. ) ;
#263 =( LENGTH_UNIT ( ) NAMED_UNIT ( * ) SI_UNIT ( $, .METRE. ) );
#264 = DIRECTION ( 'NONE',  ( 1.000000000000000000, 4.898587196589412459E-17, 0.000000000000000000 ) ) ;
#265 = MANIFOLD_SOLID_BREP ( 'Revolve - Tool Body (Straight Shanked)', #169 ) ;
#266 = DIRECTION ( 'NONE',  ( -0.000000000000000000, -1.000000000000000000, -0.000000000000000000 ) ) ;
#267 = FILL_AREA_STYLE_COLOUR ( '', #183 ) ;
#268 = MECHANICAL_DESIGN_GEOMETRIC_PRESENTATION_REPRESENTATION (  '', ( #81 ), #272 ) ;
#269 = SURFACE_SIDE_STYLE ('',( #117 ) ) ;
#270 = FILL_AREA_STYLE ('',( #248 ) ) ;
#271 = PRESENTATION_STYLE_ASSIGNMENT (( #249 ) ) ;
#272 =( GEOMETRIC_REPRESENTATION_CONTEXT ( 3 ) GLOBAL_UNCERTAINTY_ASSIGNED_CONTEXT ( ( #74 ) ) GLOBAL_UNIT_ASSIGNED_CONTEXT ( ( #113, #172, #174 ) ) REPRESENTATION_CONTEXT ( 'NONE', 'WORKASPACE' ) );
#273 = PRESENTATION_STYLE_ASSIGNMENT (( #247 ) ) ;
#274 = VERTEX_POINT ( 'NONE', #42 ) ;
#275 =( NAMED_UNIT ( * ) PLANE_ANGLE_UNIT ( ) SI_UNIT ( $, .RADIAN. ) );
#276 = CARTESIAN_POINT ( 'NONE',  ( 1.516480271171051896E-32, 2.500000000000000000, 0.000000000000000000 ) ) ;
#277 = FACE_OUTER_BOUND ( 'NONE', #228, .T. ) ;
#278 = DIRECTION ( 'NONE',  ( -4.898587196589413075E-17, 1.000000000000000000, -0.000000000000000000 ) ) ;
#279 = ORIENTED_EDGE ( 'NONE', *, *, #253, .T. ) ;
#280 = ORIENTED_EDGE ( 'NONE', *, *, #193, .F. ) ;
#281 = EDGE_CURVE ( 'NONE', #26, #160, #88, .T. ) ;
#282 = FACE_OUTER_BOUND ( 'NONE', #206, .T. ) ;
#283 = VERTEX_POINT ( 'NONE', #134 ) ;
#284 =( NAMED_UNIT ( * ) SI_UNIT ( $, .STERADIAN. ) SOLID_ANGLE_UNIT ( ) );
#285 = DIRECTION ( 'NONE',  ( -0.000000000000000000, -1.000000000000000000, -0.000000000000000000 ) ) ;
#286 = EDGE_LOOP ( 'NONE', ( #279, #309, #62, #211 ) ) ;
#287 = CYLINDRICAL_SURFACE ( 'NONE', #252, 0.3125000000000000000 ) ;
#288 = STYLED_ITEM ( 'NONE', ( #125 ), #75 ) ;
#289 = FACE_OUTER_BOUND ( 'NONE', #286, .T. ) ;
#290 = ORIENTED_EDGE ( 'NONE', *, *, #193, .T. ) ;
#291 = DIRECTION ( 'NONE',  ( -1.000000000000000000, 0.000000000000000000, 0.000000000000000000 ) ) ;
#292 = EDGE_CURVE ( 'NONE', #283, #294, #196, .T. ) ;
#293 = EDGE_CURVE ( 'NONE', #101, #256, #153, .T. ) ;
#294 = VERTEX_POINT ( 'NONE', #257 ) ;
#295 =( NAMED_UNIT ( * ) PLANE_ANGLE_UNIT ( ) SI_UNIT ( $, .RADIAN. ) );
#296 = LENGTH_MEASURE_WITH_UNIT ( LENGTH_MEASURE( 0.02539999999999999897 ), #91 );
#297 = PRESENTATION_LAYER_ASSIGNMENT (  '', '', ( #81 ) ) ;
#298 =( GEOMETRIC_REPRESENTATION_CONTEXT ( 3 ) GLOBAL_UNCERTAINTY_ASSIGNED_CONTEXT ( ( #214 ) ) GLOBAL_UNIT_ASSIGNED_CONTEXT ( ( #86, #295, #146 ) ) REPRESENTATION_CONTEXT ( 'NONE', 'WORKASPACE' ) );
#299 = CYLINDRICAL_SURFACE ( 'NONE', #246, 0.3125000000000000000 ) ;
#300 = CYLINDRICAL_SURFACE ( 'NONE', #44, 0.3125000000000000555 ) ;
#301 = EDGE_LOOP ( 'NONE', ( #303, #5, #167, #236 ) ) ;
#302 = APPLICATION_PROTOCOL_DEFINITION ( 'draft international standard', 'automotive_design', 1998, #83 ) ;
#303 = ORIENTED_EDGE ( 'NONE', *, *, #281, .F. ) ;
#304 = CARTESIAN_POINT ( 'NONE',  ( 0.000000000000000000, 0.000000000000000000, 0.000000000000000000 ) ) ;
#305 = ADVANCED_FACE ( 'NONE', ( #129 ), #158, .F. ) ;
#306 = EDGE_CURVE ( 'NONE', #11, #294, #123, .T. ) ;
#307 = COLOUR_RGB ( '',0.7921568627450980005, 0.8196078431372548767, 0.9333333333333333481 ) ;
#308 = DIMENSIONAL_EXPONENTS ( 1.000000000000000000, 0.000000000000000000, 0.000000000000000000, 0.000000000000000000, 0.000000000000000000, 0.000000000000000000, 0.000000000000000000 ) ;
#309 = ORIENTED_EDGE ( 'NONE', *, *, #281, .T. ) ;
ENDSEC;
END-ISO-10303-21;
