ISO-10303-21;
HEADER;
FILE_DESCRIPTION (( 'STEP AP214' ),
    '1' );
FILE_NAME ('Micro_SFA-062-22.STEP',
    '2021-09-02T03:33:01',
    ( '' ),
    ( '' ),
    'SwSTEP 2.0',
    'SolidWorks 2020',
    '' );
FILE_SCHEMA (( 'AUTOMOTIVE_DESIGN' ));
ENDSEC;

DATA;
#1 = DIRECTION ( 'NONE',  ( 0.0000000000000000000, 0.0000000000000000000, 1.000000000000000000 ) ) ;
#2 = EDGE_LOOP ( 'NONE', ( #196, #58, #81, #192 ) ) ;
#3 = CIRCLE ( 'NONE', #59, 0.03121874999999999650 ) ;
#4 =( LENGTH_UNIT ( ) NAMED_UNIT ( * ) SI_UNIT ( $, .METRE. ) );
#5 = ORIENTED_EDGE ( 'NONE', *, *, #24, .F. ) ;
#6 = DIRECTION ( 'NONE',  ( -1.000000000000000000, 0.0000000000000000000, 1.224646799147353454E-16 ) ) ;
#7 = ORIENTED_EDGE ( 'NONE', *, *, #193, .T. ) ;
#8 = STYLED_ITEM ( 'NONE', ( #80 ), #265 ) ;
#9 = DIRECTION ( 'NONE',  ( 0.7071067811865462405, 8.659560562354916834E-17, -0.7071067811865486830 ) ) ;
#10 = DIRECTION ( 'NONE',  ( 1.000000000000000000, 0.0000000000000000000, 0.0000000000000000000 ) ) ;
#11 = LINE ( 'NONE', #159, #14 ) ;
#12 = ORIENTED_EDGE ( 'NONE', *, *, #26, .F. ) ;
#13 = EDGE_CURVE ( 'NONE', #286, #33, #181, .T. ) ;
#14 = VECTOR ( 'NONE', #9, 39.37007874015748854 ) ;
#15 = CIRCLE ( 'NONE', #186, 0.03121874999999999997 ) ;
#16 = ORIENTED_EDGE ( 'NONE', *, *, #173, .T. ) ;
#17 = CYLINDRICAL_SURFACE ( 'NONE', #289, 0.06250000000000002776 ) ;
#18 = ADVANCED_FACE ( 'NONE', ( #269 ), #235, .T. ) ;
#19 = SURFACE_STYLE_USAGE ( .BOTH. , #163 ) ;
#20 = AXIS2_PLACEMENT_3D ( 'NONE', #162, #70, #118 ) ;
#21 = DIRECTION ( 'NONE',  ( -1.000000000000000000, 0.0000000000000000000, 0.0000000000000000000 ) ) ;
#22 = STYLED_ITEM ( 'NONE', ( #232 ), #237 ) ;
#23 = DIRECTION ( 'NONE',  ( 1.000000000000000000, 0.0000000000000000000, 0.0000000000000000000 ) ) ;
#24 = EDGE_CURVE ( 'NONE', #134, #261, #11, .T. ) ;
#25 = LINE ( 'NONE', #279, #92 ) ;
#26 = EDGE_CURVE ( 'NONE', #175, #30, #42, .T. ) ;
#27 = CARTESIAN_POINT ( 'NONE',  ( 0.0000000000000000000, 0.0000000000000000000, 1.485000000000000764 ) ) ;
#28 = ORIENTED_EDGE ( 'NONE', *, *, #190, .F. ) ;
#29 = AXIS2_PLACEMENT_3D ( 'NONE', #47, #164, #293 ) ;
#30 = VERTEX_POINT ( 'NONE', #68 ) ;
#31 = ADVANCED_FACE ( 'NONE', ( #205 ), #17, .T. ) ;
#32 = UNCERTAINTY_MEASURE_WITH_UNIT (LENGTH_MEASURE( 1.000000000000000082E-05 ), #46, 'distance_accuracy_value', 'NONE');
#33 = VERTEX_POINT ( 'NONE', #115 ) ;
#34 = EDGE_LOOP ( 'NONE', ( #292, #7, #239, #28 ) ) ;
#35 = VECTOR ( 'NONE', #244, 39.37007874015748143 ) ;
#36 = APPLICATION_PROTOCOL_DEFINITION ( 'draft international standard', 'automotive_design', 1998, #100 ) ;
#37 = CARTESIAN_POINT ( 'NONE',  ( 0.0000000000000000000, 0.0000000000000000000, 1.500000000000000222 ) ) ;
#38 =( NAMED_UNIT ( * ) SI_UNIT ( $, .STERADIAN. ) SOLID_ANGLE_UNIT ( ) );
#39 = PRODUCT_DEFINITION ( 'UNKNOWN', '', #268, #236 ) ;
#40 = ORIENTED_EDGE ( 'NONE', *, *, #73, .T. ) ;
#41 = DIRECTION ( 'NONE',  ( -1.000000000000000000, 0.0000000000000000000, 0.0000000000000000000 ) ) ;
#42 = CIRCLE ( 'NONE', #161, 0.06250000000000002776 ) ;
#43 = AXIS2_PLACEMENT_3D ( 'NONE', #60, #1, #128 ) ;
#44 = DIRECTION ( 'NONE',  ( -1.000000000000000000, 0.0000000000000000000, 0.0000000000000000000 ) ) ;
#45 = CARTESIAN_POINT ( 'NONE',  ( 0.0000000000000000000, 0.0000000000000000000, 1.500000000000000222 ) ) ;
#46 =( CONVERSION_BASED_UNIT ( 'INCH', #207 ) LENGTH_UNIT ( ) NAMED_UNIT ( #169 ) );
#47 = CARTESIAN_POINT ( 'NONE',  ( 3.061616997868383634E-17, 0.0000000000000000000, 0.2500000000000000000 ) ) ;
#48 = FILL_AREA_STYLE_COLOUR ( '', #298 ) ;
#49 = UNCERTAINTY_MEASURE_WITH_UNIT (LENGTH_MEASURE( 1.000000000000000082E-05 ), #264, 'distance_accuracy_value', 'NONE');
#50 = CARTESIAN_POINT ( 'NONE',  ( 3.061616997868383634E-17, 0.0000000000000000000, 0.2500000000000000000 ) ) ;
#51 = CARTESIAN_POINT ( 'NONE',  ( -0.03121874999999997222, 3.823194226088143687E-18, 0.2500000000000000000 ) ) ;
#52 = MECHANICAL_DESIGN_GEOMETRIC_PRESENTATION_REPRESENTATION (  '', ( #22 ), #157 ) ;
#53 = UNCERTAINTY_MEASURE_WITH_UNIT (LENGTH_MEASURE( 1.000000000000000082E-05 ), #104, 'distance_accuracy_value', 'NONE');
#54 = PRODUCT_DEFINITION_SHAPE ( 'NONE', 'NONE',  #39 ) ;
#55 =( LENGTH_UNIT ( ) NAMED_UNIT ( * ) SI_UNIT ( $, .METRE. ) );
#56 = ORIENTED_EDGE ( 'NONE', *, *, #277, .F. ) ;
#57 = ORIENTED_EDGE ( 'NONE', *, *, #13, .T. ) ;
#58 = ORIENTED_EDGE ( 'NONE', *, *, #243, .T. ) ;
#59 = AXIS2_PLACEMENT_3D ( 'NONE', #65, #95, #71 ) ;
#60 = CARTESIAN_POINT ( 'NONE',  ( 0.0000000000000000000, 0.0000000000000000000, 1.500000000000000222 ) ) ;
#61 = ORIENTED_EDGE ( 'NONE', *, *, #218, .F. ) ;
#62 = ORIENTED_EDGE ( 'NONE', *, *, #112, .T. ) ;
#63 = FACE_OUTER_BOUND ( 'NONE', #212, .T. ) ;
#64 = DIRECTION ( 'NONE',  ( -1.000000000000000000, 0.0000000000000000000, 0.0000000000000000000 ) ) ;
#65 = CARTESIAN_POINT ( 'NONE',  ( 4.682062571497488738E-34, 0.0000000000000000000, 3.823194226088143687E-18 ) ) ;
#66 = APPLICATION_CONTEXT ( 'automotive_design' ) ;
#67 = ADVANCED_FACE ( 'NONE', ( #291 ), #208, .T. ) ;
#68 = CARTESIAN_POINT ( 'NONE',  ( 0.06250000000000008327, 7.654042494670966789E-18, 0.4274047844199155288 ) ) ;
#69 = AXIS2_PLACEMENT_3D ( 'NONE', #171, #242, #6 ) ;
#70 = DIRECTION ( 'NONE',  ( 0.0000000000000000000, 0.0000000000000000000, -1.000000000000000000 ) ) ;
#71 = DIRECTION ( 'NONE',  ( -1.000000000000000000, 0.0000000000000000000, 1.224646799147353454E-16 ) ) ;
#72 = DIRECTION ( 'NONE',  ( 1.000000000000000000, 0.0000000000000000000, 0.0000000000000000000 ) ) ;
#73 = EDGE_CURVE ( 'NONE', #261, #30, #93, .T. ) ;
#74 = CIRCLE ( 'NONE', #137, 0.03121874999999999997 ) ;
#75 = CARTESIAN_POINT ( 'NONE',  ( -0.06249999999999997224, 0.0000000000000000000, 0.4274047844199155288 ) ) ;
#76 = AXIS2_PLACEMENT_3D ( 'NONE', #120, #166, #142 ) ;
#77 = DIRECTION ( 'NONE',  ( 0.0000000000000000000, 0.0000000000000000000, 1.000000000000000000 ) ) ;
#78 = CARTESIAN_POINT ( 'NONE',  ( 0.0000000000000000000, 0.0000000000000000000, 1.500000000000000222 ) ) ;
#79 = ORIENTED_EDGE ( 'NONE', *, *, #193, .F. ) ;
#80 = PRESENTATION_STYLE_ASSIGNMENT (( #258 ) ) ;
#81 = ORIENTED_EDGE ( 'NONE', *, *, #26, .T. ) ;
#82 = ADVANCED_FACE ( 'NONE', ( #160 ), #136, .T. ) ;
#83 = DIRECTION ( 'NONE',  ( 1.000000000000000000, 0.0000000000000000000, -0.0000000000000000000 ) ) ;
#84 = EDGE_LOOP ( 'NONE', ( #16, #62, #263, #88 ) ) ;
#85 = VERTEX_POINT ( 'NONE', #245 ) ;
#86 = AXIS2_PLACEMENT_3D ( 'NONE', #27, #285, #194 ) ;
#87 = SURFACE_STYLE_FILL_AREA ( #211 ) ;
#88 = ORIENTED_EDGE ( 'NONE', *, *, #130, .F. ) ;
#89 = DIRECTION ( 'NONE',  ( -0.0000000000000000000, -0.0000000000000000000, -1.000000000000000000 ) ) ;
#90 = ADVANCED_FACE ( 'NONE', ( #227 ), #183, .T. ) ;
#91 = ORIENTED_EDGE ( 'NONE', *, *, #243, .F. ) ;
#92 = VECTOR ( 'NONE', #278, 39.37007874015748143 ) ;
#93 = LINE ( 'NONE', #158, #35 ) ;
#94 = EDGE_CURVE ( 'NONE', #85, #30, #287, .T. ) ;
#95 = DIRECTION ( 'NONE',  ( -1.224646799147353454E-16, -0.0000000000000000000, -1.000000000000000000 ) ) ;
#96 = FACE_OUTER_BOUND ( 'NONE', #283, .T. ) ;
#97 = ADVANCED_FACE ( 'NONE', ( #63 ), #180, .T. ) ;
#98 =( LENGTH_UNIT ( ) NAMED_UNIT ( * ) SI_UNIT ( $, .METRE. ) );
#99 = CONICAL_SURFACE ( 'NONE', #29, 0.03121874999999999997, 0.1745329251994339470 ) ;
#100 = APPLICATION_CONTEXT ( 'automotive_design' ) ;
#101 = PRODUCT_RELATED_PRODUCT_CATEGORY ( 'part', '', ( #233 ) ) ;
#102 = DIRECTION ( 'NONE',  ( 0.0000000000000000000, 0.0000000000000000000, -1.000000000000000000 ) ) ;
#103 = ORIENTED_EDGE ( 'NONE', *, *, #218, .T. ) ;
#104 =( CONVERSION_BASED_UNIT ( 'INCH', #106 ) LENGTH_UNIT ( ) NAMED_UNIT ( #282 ) );
#105 = ORIENTED_EDGE ( 'NONE', *, *, #24, .T. ) ;
#106 = LENGTH_MEASURE_WITH_UNIT ( LENGTH_MEASURE( 0.02539999999999999897 ), #4 );
#107 = ORIENTED_EDGE ( 'NONE', *, *, #122, .T. ) ;
#108 =( NAMED_UNIT ( * ) PLANE_ANGLE_UNIT ( ) SI_UNIT ( $, .RADIAN. ) );
#109 = EDGE_LOOP ( 'NONE', ( #61, #105, #56, #170 ) ) ;
#110 = CARTESIAN_POINT ( 'NONE',  ( 3.061616997868383634E-17, 0.0000000000000000000, 0.2500000000000000000 ) ) ;
#111 = ORIENTED_EDGE ( 'NONE', *, *, #253, .F. ) ;
#112 = EDGE_CURVE ( 'NONE', #85, #127, #199, .T. ) ;
#113 = DIRECTION ( 'NONE',  ( -1.224646799147353454E-16, -0.0000000000000000000, -1.000000000000000000 ) ) ;
#114 = DIRECTION ( 'NONE',  ( -1.000000000000000000, 0.0000000000000000000, 1.224646799147353454E-16 ) ) ;
#115 = CARTESIAN_POINT ( 'NONE',  ( -0.06250000000000002776, 0.0000000000000000000, 1.485000000000000764 ) ) ;
#116 = CIRCLE ( 'NONE', #276, 0.06250000000000002776 ) ;
#117 = EDGE_LOOP ( 'NONE', ( #217, #103 ) ) ;
#118 = DIRECTION ( 'NONE',  ( -1.000000000000000000, 0.0000000000000000000, 0.0000000000000000000 ) ) ;
#119 = PRESENTATION_LAYER_ASSIGNMENT (  '', '', ( #22 ) ) ;
#120 = CARTESIAN_POINT ( 'NONE',  ( 0.0000000000000000000, 0.0000000000000000000, 1.500000000000000222 ) ) ;
#121 =( NAMED_UNIT ( * ) PLANE_ANGLE_UNIT ( ) SI_UNIT ( $, .RADIAN. ) );
#122 = EDGE_CURVE ( 'NONE', #127, #272, #3, .T. ) ;
#123 = CARTESIAN_POINT ( 'NONE',  ( 0.04750000000000064587, 6.735557395310483192E-18, 1.500000000000000222 ) ) ;
#124 = AXIS2_PLACEMENT_3D ( 'NONE', #197, #223, #10 ) ;
#125 = FACE_OUTER_BOUND ( 'NONE', #117, .T. ) ;
#126 = PLANE ( 'NONE',  #209 ) ;
#127 = VERTEX_POINT ( 'NONE', #295 ) ;
#128 = DIRECTION ( 'NONE',  ( 1.000000000000000000, 0.0000000000000000000, -0.0000000000000000000 ) ) ;
#129 = CIRCLE ( 'NONE', #201, 0.04750000000000064587 ) ;
#130 = EDGE_CURVE ( 'NONE', #176, #272, #25, .T. ) ;
#131 = ORIENTED_EDGE ( 'NONE', *, *, #277, .T. ) ;
#132 = FACE_OUTER_BOUND ( 'NONE', #153, .T. ) ;
#133 = ADVANCED_FACE ( 'NONE', ( #96 ), #99, .T. ) ;
#134 = VERTEX_POINT ( 'NONE', #123 ) ;
#135 = CARTESIAN_POINT ( 'NONE',  ( 0.03121875000000003120, 0.0000000000000000000, 0.2500000000000000000 ) ) ;
#136 = CYLINDRICAL_SURFACE ( 'NONE', #213, 0.06250000000000002776 ) ;
#137 = AXIS2_PLACEMENT_3D ( 'NONE', #255, #274, #21 ) ;
#138 = CIRCLE ( 'NONE', #76, 0.04750000000000064587 ) ;
#139 = DIRECTION ( 'NONE',  ( -0.0000000000000000000, -0.0000000000000000000, -1.000000000000000000 ) ) ;
#140 = CARTESIAN_POINT ( 'NONE',  ( 0.0000000000000000000, 0.0000000000000000000, 0.0000000000000000000 ) ) ;
#141 = VECTOR ( 'NONE', #270, 39.37007874015748143 ) ;
#142 = DIRECTION ( 'NONE',  ( 1.000000000000000000, 0.0000000000000000000, 0.0000000000000000000 ) ) ;
#143 = FILL_AREA_STYLE ('',( #48 ) ) ;
#144 = AXIS2_PLACEMENT_3D ( 'NONE', #140, #113, #198 ) ;
#145 = COLOUR_RGB ( '',0.7921568627450980005, 0.8196078431372548767, 0.9333333333333333481 ) ;
#146 = ORIENTED_EDGE ( 'NONE', *, *, #253, .T. ) ;
#147 = EDGE_CURVE ( 'NONE', #286, #134, #129, .T. ) ;
#148 = CARTESIAN_POINT ( 'NONE',  ( 0.06250000000000002776, 7.654042494670959086E-18, 1.485000000000000764 ) ) ;
#149 = ORIENTED_EDGE ( 'NONE', *, *, #297, .T. ) ;
#150 = CARTESIAN_POINT ( 'NONE',  ( -0.03121874999999999650, 0.0000000000000000000, 7.646388452176287375E-18 ) ) ;
#151 = CLOSED_SHELL ( 'NONE', ( #90, #182, #67, #31, #82, #246, #18, #133, #97, #266 ) ) ;
#152 = CONICAL_SURFACE ( 'NONE', #240, 0.03121874999999999997, 0.1745329251994339470 ) ;
#153 = EDGE_LOOP ( 'NONE', ( #149, #107 ) ) ;
#154 = PLANE ( 'NONE',  #43 ) ;
#155 = ORIENTED_EDGE ( 'NONE', *, *, #190, .T. ) ;
#156 = CARTESIAN_POINT ( 'NONE',  ( 0.0000000000000000000, 0.0000000000000000000, 0.0000000000000000000 ) ) ;
#157 =( GEOMETRIC_REPRESENTATION_CONTEXT ( 3 ) GLOBAL_UNCERTAINTY_ASSIGNED_CONTEXT ( ( #32 ) ) GLOBAL_UNIT_ASSIGNED_CONTEXT ( ( #46, #121, #275 ) ) REPRESENTATION_CONTEXT ( 'NONE', 'WORKASPACE' ) );
#158 = CARTESIAN_POINT ( 'NONE',  ( 0.06250000000000002776, 7.654042494670959086E-18, 1.500000000000000222 ) ) ;
#159 = CARTESIAN_POINT ( 'NONE',  ( 0.04750000000000064587, 5.817072295950006528E-18, 1.500000000000000222 ) ) ;
#160 = FACE_OUTER_BOUND ( 'NONE', #34, .T. ) ;
#161 = AXIS2_PLACEMENT_3D ( 'NONE', #247, #271, #177 ) ;
#162 = CARTESIAN_POINT ( 'NONE',  ( 0.0000000000000000000, 0.0000000000000000000, 1.500000000000000222 ) ) ;
#163 = SURFACE_SIDE_STYLE ('',( #228 ) ) ;
#164 = DIRECTION ( 'NONE',  ( 1.224646799147353454E-16, 0.0000000000000000000, 1.000000000000000000 ) ) ;
#165 = CARTESIAN_POINT ( 'NONE',  ( 0.0000000000000000000, 0.0000000000000000000, 1.485000000000000764 ) ) ;
#166 = DIRECTION ( 'NONE',  ( 0.0000000000000000000, 0.0000000000000000000, 1.000000000000000000 ) ) ;
#167 = ORIENTED_EDGE ( 'NONE', *, *, #147, .F. ) ;
#168 =( NAMED_UNIT ( * ) PLANE_ANGLE_UNIT ( ) SI_UNIT ( $, .RADIAN. ) );
#169 = DIMENSIONAL_EXPONENTS ( 1.000000000000000000, 0.0000000000000000000, 0.0000000000000000000, 0.0000000000000000000, 0.0000000000000000000, 0.0000000000000000000, 0.0000000000000000000 ) ;
#170 = ORIENTED_EDGE ( 'NONE', *, *, #13, .F. ) ;
#171 = CARTESIAN_POINT ( 'NONE',  ( 4.682062571497488738E-34, 0.0000000000000000000, 3.823194226088143687E-18 ) ) ;
#172 = APPLICATION_PROTOCOL_DEFINITION ( 'draft international standard', 'automotive_design', 1998, #66 ) ;
#173 = EDGE_CURVE ( 'NONE', #176, #85, #74, .T. ) ;
#174 = CIRCLE ( 'NONE', #86, 0.06250000000000002776 ) ;
#175 = VERTEX_POINT ( 'NONE', #75 ) ;
#176 = VERTEX_POINT ( 'NONE', #231 ) ;
#177 = DIRECTION ( 'NONE',  ( 1.000000000000000000, 0.0000000000000000000, 0.0000000000000000000 ) ) ;
#178 = ORIENTED_EDGE ( 'NONE', *, *, #122, .F. ) ;
#179 = AXIS2_PLACEMENT_3D ( 'NONE', #45, #288, #41 ) ;
#180 = CYLINDRICAL_SURFACE ( 'NONE', #229, 0.03121874999999999650 ) ;
#181 = LINE ( 'NONE', #252, #185 ) ;
#182 = ADVANCED_FACE ( 'NONE', ( #206 ), #152, .T. ) ;
#183 = CYLINDRICAL_SURFACE ( 'NONE', #144, 0.03121874999999999650 ) ;
#184 = DIRECTION ( 'NONE',  ( 1.000000000000000000, 0.0000000000000000000, 0.0000000000000000000 ) ) ;
#185 = VECTOR ( 'NONE', #200, 39.37007874015748854 ) ;
#186 = AXIS2_PLACEMENT_3D ( 'NONE', #110, #216, #280 ) ;
#187 = CARTESIAN_POINT ( 'NONE',  ( -0.06250000000000002776, 0.0000000000000000000, 1.500000000000000222 ) ) ;
#188 = CARTESIAN_POINT ( 'NONE',  ( 5.234199011801142468E-17, 0.0000000000000000000, 0.4274047844199155288 ) ) ;
#189 =( NAMED_UNIT ( * ) SI_UNIT ( $, .STERADIAN. ) SOLID_ANGLE_UNIT ( ) );
#190 = EDGE_CURVE ( 'NONE', #30, #175, #116, .T. ) ;
#191 =( GEOMETRIC_REPRESENTATION_CONTEXT ( 3 ) GLOBAL_UNCERTAINTY_ASSIGNED_CONTEXT ( ( #49 ) ) GLOBAL_UNIT_ASSIGNED_CONTEXT ( ( #264, #168, #38 ) ) REPRESENTATION_CONTEXT ( 'NONE', 'WORKASPACE' ) );
#192 = ORIENTED_EDGE ( 'NONE', *, *, #94, .F. ) ;
#193 = EDGE_CURVE ( 'NONE', #261, #33, #290, .T. ) ;
#194 = DIRECTION ( 'NONE',  ( 1.000000000000000000, 0.0000000000000000000, 0.0000000000000000000 ) ) ;
#195 = FILL_AREA_STYLE_COLOUR ( '', #145 ) ;
#196 = ORIENTED_EDGE ( 'NONE', *, *, #173, .F. ) ;
#197 = CARTESIAN_POINT ( 'NONE',  ( 0.0000000000000000000, 0.0000000000000000000, 0.0000000000000000000 ) ) ;
#198 = DIRECTION ( 'NONE',  ( -1.000000000000000000, 0.0000000000000000000, 1.224646799147353454E-16 ) ) ;
#199 = LINE ( 'NONE', #226, #141 ) ;
#200 = DIRECTION ( 'NONE',  ( -0.7071067811865462405, 0.0000000000000000000, -0.7071067811865486830 ) ) ;
#201 = AXIS2_PLACEMENT_3D ( 'NONE', #78, #77, #184 ) ;
#202 = AXIS2_PLACEMENT_3D ( 'NONE', #165, #102, #254 ) ;
#203 = ORIENTED_EDGE ( 'NONE', *, *, #94, .T. ) ;
#204 = EDGE_CURVE ( 'NONE', #33, #175, #299, .T. ) ;
#205 = FACE_OUTER_BOUND ( 'NONE', #284, .T. ) ;
#206 = FACE_OUTER_BOUND ( 'NONE', #2, .T. ) ;
#207 = LENGTH_MEASURE_WITH_UNIT ( LENGTH_MEASURE( 0.02539999999999999897 ), #98 );
#208 = CONICAL_SURFACE ( 'NONE', #20, 0.04750000000000064587, 0.7853981633974466137 ) ;
#209 = AXIS2_PLACEMENT_3D ( 'NONE', #220, #259, #83 ) ;
#210 = DIRECTION ( 'NONE',  ( -0.1736481776669312194, 2.126576849575783625E-17, 0.9848077530122077983 ) ) ;
#211 = FILL_AREA_STYLE ('',( #195 ) ) ;
#212 = EDGE_LOOP ( 'NONE', ( #222, #146, #281, #178 ) ) ;
#213 = AXIS2_PLACEMENT_3D ( 'NONE', #249, #89, #44 ) ;
#214 = DIMENSIONAL_EXPONENTS ( 1.000000000000000000, 0.0000000000000000000, 0.0000000000000000000, 0.0000000000000000000, 0.0000000000000000000, 0.0000000000000000000, 0.0000000000000000000 ) ;
#215 = VECTOR ( 'NONE', #210, 39.37007874015748143 ) ;
#216 = DIRECTION ( 'NONE',  ( -1.224646799147353454E-16, -0.0000000000000000000, -1.000000000000000000 ) ) ;
#217 = ORIENTED_EDGE ( 'NONE', *, *, #147, .T. ) ;
#218 = EDGE_CURVE ( 'NONE', #134, #286, #138, .T. ) ;
#219 = SURFACE_SIDE_STYLE ('',( #87 ) ) ;
#220 = CARTESIAN_POINT ( 'NONE',  ( 0.0000000000000000000, 0.0000000000000000000, 0.0000000000000000000 ) ) ;
#221 = PRESENTATION_LAYER_ASSIGNMENT (  '', '', ( #8 ) ) ;
#222 = ORIENTED_EDGE ( 'NONE', *, *, #112, .F. ) ;
#223 = DIRECTION ( 'NONE',  ( 0.0000000000000000000, 0.0000000000000000000, 1.000000000000000000 ) ) ;
#224 = DIRECTION ( 'NONE',  ( -1.224646799147353454E-16, -0.0000000000000000000, -1.000000000000000000 ) ) ;
#225 = PRODUCT_CONTEXT ( 'NONE', #66, 'mechanical' ) ;
#226 = CARTESIAN_POINT ( 'NONE',  ( 0.03121874999999999650, 3.823194226088142917E-18, -3.823194226088143687E-18 ) ) ;
#227 = FACE_OUTER_BOUND ( 'NONE', #84, .T. ) ;
#228 = SURFACE_STYLE_FILL_AREA ( #143 ) ;
#229 = AXIS2_PLACEMENT_3D ( 'NONE', #156, #224, #114 ) ;
#230 = CIRCLE ( 'NONE', #69, 0.03121874999999999650 ) ;
#231 = CARTESIAN_POINT ( 'NONE',  ( -0.03121874999999997222, 5.738618360379551386E-18, 0.2500000000000000000 ) ) ;
#232 = PRESENTATION_STYLE_ASSIGNMENT (( #19 ) ) ;
#233 = PRODUCT ( 'Micro_SFA-062-22', 'Micro_SFA-062-22', '', ( #225 ) ) ;
#234 = LINE ( 'NONE', #51, #215 ) ;
#235 = CONICAL_SURFACE ( 'NONE', #179, 0.04750000000000064587, 0.7853981633974466137 ) ;
#236 = PRODUCT_DEFINITION_CONTEXT ( 'detailed design', #100, 'design' ) ;
#237 = MANIFOLD_SOLID_BREP ( 'Cut-Revolve1', #151 ) ;
#238 = CARTESIAN_POINT ( 'NONE',  ( -0.04750000000000064587, 0.0000000000000000000, 1.500000000000000222 ) ) ;
#239 = ORIENTED_EDGE ( 'NONE', *, *, #204, .T. ) ;
#240 = AXIS2_PLACEMENT_3D ( 'NONE', #50, #257, #23 ) ;
#241 = ORIENTED_EDGE ( 'NONE', *, *, #204, .F. ) ;
#242 = DIRECTION ( 'NONE',  ( -1.224646799147353454E-16, -0.0000000000000000000, -1.000000000000000000 ) ) ;
#243 = EDGE_CURVE ( 'NONE', #176, #175, #234, .T. ) ;
#244 = DIRECTION ( 'NONE',  ( -0.0000000000000000000, -0.0000000000000000000, -1.000000000000000000 ) ) ;
#245 = CARTESIAN_POINT ( 'NONE',  ( 0.03121875000000003120, 0.0000000000000000000, 0.2500000000000000000 ) ) ;
#246 = ADVANCED_FACE ( 'NONE', ( #125 ), #154, .T. ) ;
#247 = CARTESIAN_POINT ( 'NONE',  ( 5.234199011801142468E-17, 0.0000000000000000000, 0.4274047844199155288 ) ) ;
#248 = SHAPE_DEFINITION_REPRESENTATION ( #54, #265 ) ;
#249 = CARTESIAN_POINT ( 'NONE',  ( 0.0000000000000000000, 0.0000000000000000000, 1.500000000000000222 ) ) ;
#250 = VECTOR ( 'NONE', #267, 39.37007874015748143 ) ;
#251 = MECHANICAL_DESIGN_GEOMETRIC_PRESENTATION_REPRESENTATION (  '', ( #8 ), #191 ) ;
#252 = CARTESIAN_POINT ( 'NONE',  ( -0.04750000000000064587, 0.0000000000000000000, 1.500000000000000222 ) ) ;
#253 = EDGE_CURVE ( 'NONE', #85, #176, #15, .T. ) ;
#254 = DIRECTION ( 'NONE',  ( 1.000000000000000000, 0.0000000000000000000, 0.0000000000000000000 ) ) ;
#255 = CARTESIAN_POINT ( 'NONE',  ( 3.061616997868383634E-17, 0.0000000000000000000, 0.2500000000000000000 ) ) ;
#256 = DIRECTION ( 'NONE',  ( -0.0000000000000000000, -0.0000000000000000000, -1.000000000000000000 ) ) ;
#257 = DIRECTION ( 'NONE',  ( 1.224646799147353454E-16, 0.0000000000000000000, 1.000000000000000000 ) ) ;
#258 = SURFACE_STYLE_USAGE ( .BOTH. , #219 ) ;
#259 = DIRECTION ( 'NONE',  ( 0.0000000000000000000, 0.0000000000000000000, 1.000000000000000000 ) ) ;
#260 = EDGE_LOOP ( 'NONE', ( #5, #167, #57, #79 ) ) ;
#261 = VERTEX_POINT ( 'NONE', #148 ) ;
#262 = LENGTH_MEASURE_WITH_UNIT ( LENGTH_MEASURE( 0.02539999999999999897 ), #55 );
#263 = ORIENTED_EDGE ( 'NONE', *, *, #297, .F. ) ;
#264 =( CONVERSION_BASED_UNIT ( 'INCH', #262 ) LENGTH_UNIT ( ) NAMED_UNIT ( #214 ) );
#265 = ADVANCED_BREP_SHAPE_REPRESENTATION ( 'Micro_SFA-062-22', ( #237, #124 ), #273 ) ;
#266 = ADVANCED_FACE ( 'NONE', ( #132 ), #126, .F. ) ;
#267 = DIRECTION ( 'NONE',  ( 0.1736481776669314414, 0.0000000000000000000, 0.9848077530122077983 ) ) ;
#268 = PRODUCT_DEFINITION_FORMATION_WITH_SPECIFIED_SOURCE ( 'ANY', '', #233, .NOT_KNOWN. ) ;
#269 = FACE_OUTER_BOUND ( 'NONE', #260, .T. ) ;
#270 = DIRECTION ( 'NONE',  ( -1.224646799147353454E-16, -0.0000000000000000000, -1.000000000000000000 ) ) ;
#271 = DIRECTION ( 'NONE',  ( -1.224646799147353454E-16, -0.0000000000000000000, -1.000000000000000000 ) ) ;
#272 = VERTEX_POINT ( 'NONE', #150 ) ;
#273 =( GEOMETRIC_REPRESENTATION_CONTEXT ( 3 ) GLOBAL_UNCERTAINTY_ASSIGNED_CONTEXT ( ( #53 ) ) GLOBAL_UNIT_ASSIGNED_CONTEXT ( ( #104, #108, #189 ) ) REPRESENTATION_CONTEXT ( 'NONE', 'WORKASPACE' ) );
#274 = DIRECTION ( 'NONE',  ( -1.224646799147353454E-16, -0.0000000000000000000, -1.000000000000000000 ) ) ;
#275 =( NAMED_UNIT ( * ) SI_UNIT ( $, .STERADIAN. ) SOLID_ANGLE_UNIT ( ) );
#276 = AXIS2_PLACEMENT_3D ( 'NONE', #188, #296, #72 ) ;
#277 = EDGE_CURVE ( 'NONE', #33, #261, #174, .T. ) ;
#278 = DIRECTION ( 'NONE',  ( -1.224646799147353454E-16, -0.0000000000000000000, -1.000000000000000000 ) ) ;
#279 = CARTESIAN_POINT ( 'NONE',  ( -0.03121874999999999650, 0.0000000000000000000, 3.823194226088143687E-18 ) ) ;
#280 = DIRECTION ( 'NONE',  ( -1.000000000000000000, 0.0000000000000000000, 0.0000000000000000000 ) ) ;
#281 = ORIENTED_EDGE ( 'NONE', *, *, #130, .T. ) ;
#282 = DIMENSIONAL_EXPONENTS ( 1.000000000000000000, 0.0000000000000000000, 0.0000000000000000000, 0.0000000000000000000, 0.0000000000000000000, 0.0000000000000000000, 0.0000000000000000000 ) ;
#283 = EDGE_LOOP ( 'NONE', ( #91, #111, #203, #155 ) ) ;
#284 = EDGE_LOOP ( 'NONE', ( #131, #40, #12, #241 ) ) ;
#285 = DIRECTION ( 'NONE',  ( 0.0000000000000000000, 0.0000000000000000000, -1.000000000000000000 ) ) ;
#286 = VERTEX_POINT ( 'NONE', #238 ) ;
#287 = LINE ( 'NONE', #135, #250 ) ;
#288 = DIRECTION ( 'NONE',  ( 0.0000000000000000000, 0.0000000000000000000, -1.000000000000000000 ) ) ;
#289 = AXIS2_PLACEMENT_3D ( 'NONE', #37, #139, #64 ) ;
#290 = CIRCLE ( 'NONE', #202, 0.06250000000000002776 ) ;
#291 = FACE_OUTER_BOUND ( 'NONE', #109, .T. ) ;
#292 = ORIENTED_EDGE ( 'NONE', *, *, #73, .F. ) ;
#293 = DIRECTION ( 'NONE',  ( 1.000000000000000000, 0.0000000000000000000, 0.0000000000000000000 ) ) ;
#294 = VECTOR ( 'NONE', #256, 39.37007874015748143 ) ;
#295 = CARTESIAN_POINT ( 'NONE',  ( 0.03121874999999999650, 3.823194226088142917E-18, 0.0000000000000000000 ) ) ;
#296 = DIRECTION ( 'NONE',  ( -1.224646799147353454E-16, -0.0000000000000000000, -1.000000000000000000 ) ) ;
#297 = EDGE_CURVE ( 'NONE', #272, #127, #230, .T. ) ;
#298 = COLOUR_RGB ( '',0.7921568627450980005, 0.8196078431372548767, 0.9333333333333333481 ) ;
#299 = LINE ( 'NONE', #187, #294 ) ;
ENDSEC;
END-ISO-10303-21;
