ISO-10303-21;
HEADER;
FILE_DESCRIPTION (( 'STEP AP214' ),
    '1' );
FILE_NAME ('Micro_MMBM-010-12X.STEP',
    '2021-09-03T16:25:44',
    ( '' ),
    ( '' ),
    'SwSTEP 2.0',
    'SolidWorks 2020',
    '' );
FILE_SCHEMA (( 'AUTOMOTIVE_DESIGN' ));
ENDSEC;

DATA;
#1 = DIRECTION ( 'NONE',  ( 0.7071067811865358044, 8.659560562354788645E-17, -0.7071067811865590080 ) ) ;
#2 = FACE_BOUND ( 'NONE', #242, .T. ) ;
#3 = CIRCLE ( 'NONE', #86, 0.1031100000000002570 ) ;
#4 = DIRECTION ( 'NONE',  ( 0.1736481776669301647, 2.126576849575769450E-17, -0.9848077530122080203 ) ) ;
#5 = EDGE_LOOP ( 'NONE', ( #37, #11, #281, #328 ) ) ;
#6 = EDGE_CURVE ( 'NONE', #102, #122, #80, .T. ) ;
#7 = DIRECTION ( 'NONE',  ( -0.0000000000000000000, -0.0000000000000000000, -1.000000000000000000 ) ) ;
#8 = EDGE_CURVE ( 'NONE', #343, #342, #125, .T. ) ;
#9 = CARTESIAN_POINT ( 'NONE',  ( 0.0000000000000000000, 0.0000000000000000000, 0.0000000000000000000 ) ) ;
#10 = ORIENTED_EDGE ( 'NONE', *, *, #374, .T. ) ;
#11 = ORIENTED_EDGE ( 'NONE', *, *, #68, .F. ) ;
#12 = EDGE_CURVE ( 'NONE', #158, #185, #90, .T. ) ;
#13 = ORIENTED_EDGE ( 'NONE', *, *, #12, .T. ) ;
#14 = ORIENTED_EDGE ( 'NONE', *, *, #31, .F. ) ;
#15 = AXIS2_PLACEMENT_3D ( 'NONE', #77, #253, #190 ) ;
#16 = ORIENTED_EDGE ( 'NONE', *, *, #45, .F. ) ;
#17 = DIRECTION ( 'NONE',  ( -1.000000000000000000, 0.0000000000000000000, 0.0000000000000000000 ) ) ;
#18 = CYLINDRICAL_SURFACE ( 'NONE', #326, 0.01870100000000003357 ) ;
#19 = VECTOR ( 'NONE', #4, 39.37007874015748854 ) ;
#20 = DIRECTION ( 'NONE',  ( 1.000000000000000000, 0.0000000000000000000, 0.0000000000000000000 ) ) ;
#21 =( CONVERSION_BASED_UNIT ( 'INCH', #288 ) LENGTH_UNIT ( ) NAMED_UNIT ( #61 ) );
#22 = DIRECTION ( 'NONE',  ( -0.0000000000000000000, -0.0000000000000000000, -1.000000000000000000 ) ) ;
#23 = PRODUCT_CONTEXT ( 'NONE', #72, 'mechanical' ) ;
#24 = EDGE_LOOP ( 'NONE', ( #126, #364, #14, #16 ) ) ;
#25 = AXIS2_PLACEMENT_3D ( 'NONE', #307, #38, #65 ) ;
#26 = LINE ( 'NONE', #141, #252 ) ;
#27 = FACE_OUTER_BOUND ( 'NONE', #366, .T. ) ;
#28 = FACE_OUTER_BOUND ( 'NONE', #24, .T. ) ;
#29 = CYLINDRICAL_SURFACE ( 'NONE', #279, 0.01968303149999999294 ) ;
#30 = CARTESIAN_POINT ( 'NONE',  ( 0.0000000000000000000, 0.0000000000000000000, 2.244094000000000033 ) ) ;
#31 = EDGE_CURVE ( 'NONE', #174, #58, #187, .T. ) ;
#32 = FACE_OUTER_BOUND ( 'NONE', #101, .T. ) ;
#33 = ORIENTED_EDGE ( 'NONE', *, *, #62, .T. ) ;
#34 = CIRCLE ( 'NONE', #145, 0.1181100000000000066 ) ;
#35 = ADVANCED_FACE ( 'NONE', ( #103 ), #223, .T. ) ;
#36 =( LENGTH_UNIT ( ) NAMED_UNIT ( * ) SI_UNIT ( $, .METRE. ) );
#37 = ORIENTED_EDGE ( 'NONE', *, *, #165, .F. ) ;
#38 = DIRECTION ( 'NONE',  ( -0.0000000000000000000, -0.0000000000000000000, -1.000000000000000000 ) ) ;
#39 = ORIENTED_EDGE ( 'NONE', *, *, #198, .F. ) ;
#40 = PRESENTATION_STYLE_ASSIGNMENT (( #304 ) ) ;
#41 = EDGE_LOOP ( 'NONE', ( #243, #75, #208, #218 ) ) ;
#42 = AXIS2_PLACEMENT_3D ( 'NONE', #327, #55, #280 ) ;
#43 = ORIENTED_EDGE ( 'NONE', *, *, #254, .F. ) ;
#44 = CARTESIAN_POINT ( 'NONE',  ( 0.1181100000000000066, 1.446430334472939084E-17, 2.244094000000000033 ) ) ;
#45 = EDGE_CURVE ( 'NONE', #185, #174, #345, .T. ) ;
#46 = DIRECTION ( 'NONE',  ( 1.000000000000000000, 0.0000000000000000000, 0.0000000000000000000 ) ) ;
#47 = AXIS2_PLACEMENT_3D ( 'NONE', #91, #206, #52 ) ;
#48 =( GEOMETRIC_REPRESENTATION_CONTEXT ( 3 ) GLOBAL_UNCERTAINTY_ASSIGNED_CONTEXT ( ( #131 ) ) GLOBAL_UNIT_ASSIGNED_CONTEXT ( ( #21, #313, #317 ) ) REPRESENTATION_CONTEXT ( 'NONE', 'WORKASPACE' ) );
#49 = CARTESIAN_POINT ( 'NONE',  ( 0.0000000000000000000, 0.0000000000000000000, 2.244094000000000033 ) ) ;
#50 = CARTESIAN_POINT ( 'NONE',  ( 0.01870100000000000581, 2.350344065742308730E-18, 0.04493937739224183880 ) ) ;
#51 = EDGE_CURVE ( 'NONE', #371, #182, #375, .T. ) ;
#52 = DIRECTION ( 'NONE',  ( -1.000000000000000000, 0.0000000000000000000, 0.0000000000000000000 ) ) ;
#53 = AXIS2_PLACEMENT_3D ( 'NONE', #172, #355, #357 ) ;
#54 = DIRECTION ( 'NONE',  ( 0.0000000000000000000, 0.0000000000000000000, -1.000000000000000000 ) ) ;
#55 = DIRECTION ( 'NONE',  ( -0.0000000000000000000, -0.0000000000000000000, -1.000000000000000000 ) ) ;
#56 = ORIENTED_EDGE ( 'NONE', *, *, #365, .F. ) ;
#57 = DIRECTION ( 'NONE',  ( 0.0000000000000000000, 0.0000000000000000000, 1.000000000000000000 ) ) ;
#58 = VERTEX_POINT ( 'NONE', #132 ) ;
#59 = CARTESIAN_POINT ( 'NONE',  ( -0.1031100000000002570, 0.0000000000000000000, 2.244094000000000033 ) ) ;
#60 = EDGE_CURVE ( 'NONE', #182, #371, #228, .T. ) ;
#61 = DIMENSIONAL_EXPONENTS ( 1.000000000000000000, 0.0000000000000000000, 0.0000000000000000000, 0.0000000000000000000, 0.0000000000000000000, 0.0000000000000000000, 0.0000000000000000000 ) ;
#62 = EDGE_CURVE ( 'NONE', #311, #271, #114, .T. ) ;
#63 = EDGE_LOOP ( 'NONE', ( #66, #308, #10, #305 ) ) ;
#64 = AXIS2_PLACEMENT_3D ( 'NONE', #107, #376, #164 ) ;
#65 = DIRECTION ( 'NONE',  ( -1.000000000000000000, 0.0000000000000000000, 0.0000000000000000000 ) ) ;
#66 = ORIENTED_EDGE ( 'NONE', *, *, #211, .F. ) ;
#67 = CIRCLE ( 'NONE', #81, 0.01870100000000005785 ) ;
#68 = EDGE_CURVE ( 'NONE', #185, #158, #3, .T. ) ;
#69 = VERTEX_POINT ( 'NONE', #110 ) ;
#70 = ORIENTED_EDGE ( 'NONE', *, *, #186, .F. ) ;
#71 = EDGE_CURVE ( 'NONE', #342, #343, #67, .T. ) ;
#72 = APPLICATION_CONTEXT ( 'automotive_design' ) ;
#73 = APPLICATION_PROTOCOL_DEFINITION ( 'draft international standard', 'automotive_design', 1998, #287 ) ;
#74 = MECHANICAL_DESIGN_GEOMETRIC_PRESENTATION_REPRESENTATION (  '', ( #180 ), #48 ) ;
#75 = ORIENTED_EDGE ( 'NONE', *, *, #96, .T. ) ;
#76 = AXIS2_PLACEMENT_3D ( 'NONE', #30, #54, #144 ) ;
#77 = CARTESIAN_POINT ( 'NONE',  ( 0.0000000000000000000, 0.0000000000000000000, 0.03937000000000000222 ) ) ;
#78 = PRODUCT_RELATED_PRODUCT_CATEGORY ( 'part', '', ( #277 ) ) ;
#79 = FACE_OUTER_BOUND ( 'NONE', #41, .T. ) ;
#80 = CIRCLE ( 'NONE', #64, 0.01870100000000000581 ) ;
#81 = AXIS2_PLACEMENT_3D ( 'NONE', #373, #289, #135 ) ;
#82 = DIRECTION ( 'NONE',  ( -1.000000000000000000, 0.0000000000000000000, 0.0000000000000000000 ) ) ;
#83 = DIRECTION ( 'NONE',  ( 0.0000000000000000000, 0.0000000000000000000, 1.000000000000000000 ) ) ;
#84 = EDGE_CURVE ( 'NONE', #58, #311, #222, .T. ) ;
#85 = LINE ( 'NONE', #88, #240 ) ;
#86 = AXIS2_PLACEMENT_3D ( 'NONE', #49, #348, #46 ) ;
#87 = LINE ( 'NONE', #329, #19 ) ;
#88 = CARTESIAN_POINT ( 'NONE',  ( 0.1031100000000002570, 1.262733314600838667E-17, 2.244094000000000033 ) ) ;
#89 = DIRECTION ( 'NONE',  ( 1.000000000000000000, 0.0000000000000000000, -0.0000000000000000000 ) ) ;
#90 = CIRCLE ( 'NONE', #104, 0.1031100000000002570 ) ;
#91 = CARTESIAN_POINT ( 'NONE',  ( 0.0000000000000000000, 0.0000000000000000000, 0.03937000000000000222 ) ) ;
#92 = DIRECTION ( 'NONE',  ( -0.0000000000000000000, -0.0000000000000000000, -1.000000000000000000 ) ) ;
#93 = ORIENTED_EDGE ( 'NONE', *, *, #84, .F. ) ;
#94 = CARTESIAN_POINT ( 'NONE',  ( 0.0000000000000000000, 0.0000000000000000000, 0.0000000000000000000 ) ) ;
#95 = ORIENTED_EDGE ( 'NONE', *, *, #96, .F. ) ;
#96 = EDGE_CURVE ( 'NONE', #342, #122, #196, .T. ) ;
#97 = COLOUR_RGB ( '',0.7921568627450980005, 0.8196078431372548767, 0.9333333333333333481 ) ;
#98 = ORIENTED_EDGE ( 'NONE', *, *, #68, .T. ) ;
#99 = ADVANCED_FACE ( 'NONE', ( #377 ), #316, .T. ) ;
#100 = PRODUCT_DEFINITION_SHAPE ( 'NONE', 'NONE',  #306 ) ;
#101 = EDGE_LOOP ( 'NONE', ( #95, #220, #152, #117 ) ) ;
#102 = VERTEX_POINT ( 'NONE', #133 ) ;
#103 = FACE_OUTER_BOUND ( 'NONE', #184, .T. ) ;
#104 = AXIS2_PLACEMENT_3D ( 'NONE', #286, #83, #20 ) ;
#105 = ADVANCED_FACE ( 'NONE', ( #79 ), #18, .T. ) ;
#106 = ADVANCED_FACE ( 'NONE', ( #378 ), #108, .F. ) ;
#107 = CARTESIAN_POINT ( 'NONE',  ( 0.0000000000000000000, 0.0000000000000000000, 0.04493937739224183880 ) ) ;
#108 = PLANE ( 'NONE',  #298 ) ;
#109 = AXIS2_PLACEMENT_3D ( 'NONE', #284, #160, #192 ) ;
#110 = CARTESIAN_POINT ( 'NONE',  ( 0.01968303149999999294, 2.410476152399151743E-18, 0.0000000000000000000 ) ) ;
#111 = CARTESIAN_POINT ( 'NONE',  ( -0.1181100000000000066, 0.0000000000000000000, 0.4724410000000000553 ) ) ;
#112 = DIRECTION ( 'NONE',  ( -1.000000000000000000, 0.0000000000000000000, 0.0000000000000000000 ) ) ;
#113 = CIRCLE ( 'NONE', #42, 0.01870100000000000581 ) ;
#114 = CIRCLE ( 'NONE', #233, 0.1181100000000000066 ) ;
#115 = DIRECTION ( 'NONE',  ( -0.0000000000000000000, -0.0000000000000000000, -1.000000000000000000 ) ) ;
#116 = DIRECTION ( 'NONE',  ( -1.000000000000000000, 0.0000000000000000000, 0.0000000000000000000 ) ) ;
#117 = ORIENTED_EDGE ( 'NONE', *, *, #283, .F. ) ;
#118 = DIRECTION ( 'NONE',  ( -0.1736481776669301647, 0.0000000000000000000, -0.9848077530122080203 ) ) ;
#119 = AXIS2_PLACEMENT_3D ( 'NONE', #9, #171, #116 ) ;
#120 = CARTESIAN_POINT ( 'NONE',  ( 0.1181100000000000066, 1.446430334472939084E-17, 0.4724410000000000553 ) ) ;
#121 = ORIENTED_EDGE ( 'NONE', *, *, #186, .T. ) ;
#122 = VERTEX_POINT ( 'NONE', #50 ) ;
#123 = ORIENTED_EDGE ( 'NONE', *, *, #60, .F. ) ;
#124 = FACE_OUTER_BOUND ( 'NONE', #265, .T. ) ;
#125 = CIRCLE ( 'NONE', #151, 0.01870100000000005785 ) ;
#126 = ORIENTED_EDGE ( 'NONE', *, *, #12, .F. ) ;
#127 = DIRECTION ( 'NONE',  ( -0.0000000000000000000, -0.0000000000000000000, -1.000000000000000000 ) ) ;
#128 = ORIENTED_EDGE ( 'NONE', *, *, #283, .T. ) ;
#129 = ADVANCED_FACE ( 'NONE', ( #352 ), #331, .T. ) ;
#130 = ADVANCED_FACE ( 'NONE', ( #267 ), #29, .T. ) ;
#131 = UNCERTAINTY_MEASURE_WITH_UNIT (LENGTH_MEASURE( 1.000000000000000082E-05 ), #21, 'distance_accuracy_value', 'NONE');
#132 = CARTESIAN_POINT ( 'NONE',  ( 0.1181100000000000066, 1.446430334472939084E-17, 2.229093999999999465 ) ) ;
#133 = CARTESIAN_POINT ( 'NONE',  ( -0.01870100000000000581, 0.0000000000000000000, 0.04493937739224183880 ) ) ;
#134 = CONICAL_SURFACE ( 'NONE', #205, 0.1031100000000002570, 0.7853981633974318477 ) ;
#135 = DIRECTION ( 'NONE',  ( -1.000000000000000000, 0.0000000000000000000, 0.0000000000000000000 ) ) ;
#136 = FILL_AREA_STYLE ('',( #255 ) ) ;
#137 = DIRECTION ( 'NONE',  ( -1.000000000000000000, 0.0000000000000000000, 0.0000000000000000000 ) ) ;
#138 = APPLICATION_PROTOCOL_DEFINITION ( 'draft international standard', 'automotive_design', 1998, #72 ) ;
#139 = CARTESIAN_POINT ( 'NONE',  ( 0.0000000000000000000, 0.0000000000000000000, 2.229093999999999465 ) ) ;
#140 = VECTOR ( 'NONE', #159, 39.37007874015748143 ) ;
#141 = CARTESIAN_POINT ( 'NONE',  ( -0.1181100000000000066, 0.0000000000000000000, 2.244094000000000033 ) ) ;
#142 = CARTESIAN_POINT ( 'NONE',  ( 0.0000000000000000000, 0.0000000000000000000, 0.03937000000000000222 ) ) ;
#143 = ADVANCED_FACE ( 'NONE', ( #28 ), #134, .T. ) ;
#144 = DIRECTION ( 'NONE',  ( -1.000000000000000000, 0.0000000000000000000, 0.0000000000000000000 ) ) ;
#145 = AXIS2_PLACEMENT_3D ( 'NONE', #199, #295, #200 ) ;
#146 = CARTESIAN_POINT ( 'NONE',  ( 0.01968303149999999294, 2.410476152399151743E-18, 0.0000000000000000000 ) ) ;
#147 = ORIENTED_EDGE ( 'NONE', *, *, #149, .T. ) ;
#148 = CARTESIAN_POINT ( 'NONE',  ( -0.01968303149999999294, 0.0000000000000000000, 0.0000000000000000000 ) ) ;
#149 = EDGE_CURVE ( 'NONE', #179, #69, #170, .T. ) ;
#150 = DIRECTION ( 'NONE',  ( -1.000000000000000000, 0.0000000000000000000, 0.0000000000000000000 ) ) ;
#151 = AXIS2_PLACEMENT_3D ( 'NONE', #162, #225, #82 ) ;
#152 = ORIENTED_EDGE ( 'NONE', *, *, #353, .T. ) ;
#153 = LENGTH_MEASURE_WITH_UNIT ( LENGTH_MEASURE( 0.02539999999999999897 ), #36 );
#154 = ORIENTED_EDGE ( 'NONE', *, *, #51, .F. ) ;
#155 = LINE ( 'NONE', #363, #204 ) ;
#156 = ORIENTED_EDGE ( 'NONE', *, *, #365, .T. ) ;
#157 = VECTOR ( 'NONE', #118, 39.37007874015748854 ) ;
#158 = VERTEX_POINT ( 'NONE', #169 ) ;
#159 = DIRECTION ( 'NONE',  ( -0.0000000000000000000, -0.0000000000000000000, -1.000000000000000000 ) ) ;
#160 = DIRECTION ( 'NONE',  ( -0.0000000000000000000, -0.0000000000000000000, -1.000000000000000000 ) ) ;
#161 = CARTESIAN_POINT ( 'NONE',  ( 0.0000000000000000000, 0.0000000000000000000, 0.0000000000000000000 ) ) ;
#162 = CARTESIAN_POINT ( 'NONE',  ( 0.0000000000000000000, 0.0000000000000000000, 0.4724409999999999998 ) ) ;
#163 = AXIS2_PLACEMENT_3D ( 'NONE', #351, #167, #17 ) ;
#164 = DIRECTION ( 'NONE',  ( -1.000000000000000000, 0.0000000000000000000, 0.0000000000000000000 ) ) ;
#165 = EDGE_CURVE ( 'NONE', #158, #58, #85, .T. ) ;
#166 =( LENGTH_UNIT ( ) NAMED_UNIT ( * ) SI_UNIT ( $, .METRE. ) );
#167 = DIRECTION ( 'NONE',  ( -0.0000000000000000000, -0.0000000000000000000, -1.000000000000000000 ) ) ;
#168 = ADVANCED_FACE ( 'NONE', ( #296 ), #303, .T. ) ;
#169 = CARTESIAN_POINT ( 'NONE',  ( 0.1031100000000002570, 1.354581824536888722E-17, 2.244094000000000033 ) ) ;
#170 = CIRCLE ( 'NONE', #53, 0.01968303149999999294 ) ;
#171 = DIRECTION ( 'NONE',  ( -0.0000000000000000000, -0.0000000000000000000, -1.000000000000000000 ) ) ;
#172 = CARTESIAN_POINT ( 'NONE',  ( 0.0000000000000000000, 0.0000000000000000000, 0.0000000000000000000 ) ) ;
#173 = DIRECTION ( 'NONE',  ( -0.0000000000000000000, -0.0000000000000000000, -1.000000000000000000 ) ) ;
#174 = VERTEX_POINT ( 'NONE', #264 ) ;
#175 =( GEOMETRIC_REPRESENTATION_CONTEXT ( 3 ) GLOBAL_UNCERTAINTY_ASSIGNED_CONTEXT ( ( #323 ) ) GLOBAL_UNIT_ASSIGNED_CONTEXT ( ( #339, #333, #301 ) ) REPRESENTATION_CONTEXT ( 'NONE', 'WORKASPACE' ) );
#176 = LINE ( 'NONE', #235, #157 ) ;
#177 = LENGTH_MEASURE_WITH_UNIT ( LENGTH_MEASURE( 0.02539999999999999897 ), #370 );
#178 = CARTESIAN_POINT ( 'NONE',  ( -0.01870100000000003357, 0.0000000000000000000, 0.0000000000000000000 ) ) ;
#179 = VERTEX_POINT ( 'NONE', #148 ) ;
#180 = STYLED_ITEM ( 'NONE', ( #320 ), #372 ) ;
#181 = AXIS2_PLACEMENT_3D ( 'NONE', #142, #173, #356 ) ;
#182 = VERTEX_POINT ( 'NONE', #262 ) ;
#183 = FILL_AREA_STYLE ('',( #217 ) ) ;
#184 = EDGE_LOOP ( 'NONE', ( #275, #268, #56, #39 ) ) ;
#185 = VERTEX_POINT ( 'NONE', #59 ) ;
#186 = EDGE_CURVE ( 'NONE', #122, #182, #87, .T. ) ;
#187 = CIRCLE ( 'NONE', #349, 0.1181100000000000066 ) ;
#188 = EDGE_LOOP ( 'NONE', ( #70, #128, #273, #123 ) ) ;
#189 = DIRECTION ( 'NONE',  ( 1.000000000000000000, 0.0000000000000000000, 0.0000000000000000000 ) ) ;
#190 = DIRECTION ( 'NONE',  ( -1.000000000000000000, 0.0000000000000000000, 0.0000000000000000000 ) ) ;
#191 = DIRECTION ( 'NONE',  ( 0.0000000000000000000, 0.0000000000000000000, 1.000000000000000000 ) ) ;
#192 = DIRECTION ( 'NONE',  ( -1.000000000000000000, 0.0000000000000000000, 0.0000000000000000000 ) ) ;
#193 = CARTESIAN_POINT ( 'NONE',  ( 0.0000000000000000000, 0.0000000000000000000, 0.0000000000000000000 ) ) ;
#194 = MECHANICAL_DESIGN_GEOMETRIC_PRESENTATION_REPRESENTATION (  '', ( #272 ), #175 ) ;
#195 = DIRECTION ( 'NONE',  ( -0.0000000000000000000, -0.0000000000000000000, -1.000000000000000000 ) ) ;
#196 = LINE ( 'NONE', #256, #140 ) ;
#197 = ADVANCED_FACE ( 'NONE', ( #27 ), #325, .T. ) ;
#198 = EDGE_CURVE ( 'NONE', #174, #271, #26, .T. ) ;
#199 = CARTESIAN_POINT ( 'NONE',  ( 0.0000000000000000000, 0.0000000000000000000, 2.229093999999999465 ) ) ;
#200 = DIRECTION ( 'NONE',  ( 1.000000000000000000, 0.0000000000000000000, 0.0000000000000000000 ) ) ;
#201 = ORIENTED_EDGE ( 'NONE', *, *, #374, .F. ) ;
#202 = PLANE ( 'NONE',  #312 ) ;
#203 = FACE_OUTER_BOUND ( 'NONE', #336, .T. ) ;
#204 = VECTOR ( 'NONE', #127, 39.37007874015748143 ) ;
#205 = AXIS2_PLACEMENT_3D ( 'NONE', #359, #231, #232 ) ;
#206 = DIRECTION ( 'NONE',  ( -0.0000000000000000000, -0.0000000000000000000, -1.000000000000000000 ) ) ;
#207 = CARTESIAN_POINT ( 'NONE',  ( -0.01968303149999999294, 0.0000000000000000000, 0.03937000000000000222 ) ) ;
#208 = ORIENTED_EDGE ( 'NONE', *, *, #6, .F. ) ;
#209 = ADVANCED_FACE ( 'NONE', ( #2, #203 ), #202, .T. ) ;
#210 = CARTESIAN_POINT ( 'NONE',  ( 0.0000000000000000000, 0.0000000000000000000, 2.244094000000000033 ) ) ;
#211 = EDGE_CURVE ( 'NONE', #182, #69, #297, .T. ) ;
#212 = EDGE_LOOP ( 'NONE', ( #334, #244, #362, #201 ) ) ;
#213 = VECTOR ( 'NONE', #324, 39.37007874015748143 ) ;
#214 =( GEOMETRIC_REPRESENTATION_CONTEXT ( 3 ) GLOBAL_UNCERTAINTY_ASSIGNED_CONTEXT ( ( #229 ) ) GLOBAL_UNIT_ASSIGNED_CONTEXT ( ( #341, #310, #332 ) ) REPRESENTATION_CONTEXT ( 'NONE', 'WORKASPACE' ) );
#215 = DIRECTION ( 'NONE',  ( -1.000000000000000000, 0.0000000000000000000, 0.0000000000000000000 ) ) ;
#216 = EDGE_LOOP ( 'NONE', ( #237, #121, #154, #43 ) ) ;
#217 = FILL_AREA_STYLE_COLOUR ( '', #97 ) ;
#218 = ORIENTED_EDGE ( 'NONE', *, *, #353, .F. ) ;
#219 = SURFACE_STYLE_USAGE ( .BOTH. , #290 ) ;
#220 = ORIENTED_EDGE ( 'NONE', *, *, #71, .T. ) ;
#221 = CONICAL_SURFACE ( 'NONE', #47, 0.01968303149999999294, 0.1745329251994327535 ) ;
#222 = LINE ( 'NONE', #44, #213 ) ;
#223 = CYLINDRICAL_SURFACE ( 'NONE', #163, 0.1181100000000000066 ) ;
#224 = EDGE_CURVE ( 'NONE', #69, #179, #338, .T. ) ;
#225 = DIRECTION ( 'NONE',  ( -0.0000000000000000000, -0.0000000000000000000, -1.000000000000000000 ) ) ;
#226 = VECTOR ( 'NONE', #92, 39.37007874015748143 ) ;
#227 = CARTESIAN_POINT ( 'NONE',  ( 0.0000000000000000000, 0.0000000000000000000, 0.0000000000000000000 ) ) ;
#228 = CIRCLE ( 'NONE', #15, 0.01968303149999999294 ) ;
#229 = UNCERTAINTY_MEASURE_WITH_UNIT (LENGTH_MEASURE( 1.000000000000000082E-05 ), #341, 'distance_accuracy_value', 'NONE');
#230 = CARTESIAN_POINT ( 'NONE',  ( 0.0000000000000000000, 0.0000000000000000000, 0.03937000000000000222 ) ) ;
#231 = DIRECTION ( 'NONE',  ( 0.0000000000000000000, 0.0000000000000000000, -1.000000000000000000 ) ) ;
#232 = DIRECTION ( 'NONE',  ( -1.000000000000000000, 0.0000000000000000000, 0.0000000000000000000 ) ) ;
#233 = AXIS2_PLACEMENT_3D ( 'NONE', #321, #195, #251 ) ;
#234 = DIRECTION ( 'NONE',  ( -0.0000000000000000000, -0.0000000000000000000, -1.000000000000000000 ) ) ;
#235 = CARTESIAN_POINT ( 'NONE',  ( -0.01968303149999999294, 0.0000000000000000000, 0.03937000000000000222 ) ) ;
#236 = DIMENSIONAL_EXPONENTS ( 1.000000000000000000, 0.0000000000000000000, 0.0000000000000000000, 0.0000000000000000000, 0.0000000000000000000, 0.0000000000000000000, 0.0000000000000000000 ) ;
#237 = ORIENTED_EDGE ( 'NONE', *, *, #6, .T. ) ;
#238 = FACE_OUTER_BOUND ( 'NONE', #188, .T. ) ;
#239 = PRESENTATION_LAYER_ASSIGNMENT (  '', '', ( #180 ) ) ;
#240 = VECTOR ( 'NONE', #1, 39.37007874015748854 ) ;
#241 = CYLINDRICAL_SURFACE ( 'NONE', #337, 0.01870100000000003357 ) ;
#242 = EDGE_LOOP ( 'NONE', ( #302, #291 ) ) ;
#243 = ORIENTED_EDGE ( 'NONE', *, *, #8, .T. ) ;
#244 = ORIENTED_EDGE ( 'NONE', *, *, #211, .T. ) ;
#245 = CLOSED_SHELL ( 'NONE', ( #99, #105, #129, #143, #35, #309, #197, #168, #209, #260, #315, #130, #106 ) ) ;
#246 = SURFACE_SIDE_STYLE ('',( #270 ) ) ;
#247 = EDGE_LOOP ( 'NONE', ( #147, #250 ) ) ;
#248 = DIRECTION ( 'NONE',  ( -0.0000000000000000000, -0.0000000000000000000, -1.000000000000000000 ) ) ;
#249 = PRODUCT_DEFINITION_CONTEXT ( 'detailed design', #287, 'design' ) ;
#250 = ORIENTED_EDGE ( 'NONE', *, *, #224, .T. ) ;
#251 = DIRECTION ( 'NONE',  ( -1.000000000000000000, 0.0000000000000000000, 0.0000000000000000000 ) ) ;
#252 = VECTOR ( 'NONE', #115, 39.37007874015748143 ) ;
#253 = DIRECTION ( 'NONE',  ( -0.0000000000000000000, -0.0000000000000000000, -1.000000000000000000 ) ) ;
#254 = EDGE_CURVE ( 'NONE', #102, #371, #176, .T. ) ;
#255 = FILL_AREA_STYLE_COLOUR ( '', #263 ) ;
#256 = CARTESIAN_POINT ( 'NONE',  ( 0.01870100000000003357, 2.290211979085469184E-18, 0.0000000000000000000 ) ) ;
#257 = DIRECTION ( 'NONE',  ( -0.0000000000000000000, -0.0000000000000000000, -1.000000000000000000 ) ) ;
#258 = SHAPE_DEFINITION_REPRESENTATION ( #100, #372 ) ;
#259 = CARTESIAN_POINT ( 'NONE',  ( -0.1031100000000002570, 0.0000000000000000000, 2.244094000000000033 ) ) ;
#260 = ADVANCED_FACE ( 'NONE', ( #238 ), #221, .T. ) ;
#261 = DIRECTION ( 'NONE',  ( -0.0000000000000000000, 0.0000000000000000000, -1.000000000000000000 ) ) ;
#262 = CARTESIAN_POINT ( 'NONE',  ( 0.01968303149999999294, 2.410476152399151743E-18, 0.03937000000000000222 ) ) ;
#263 = COLOUR_RGB ( '',0.7921568627450980005, 0.8196078431372548767, 0.9333333333333333481 ) ;
#264 = CARTESIAN_POINT ( 'NONE',  ( -0.1181100000000000066, 0.0000000000000000000, 2.229093999999999465 ) ) ;
#265 = EDGE_LOOP ( 'NONE', ( #93, #369, #340, #314 ) ) ;
#266 = AXIS2_PLACEMENT_3D ( 'NONE', #210, #274, #150 ) ;
#267 = FACE_OUTER_BOUND ( 'NONE', #63, .T. ) ;
#268 = ORIENTED_EDGE ( 'NONE', *, *, #84, .T. ) ;
#269 = CARTESIAN_POINT ( 'NONE',  ( 0.0000000000000000000, 0.0000000000000000000, 2.244094000000000033 ) ) ;
#270 = SURFACE_STYLE_FILL_AREA ( #183 ) ;
#271 = VERTEX_POINT ( 'NONE', #111 ) ;
#272 = STYLED_ITEM ( 'NONE', ( #40 ), #319 ) ;
#273 = ORIENTED_EDGE ( 'NONE', *, *, #254, .T. ) ;
#274 = DIRECTION ( 'NONE',  ( -0.0000000000000000000, -0.0000000000000000000, -1.000000000000000000 ) ) ;
#275 = ORIENTED_EDGE ( 'NONE', *, *, #31, .T. ) ;
#276 = EDGE_CURVE ( 'NONE', #58, #174, #34, .T. ) ;
#277 = PRODUCT ( 'Micro_MMBM-010-12X', 'Micro_MMBM-010-12X', '', ( #23 ) ) ;
#278 = PRODUCT_DEFINITION_FORMATION_WITH_SPECIFIED_SOURCE ( 'ANY', '', #277, .NOT_KNOWN. ) ;
#279 = AXIS2_PLACEMENT_3D ( 'NONE', #299, #7, #293 ) ;
#280 = DIRECTION ( 'NONE',  ( -1.000000000000000000, 0.0000000000000000000, 0.0000000000000000000 ) ) ;
#281 = ORIENTED_EDGE ( 'NONE', *, *, #45, .T. ) ;
#282 = DIRECTION ( 'NONE',  ( 0.0000000000000000000, 0.0000000000000000000, -1.000000000000000000 ) ) ;
#283 = EDGE_CURVE ( 'NONE', #122, #102, #113, .T. ) ;
#284 = CARTESIAN_POINT ( 'NONE',  ( 0.0000000000000000000, 0.0000000000000000000, 0.0000000000000000000 ) ) ;
#285 = VECTOR ( 'NONE', #346, 39.37007874015748854 ) ;
#286 = CARTESIAN_POINT ( 'NONE',  ( 0.0000000000000000000, 0.0000000000000000000, 2.244094000000000033 ) ) ;
#287 = APPLICATION_CONTEXT ( 'automotive_design' ) ;
#288 = LENGTH_MEASURE_WITH_UNIT ( LENGTH_MEASURE( 0.02539999999999999897 ), #166 );
#289 = DIRECTION ( 'NONE',  ( -0.0000000000000000000, -0.0000000000000000000, -1.000000000000000000 ) ) ;
#290 = SURFACE_SIDE_STYLE ('',( #347 ) ) ;
#291 = ORIENTED_EDGE ( 'NONE', *, *, #71, .F. ) ;
#292 = AXIS2_PLACEMENT_3D ( 'NONE', #161, #191, #189 ) ;
#293 = DIRECTION ( 'NONE',  ( -1.000000000000000000, 0.0000000000000000000, 0.0000000000000000000 ) ) ;
#294 = VECTOR ( 'NONE', #234, 39.37007874015748143 ) ;
#295 = DIRECTION ( 'NONE',  ( 0.0000000000000000000, 0.0000000000000000000, -1.000000000000000000 ) ) ;
#296 = FACE_OUTER_BOUND ( 'NONE', #5, .T. ) ;
#297 = LINE ( 'NONE', #146, #294 ) ;
#298 = AXIS2_PLACEMENT_3D ( 'NONE', #227, #350, #322 ) ;
#299 = CARTESIAN_POINT ( 'NONE',  ( 0.0000000000000000000, 0.0000000000000000000, 0.0000000000000000000 ) ) ;
#300 = CYLINDRICAL_SURFACE ( 'NONE', #266, 0.1181100000000000066 ) ;
#301 =( NAMED_UNIT ( * ) SI_UNIT ( $, .STERADIAN. ) SOLID_ANGLE_UNIT ( ) );
#302 = ORIENTED_EDGE ( 'NONE', *, *, #8, .F. ) ;
#303 = CONICAL_SURFACE ( 'NONE', #76, 0.1031100000000002570, 0.7853981633974318477 ) ;
#304 = SURFACE_STYLE_USAGE ( .BOTH. , #246 ) ;
#305 = ORIENTED_EDGE ( 'NONE', *, *, #224, .F. ) ;
#306 = PRODUCT_DEFINITION ( 'UNKNOWN', '', #278, #249 ) ;
#307 = CARTESIAN_POINT ( 'NONE',  ( 0.0000000000000000000, 0.0000000000000000000, 0.4724410000000000553 ) ) ;
#308 = ORIENTED_EDGE ( 'NONE', *, *, #60, .T. ) ;
#309 = ADVANCED_FACE ( 'NONE', ( #124 ), #300, .T. ) ;
#310 =( NAMED_UNIT ( * ) PLANE_ANGLE_UNIT ( ) SI_UNIT ( $, .RADIAN. ) );
#311 = VERTEX_POINT ( 'NONE', #120 ) ;
#312 = AXIS2_PLACEMENT_3D ( 'NONE', #330, #261, #112 ) ;
#313 =( NAMED_UNIT ( * ) PLANE_ANGLE_UNIT ( ) SI_UNIT ( $, .RADIAN. ) );
#314 = ORIENTED_EDGE ( 'NONE', *, *, #62, .F. ) ;
#315 = ADVANCED_FACE ( 'NONE', ( #32 ), #241, .T. ) ;
#316 = CYLINDRICAL_SURFACE ( 'NONE', #109, 0.01968303149999999294 ) ;
#317 =( NAMED_UNIT ( * ) SI_UNIT ( $, .STERADIAN. ) SOLID_ANGLE_UNIT ( ) );
#318 = DIRECTION ( 'NONE',  ( 1.000000000000000000, 0.0000000000000000000, 0.0000000000000000000 ) ) ;
#319 = MANIFOLD_SOLID_BREP ( 'Cut-Revolve1', #245 ) ;
#320 = PRESENTATION_STYLE_ASSIGNMENT (( #219 ) ) ;
#321 = CARTESIAN_POINT ( 'NONE',  ( 0.0000000000000000000, 0.0000000000000000000, 0.4724410000000000553 ) ) ;
#322 = DIRECTION ( 'NONE',  ( 1.000000000000000000, 0.0000000000000000000, -0.0000000000000000000 ) ) ;
#323 = UNCERTAINTY_MEASURE_WITH_UNIT (LENGTH_MEASURE( 1.000000000000000082E-05 ), #339, 'distance_accuracy_value', 'NONE');
#324 = DIRECTION ( 'NONE',  ( -0.0000000000000000000, -0.0000000000000000000, -1.000000000000000000 ) ) ;
#325 = PLANE ( 'NONE',  #360 ) ;
#326 = AXIS2_PLACEMENT_3D ( 'NONE', #193, #22, #137 ) ;
#327 = CARTESIAN_POINT ( 'NONE',  ( 0.0000000000000000000, 0.0000000000000000000, 0.04493937739224183880 ) ) ;
#328 = ORIENTED_EDGE ( 'NONE', *, *, #276, .F. ) ;
#329 = CARTESIAN_POINT ( 'NONE',  ( 0.01968303149999999294, 2.410476152399151743E-18, 0.03937000000000000222 ) ) ;
#330 = CARTESIAN_POINT ( 'NONE',  ( 0.01870100000000005785, 0.0000000000000000000, 0.4724409999999999998 ) ) ;
#331 = CONICAL_SURFACE ( 'NONE', #181, 0.01968303149999999294, 0.1745329251994327535 ) ;
#332 =( NAMED_UNIT ( * ) SI_UNIT ( $, .STERADIAN. ) SOLID_ANGLE_UNIT ( ) );
#333 =( NAMED_UNIT ( * ) PLANE_ANGLE_UNIT ( ) SI_UNIT ( $, .RADIAN. ) );
#334 = ORIENTED_EDGE ( 'NONE', *, *, #51, .T. ) ;
#335 = CARTESIAN_POINT ( 'NONE',  ( 0.01870100000000005785, 2.290211979085471880E-18, 0.4724409999999999998 ) ) ;
#336 = EDGE_LOOP ( 'NONE', ( #156, #33 ) ) ;
#337 = AXIS2_PLACEMENT_3D ( 'NONE', #94, #248, #215 ) ;
#338 = CIRCLE ( 'NONE', #119, 0.01968303149999999294 ) ;
#339 =( CONVERSION_BASED_UNIT ( 'INCH', #153 ) LENGTH_UNIT ( ) NAMED_UNIT ( #236 ) );
#340 = ORIENTED_EDGE ( 'NONE', *, *, #198, .T. ) ;
#341 =( CONVERSION_BASED_UNIT ( 'INCH', #177 ) LENGTH_UNIT ( ) NAMED_UNIT ( #358 ) );
#342 = VERTEX_POINT ( 'NONE', #335 ) ;
#343 = VERTEX_POINT ( 'NONE', #368 ) ;
#344 = AXIS2_PLACEMENT_3D ( 'NONE', #230, #257, #379 ) ;
#345 = LINE ( 'NONE', #259, #285 ) ;
#346 = DIRECTION ( 'NONE',  ( -0.7071067811865358044, 0.0000000000000000000, -0.7071067811865590080 ) ) ;
#347 = SURFACE_STYLE_FILL_AREA ( #136 ) ;
#348 = DIRECTION ( 'NONE',  ( 0.0000000000000000000, 0.0000000000000000000, 1.000000000000000000 ) ) ;
#349 = AXIS2_PLACEMENT_3D ( 'NONE', #139, #282, #318 ) ;
#350 = DIRECTION ( 'NONE',  ( 0.0000000000000000000, 0.0000000000000000000, 1.000000000000000000 ) ) ;
#351 = CARTESIAN_POINT ( 'NONE',  ( 0.0000000000000000000, 0.0000000000000000000, 2.244094000000000033 ) ) ;
#352 = FACE_OUTER_BOUND ( 'NONE', #216, .T. ) ;
#353 = EDGE_CURVE ( 'NONE', #343, #102, #361, .T. ) ;
#354 = CIRCLE ( 'NONE', #25, 0.1181100000000000066 ) ;
#355 = DIRECTION ( 'NONE',  ( -0.0000000000000000000, -0.0000000000000000000, -1.000000000000000000 ) ) ;
#356 = DIRECTION ( 'NONE',  ( -1.000000000000000000, 0.0000000000000000000, 0.0000000000000000000 ) ) ;
#357 = DIRECTION ( 'NONE',  ( -1.000000000000000000, 0.0000000000000000000, 0.0000000000000000000 ) ) ;
#358 = DIMENSIONAL_EXPONENTS ( 1.000000000000000000, 0.0000000000000000000, 0.0000000000000000000, 0.0000000000000000000, 0.0000000000000000000, 0.0000000000000000000, 0.0000000000000000000 ) ;
#359 = CARTESIAN_POINT ( 'NONE',  ( 0.0000000000000000000, 0.0000000000000000000, 2.244094000000000033 ) ) ;
#360 = AXIS2_PLACEMENT_3D ( 'NONE', #269, #57, #89 ) ;
#361 = LINE ( 'NONE', #178, #226 ) ;
#362 = ORIENTED_EDGE ( 'NONE', *, *, #149, .F. ) ;
#363 = CARTESIAN_POINT ( 'NONE',  ( -0.01968303149999999294, 0.0000000000000000000, 0.0000000000000000000 ) ) ;
#364 = ORIENTED_EDGE ( 'NONE', *, *, #165, .T. ) ;
#365 = EDGE_CURVE ( 'NONE', #271, #311, #354, .T. ) ;
#366 = EDGE_LOOP ( 'NONE', ( #98, #13 ) ) ;
#367 = PRESENTATION_LAYER_ASSIGNMENT (  '', '', ( #272 ) ) ;
#368 = CARTESIAN_POINT ( 'NONE',  ( -0.01870100000000005785, 0.0000000000000000000, 0.4724409999999999998 ) ) ;
#369 = ORIENTED_EDGE ( 'NONE', *, *, #276, .T. ) ;
#370 =( LENGTH_UNIT ( ) NAMED_UNIT ( * ) SI_UNIT ( $, .METRE. ) );
#371 = VERTEX_POINT ( 'NONE', #207 ) ;
#372 = ADVANCED_BREP_SHAPE_REPRESENTATION ( 'Micro_MMBM-010-12X', ( #319, #292 ), #214 ) ;
#373 = CARTESIAN_POINT ( 'NONE',  ( 0.0000000000000000000, 0.0000000000000000000, 0.4724409999999999998 ) ) ;
#374 = EDGE_CURVE ( 'NONE', #371, #179, #155, .T. ) ;
#375 = CIRCLE ( 'NONE', #344, 0.01968303149999999294 ) ;
#376 = DIRECTION ( 'NONE',  ( -0.0000000000000000000, -0.0000000000000000000, -1.000000000000000000 ) ) ;
#377 = FACE_OUTER_BOUND ( 'NONE', #212, .T. ) ;
#378 = FACE_OUTER_BOUND ( 'NONE', #247, .T. ) ;
#379 = DIRECTION ( 'NONE',  ( -1.000000000000000000, 0.0000000000000000000, 0.0000000000000000000 ) ) ;
ENDSEC;
END-ISO-10303-21;
