ISO-10303-21;
HEADER;
FILE_DESCRIPTION (( 'STEP AP214' ),
    '1' );
FILE_NAME ('83412.STEP',
    '2023-06-30T23:11:17',
    ( '' ),
    ( '' ),
    'SwSTEP 2.0',
    'SolidWorks 2023',
    '' );
FILE_SCHEMA (( 'AUTOMOTIVE_DESIGN' ));
ENDSEC;

DATA;
#1 = PRESENTATION_STYLE_ASSIGNMENT (( #312 ) ) ;
#2 = DIRECTION ( 'NONE',  ( -0.000000000000000000, -1.000000000000000000, -0.000000000000000000 ) ) ;
#3 = EDGE_CURVE ( 'NONE', #10, #250, #183, .T. ) ;
#4 = COLOUR_RGB ( '',1.000000000000000000, 0.000000000000000000, 0.000000000000000000 ) ;
#5 = AXIS2_PLACEMENT_3D ( 'NONE', #15, #81, #221 ) ;
#6 = FILL_AREA_STYLE ('',( #158 ) ) ;
#7 = DIRECTION ( 'NONE',  ( 1.000000000000000000, 0.000000000000000000, 0.000000000000000000 ) ) ;
#8 = CARTESIAN_POINT ( 'NONE',  ( 0.000000000000000000, 0.06250000000000001388, 0.000000000000000000 ) ) ;
#9 = PRESENTATION_LAYER_ASSIGNMENT (  '', '', ( #55 ) ) ;
#10 = VERTEX_POINT ( 'NONE', #307 ) ;
#11 = DIRECTION ( 'NONE',  ( 0.000000000000000000, 0.000000000000000000, -1.000000000000000000 ) ) ;
#12 = ORIENTED_EDGE ( 'NONE', *, *, #100, .F. ) ;
#13 = CIRCLE ( 'NONE', #98, 0.06249999999999963918 ) ;
#14 = UNCERTAINTY_MEASURE_WITH_UNIT (LENGTH_MEASURE( 1.000000000000000082E-05 ), #17, 'distance_accuracy_value', 'NONE');
#15 = CARTESIAN_POINT ( 'NONE',  ( 5.625652490679608955E-16, 0.6250000000000000000, 0.000000000000000000 ) ) ;
#16 = ADVANCED_FACE ( 'NONE', ( #86 ), #230, .T. ) ;
#17 =( CONVERSION_BASED_UNIT ( 'INCH', #139 ) LENGTH_UNIT ( ) NAMED_UNIT ( #88 ) );
#18 = EDGE_LOOP ( 'NONE', ( #216, #338, #326, #157 ) ) ;
#19 = CIRCLE ( 'NONE', #313, 0.06249999999999995143 ) ;
#20 =( GEOMETRIC_REPRESENTATION_CONTEXT ( 3 ) GLOBAL_UNCERTAINTY_ASSIGNED_CONTEXT ( ( #302 ) ) GLOBAL_UNIT_ASSIGNED_CONTEXT ( ( #120, #184, #261 ) ) REPRESENTATION_CONTEXT ( 'NONE', 'WORKASPACE' ) );
#21 = PRESENTATION_STYLE_ASSIGNMENT (( #138 ) ) ;
#22 = ORIENTED_EDGE ( 'NONE', *, *, #33, .T. ) ;
#23 = ADVANCED_FACE ( 'NONE', ( #372 ), #257, .T. ) ;
#24 = SURFACE_STYLE_USAGE ( .BOTH. , #228 ) ;
#25 =( LENGTH_UNIT ( ) NAMED_UNIT ( * ) SI_UNIT ( $, .METRE. ) );
#26 =( NAMED_UNIT ( * ) SI_UNIT ( $, .STERADIAN. ) SOLID_ANGLE_UNIT ( ) );
#27 =( NAMED_UNIT ( * ) SI_UNIT ( $, .STERADIAN. ) SOLID_ANGLE_UNIT ( ) );
#28 = FILL_AREA_STYLE ('',( #282 ) ) ;
#29 = CARTESIAN_POINT ( 'NONE',  ( -7.654042494670957545E-18, 0.06250000000000001388, 0.000000000000000000 ) ) ;
#30 = CARTESIAN_POINT ( 'NONE',  ( 3.061616997868383141E-16, 2.500000000000000000, 0.000000000000000000 ) ) ;
#31 =( CONVERSION_BASED_UNIT ( 'INCH', #316 ) LENGTH_UNIT ( ) NAMED_UNIT ( #229 ) );
#32 = SURFACE_STYLE_USAGE ( .BOTH. , #203 ) ;
#33 = EDGE_CURVE ( 'NONE', #225, #250, #97, .T. ) ;
#34 = LINE ( 'NONE', #293, #205 ) ;
#35 = AXIS2_PLACEMENT_3D ( 'NONE', #199, #334, #163 ) ;
#36 = DIRECTION ( 'NONE',  ( -1.367485596165987018E-16, 1.000000000000000000, -0.000000000000000000 ) ) ;
#37 = LENGTH_MEASURE_WITH_UNIT ( LENGTH_MEASURE( 0.02539999999999999897 ), #181 );
#38 = FACE_OUTER_BOUND ( 'NONE', #201, .T. ) ;
#39 = VERTEX_POINT ( 'NONE', #286 ) ;
#40 = LINE ( 'NONE', #70, #267 ) ;
#41 = AXIS2_PLACEMENT_3D ( 'NONE', #156, #131, #214 ) ;
#42 = ORIENTED_EDGE ( 'NONE', *, *, #107, .F. ) ;
#43 = DIRECTION ( 'NONE',  ( -0.000000000000000000, -1.000000000000000000, -0.000000000000000000 ) ) ;
#44 = ORIENTED_EDGE ( 'NONE', *, *, #33, .F. ) ;
#45 =( NAMED_UNIT ( * ) PLANE_ANGLE_UNIT ( ) SI_UNIT ( $, .RADIAN. ) );
#46 = ADVANCED_FACE ( 'NONE', ( #235 ), #175, .T. ) ;
#47 = LENGTH_MEASURE_WITH_UNIT ( LENGTH_MEASURE( 0.02539999999999999897 ), #299 );
#48 = AXIS2_PLACEMENT_3D ( 'NONE', #91, #62, #206 ) ;
#49 = UNCERTAINTY_MEASURE_WITH_UNIT (LENGTH_MEASURE( 1.000000000000000082E-05 ), #31, 'distance_accuracy_value', 'NONE');
#50 = SURFACE_STYLE_FILL_AREA ( #298 ) ;
#51 = EDGE_LOOP ( 'NONE', ( #44, #102, #269, #80 ) ) ;
#52 = ORIENTED_EDGE ( 'NONE', *, *, #53, .F. ) ;
#53 = EDGE_CURVE ( 'NONE', #295, #39, #19, .T. ) ;
#54 = AXIS2_PLACEMENT_3D ( 'NONE', #150, #61, #180 ) ;
#55 = STYLED_ITEM ( 'NONE', ( #331 ), #236 ) ;
#56 =( LENGTH_UNIT ( ) NAMED_UNIT ( * ) SI_UNIT ( $, .METRE. ) );
#57 = LENGTH_MEASURE_WITH_UNIT ( LENGTH_MEASURE( 0.02539999999999999897 ), #226 );
#58 = PRESENTATION_STYLE_ASSIGNMENT (( #280 ) ) ;
#59 = FILL_AREA_STYLE_COLOUR ( '', #4 ) ;
#60 = CIRCLE ( 'NONE', #5, 0.06249999999999938244 ) ;
#61 = DIRECTION ( 'NONE',  ( 0.000000000000000000, 0.000000000000000000, 1.000000000000000000 ) ) ;
#62 = DIRECTION ( 'NONE',  ( -1.367485596165987018E-16, 1.000000000000000000, -0.000000000000000000 ) ) ;
#63 = DIMENSIONAL_EXPONENTS ( 1.000000000000000000, 0.000000000000000000, 0.000000000000000000, 0.000000000000000000, 0.000000000000000000, 0.000000000000000000, 0.000000000000000000 ) ;
#64 = DIRECTION ( 'NONE',  ( 1.367485596165987018E-16, -1.000000000000000000, 0.000000000000000000 ) ) ;
#65 = PRODUCT_DEFINITION ( 'UNKNOWN', '', #373, #172 ) ;
#66 = PRODUCT_CONTEXT ( 'NONE', #231, 'mechanical' ) ;
#67 = AXIS2_PLACEMENT_3D ( 'NONE', #297, #271, #348 ) ;
#68 =( GEOMETRIC_REPRESENTATION_CONTEXT ( 3 ) GLOBAL_UNCERTAINTY_ASSIGNED_CONTEXT ( ( #14 ) ) GLOBAL_UNIT_ASSIGNED_CONTEXT ( ( #17, #247, #362 ) ) REPRESENTATION_CONTEXT ( 'NONE', 'WORKASPACE' ) );
#69 = DIRECTION ( 'NONE',  ( -0.000000000000000000, -1.000000000000000000, -0.000000000000000000 ) ) ;
#70 = CARTESIAN_POINT ( 'NONE',  ( 0.06249999999999981959, 2.500000000000000000, 7.654042494670897456E-18 ) ) ;
#71 = PRODUCT_RELATED_PRODUCT_CATEGORY ( 'part', '', ( #132 ) ) ;
#72 = ORIENTED_EDGE ( 'NONE', *, *, #208, .F. ) ;
#73 = DIRECTION ( 'NONE',  ( -1.367485596165987018E-16, 1.000000000000000000, -0.000000000000000000 ) ) ;
#74 = STYLED_ITEM ( 'NONE', ( #21 ), #275 ) ;
#75 = ADVANCED_FACE ( 'NONE', ( #188 ), #264, .F. ) ;
#76 = EDGE_LOOP ( 'NONE', ( #303, #134 ) ) ;
#77 = PLANE ( 'NONE',  #35 ) ;
#78 = UNCERTAINTY_MEASURE_WITH_UNIT (LENGTH_MEASURE( 1.000000000000000082E-05 ), #147, 'distance_accuracy_value', 'NONE');
#79 = DIRECTION ( 'NONE',  ( -0.000000000000000000, -1.000000000000000000, -0.000000000000000000 ) ) ;
#80 = ORIENTED_EDGE ( 'NONE', *, *, #3, .T. ) ;
#81 = DIRECTION ( 'NONE',  ( -1.367485596165987018E-16, 1.000000000000000000, -0.000000000000000000 ) ) ;
#82 = ADVANCED_FACE ( 'NONE', ( #38 ), #325, .T. ) ;
#83 = ORIENTED_EDGE ( 'NONE', *, *, #251, .T. ) ;
#84 = EDGE_LOOP ( 'NONE', ( #198, #356, #142, #324, #42 ) ) ;
#85 = COLOUR_RGB ( '',1.000000000000000000, 0.000000000000000000, 0.000000000000000000 ) ;
#86 = FACE_OUTER_BOUND ( 'NONE', #369, .T. ) ;
#87 = SPHERICAL_SURFACE ( 'NONE', #283, 0.06250000000000001388 ) ;
#88 = DIMENSIONAL_EXPONENTS ( 1.000000000000000000, 0.000000000000000000, 0.000000000000000000, 0.000000000000000000, 0.000000000000000000, 0.000000000000000000, 0.000000000000000000 ) ;
#89 = SURFACE_SIDE_STYLE ('',( #370 ) ) ;
#90 = AXIS2_PLACEMENT_3D ( 'NONE', #191, #69, #290 ) ;
#91 = CARTESIAN_POINT ( 'NONE',  ( 5.625652490679608955E-16, 0.6250000000000000000, 0.000000000000000000 ) ) ;
#92 = PRESENTATION_LAYER_ASSIGNMENT (  '', '', ( #321 ) ) ;
#93 = DIRECTION ( 'NONE',  ( 1.000000000000000000, 0.000000000000000000, -1.224646799147353207E-16 ) ) ;
#94 =( NAMED_UNIT ( * ) PLANE_ANGLE_UNIT ( ) SI_UNIT ( $, .RADIAN. ) );
#95 = EDGE_CURVE ( 'NONE', #278, #213, #34, .T. ) ;
#96 =( NAMED_UNIT ( * ) PLANE_ANGLE_UNIT ( ) SI_UNIT ( $, .RADIAN. ) );
#97 = CIRCLE ( 'NONE', #300, 0.06250000000000001388 ) ;
#98 = AXIS2_PLACEMENT_3D ( 'NONE', #243, #207, #211 ) ;
#99 = PRESENTATION_STYLE_ASSIGNMENT (( #238 ) ) ;
#100 = EDGE_CURVE ( 'NONE', #189, #10, #249, .T. ) ;
#101 = CARTESIAN_POINT ( 'NONE',  ( 0.000000000000000000, 0.6250000000000000000, 0.000000000000000000 ) ) ;
#102 = ORIENTED_EDGE ( 'NONE', *, *, #126, .T. ) ;
#103 = APPLICATION_PROTOCOL_DEFINITION ( 'draft international standard', 'automotive_design', 1998, #217 ) ;
#104 = CARTESIAN_POINT ( 'NONE',  ( 0.06249999999999995143, 2.500000000000000000, 0.000000000000000000 ) ) ;
#105 = VERTEX_POINT ( 'NONE', #209 ) ;
#106 = DIRECTION ( 'NONE',  ( -1.367485596165987018E-16, 1.000000000000000000, -0.000000000000000000 ) ) ;
#107 = EDGE_CURVE ( 'NONE', #105, #225, #140, .T. ) ;
#108 = AXIS2_PLACEMENT_3D ( 'NONE', #135, #79, #304 ) ;
#109 = CARTESIAN_POINT ( 'NONE',  ( -3.827021247335478002E-18, 0.000000000000000000, 0.000000000000000000 ) ) ;
#110 = CARTESIAN_POINT ( 'NONE',  ( -0.06250000000000001388, 0.06250000000000001388, 7.654042494670959086E-18 ) ) ;
#111 = AXIS2_PLACEMENT_3D ( 'NONE', #310, #284, #176 ) ;
#112 =( LENGTH_UNIT ( ) NAMED_UNIT ( * ) SI_UNIT ( $, .METRE. ) );
#113 = ORIENTED_EDGE ( 'NONE', *, *, #3, .F. ) ;
#114 = CARTESIAN_POINT ( 'NONE',  ( 0.000000000000000000, 0.000000000000000000, -0.06249999999999997918 ) ) ;
#115 = EDGE_LOOP ( 'NONE', ( #365, #22, #113, #336 ) ) ;
#116 =( NAMED_UNIT ( * ) SI_UNIT ( $, .STERADIAN. ) SOLID_ANGLE_UNIT ( ) );
#117 = DIRECTION ( 'NONE',  ( -0.000000000000000000, -1.000000000000000000, -0.000000000000000000 ) ) ;
#118 =( CONVERSION_BASED_UNIT ( 'INCH', #317 ) LENGTH_UNIT ( ) NAMED_UNIT ( #63 ) );
#119 = PRESENTATION_LAYER_ASSIGNMENT (  '', '', ( #277 ) ) ;
#120 =( CONVERSION_BASED_UNIT ( 'INCH', #37 ) LENGTH_UNIT ( ) NAMED_UNIT ( #124 ) );
#121 = PRESENTATION_LAYER_ASSIGNMENT (  '', '', ( #292 ) ) ;
#122 = ADVANCED_FACE ( 'NONE', ( #268 ), #354, .T. ) ;
#123 = CARTESIAN_POINT ( 'NONE',  ( -7.654042494670957545E-18, 0.06250000000000001388, 0.000000000000000000 ) ) ;
#124 = DIMENSIONAL_EXPONENTS ( 1.000000000000000000, 0.000000000000000000, 0.000000000000000000, 0.000000000000000000, 0.000000000000000000, 0.000000000000000000, 0.000000000000000000 ) ;
#125 = CARTESIAN_POINT ( 'NONE',  ( 0.000000000000000000, 0.06250000000000001388, 0.000000000000000000 ) ) ;
#126 = EDGE_CURVE ( 'NONE', #225, #189, #136, .T. ) ;
#127 = SHAPE_DEFINITION_REPRESENTATION ( #170, #270 ) ;
#128 = AXIS2_PLACEMENT_3D ( 'NONE', #30, #36, #187 ) ;
#129 = LENGTH_MEASURE_WITH_UNIT ( LENGTH_MEASURE( 0.02539999999999999897 ), #350 );
#130 = ORIENTED_EDGE ( 'NONE', *, *, #358, .T. ) ;
#131 = DIRECTION ( 'NONE',  ( -1.367485596165987018E-16, 1.000000000000000000, -0.000000000000000000 ) ) ;
#132 = PRODUCT ( '83412', '83412', '', ( #66 ) ) ;
#133 = DIRECTION ( 'NONE',  ( -1.367485596165987018E-16, 1.000000000000000000, -0.000000000000000000 ) ) ;
#134 = ORIENTED_EDGE ( 'NONE', *, *, #244, .T. ) ;
#135 = CARTESIAN_POINT ( 'NONE',  ( 0.000000000000000000, 0.6250000000000000000, 0.000000000000000000 ) ) ;
#136 = CIRCLE ( 'NONE', #360, 0.06250000000000001388 ) ;
#137 = FACE_OUTER_BOUND ( 'NONE', #159, .T. ) ;
#138 = SURFACE_STYLE_USAGE ( .BOTH. , #197 ) ;
#139 = LENGTH_MEASURE_WITH_UNIT ( LENGTH_MEASURE( 0.02539999999999999897 ), #112 );
#140 = CIRCLE ( 'NONE', #190, 0.06250000000000001388 ) ;
#141 = UNCERTAINTY_MEASURE_WITH_UNIT (LENGTH_MEASURE( 1.000000000000000082E-05 ), #148, 'distance_accuracy_value', 'NONE');
#142 = ORIENTED_EDGE ( 'NONE', *, *, #318, .T. ) ;
#143 = FILL_AREA_STYLE_COLOUR ( '', #353 ) ;
#144 =( NAMED_UNIT ( * ) PLANE_ANGLE_UNIT ( ) SI_UNIT ( $, .RADIAN. ) );
#145 = DIRECTION ( 'NONE',  ( 0.000000000000000000, 0.000000000000000000, -1.000000000000000000 ) ) ;
#146 = MECHANICAL_DESIGN_GEOMETRIC_PRESENTATION_REPRESENTATION (  '', ( #321 ), #371 ) ;
#147 =( CONVERSION_BASED_UNIT ( 'INCH', #57 ) LENGTH_UNIT ( ) NAMED_UNIT ( #347 ) );
#148 =( CONVERSION_BASED_UNIT ( 'INCH', #253 ) LENGTH_UNIT ( ) NAMED_UNIT ( #174 ) );
#149 = FILL_AREA_STYLE ('',( #143 ) ) ;
#150 = CARTESIAN_POINT ( 'NONE',  ( -7.654042494670957545E-18, 0.06250000000000001388, 0.000000000000000000 ) ) ;
#151 = AXIS2_PLACEMENT_3D ( 'NONE', #101, #237, #320 ) ;
#152 =( NAMED_UNIT ( * ) SI_UNIT ( $, .STERADIAN. ) SOLID_ANGLE_UNIT ( ) );
#153 = VERTEX_POINT ( 'NONE', #323 ) ;
#154 = AXIS2_PLACEMENT_3D ( 'NONE', #104, #64, #294 ) ;
#155 =( GEOMETRIC_REPRESENTATION_CONTEXT ( 3 ) GLOBAL_UNCERTAINTY_ASSIGNED_CONTEXT ( ( #78 ) ) GLOBAL_UNIT_ASSIGNED_CONTEXT ( ( #147, #144, #256 ) ) REPRESENTATION_CONTEXT ( 'NONE', 'WORKASPACE' ) );
#156 = CARTESIAN_POINT ( 'NONE',  ( 3.061616997868383141E-16, 2.500000000000000000, 0.000000000000000000 ) ) ;
#157 = ORIENTED_EDGE ( 'NONE', *, *, #244, .F. ) ;
#158 = FILL_AREA_STYLE_COLOUR ( '', #234 ) ;
#159 = EDGE_LOOP ( 'NONE', ( #167, #252 ) ) ;
#160 =( CONVERSION_BASED_UNIT ( 'INCH', #47 ) LENGTH_UNIT ( ) NAMED_UNIT ( #368 ) );
#161 = COLOUR_RGB ( '',1.000000000000000000, 0.000000000000000000, 0.000000000000000000 ) ;
#162 =( GEOMETRIC_REPRESENTATION_CONTEXT ( 3 ) GLOBAL_UNCERTAINTY_ASSIGNED_CONTEXT ( ( #141 ) ) GLOBAL_UNIT_ASSIGNED_CONTEXT ( ( #148, #311, #116 ) ) REPRESENTATION_CONTEXT ( 'NONE', 'WORKASPACE' ) );
#163 = DIRECTION ( 'NONE',  ( -1.000000000000000000, -1.367485596165987018E-16, 0.000000000000000000 ) ) ;
#164 = EDGE_CURVE ( 'NONE', #265, #153, #40, .T. ) ;
#165 = UNCERTAINTY_MEASURE_WITH_UNIT (LENGTH_MEASURE( 1.000000000000000082E-05 ), #118, 'distance_accuracy_value', 'NONE');
#166 = DIRECTION ( 'NONE',  ( -1.000000000000000000, 0.000000000000000000, 0.000000000000000000 ) ) ;
#167 = ORIENTED_EDGE ( 'NONE', *, *, #358, .F. ) ;
#168 = CYLINDRICAL_SURFACE ( 'NONE', #306, 0.06249999999999997918 ) ;
#169 = ORIENTED_EDGE ( 'NONE', *, *, #318, .F. ) ;
#170 = PRODUCT_DEFINITION_SHAPE ( 'NONE', 'NONE',  #65 ) ;
#171 =( GEOMETRIC_REPRESENTATION_CONTEXT ( 3 ) GLOBAL_UNCERTAINTY_ASSIGNED_CONTEXT ( ( #272 ) ) GLOBAL_UNIT_ASSIGNED_CONTEXT ( ( #212, #96, #152 ) ) REPRESENTATION_CONTEXT ( 'NONE', 'WORKASPACE' ) );
#172 = PRODUCT_DEFINITION_CONTEXT ( 'detailed design', #217, 'design' ) ;
#173 = DIRECTION ( 'NONE',  ( 0.000000000000000000, 0.000000000000000000, 1.000000000000000000 ) ) ;
#174 = DIMENSIONAL_EXPONENTS ( 1.000000000000000000, 0.000000000000000000, 0.000000000000000000, 0.000000000000000000, 0.000000000000000000, 0.000000000000000000, 0.000000000000000000 ) ;
#175 = CYLINDRICAL_SURFACE ( 'NONE', #128, 0.06249999999999951428 ) ;
#176 = DIRECTION ( 'NONE',  ( 0.000000000000000000, 0.000000000000000000, -1.000000000000000000 ) ) ;
#177 = PRESENTATION_STYLE_ASSIGNMENT (( #24 ) ) ;
#178 = CLOSED_SHELL ( 'NONE', ( #82, #220, #46, #75 ) ) ;
#179 = LINE ( 'NONE', #114, #245 ) ;
#180 = DIRECTION ( 'NONE',  ( 1.000000000000000000, 0.000000000000000000, 0.000000000000000000 ) ) ;
#181 =( LENGTH_UNIT ( ) NAMED_UNIT ( * ) SI_UNIT ( $, .METRE. ) );
#182 = SURFACE_STYLE_FILL_AREA ( #6 ) ;
#183 = CIRCLE ( 'NONE', #67, 0.06250000000000001388 ) ;
#184 =( NAMED_UNIT ( * ) PLANE_ANGLE_UNIT ( ) SI_UNIT ( $, .RADIAN. ) );
#185 = MECHANICAL_DESIGN_GEOMETRIC_PRESENTATION_REPRESENTATION (  '', ( #55 ), #68 ) ;
#186 = DIRECTION ( 'NONE',  ( 0.000000000000000000, 0.000000000000000000, 1.000000000000000000 ) ) ;
#187 = DIRECTION ( 'NONE',  ( -1.000000000000000000, 0.000000000000000000, 0.000000000000000000 ) ) ;
#188 = FACE_OUTER_BOUND ( 'NONE', #76, .T. ) ;
#189 = VERTEX_POINT ( 'NONE', #352 ) ;
#190 = AXIS2_PLACEMENT_3D ( 'NONE', #8, #357, #296 ) ;
#191 = CARTESIAN_POINT ( 'NONE',  ( 0.000000000000000000, 0.06250000000000001388, 0.000000000000000000 ) ) ;
#192 = ORIENTED_EDGE ( 'NONE', *, *, #95, .F. ) ;
#193 =( NAMED_UNIT ( * ) SI_UNIT ( $, .STERADIAN. ) SOLID_ANGLE_UNIT ( ) );
#194 = SURFACE_STYLE_USAGE ( .BOTH. , #246 ) ;
#195 = CARTESIAN_POINT ( 'NONE',  ( 7.654042494670956004E-18, 0.000000000000000000, 0.06249999999999997918 ) ) ;
#196 = MECHANICAL_DESIGN_GEOMETRIC_PRESENTATION_REPRESENTATION (  '', ( #292 ), #155 ) ;
#197 = SURFACE_SIDE_STYLE ('',( #276 ) ) ;
#198 = ORIENTED_EDGE ( 'NONE', *, *, #251, .F. ) ;
#199 = CARTESIAN_POINT ( 'NONE',  ( 5.625652490679608955E-16, 0.6250000000000000000, 0.000000000000000000 ) ) ;
#200 = ORIENTED_EDGE ( 'NONE', *, *, #164, .T. ) ;
#201 = EDGE_LOOP ( 'NONE', ( #130, #200, #72, #192 ) ) ;
#202 = COLOUR_RGB ( '',0.7921568627450980005, 0.8196078431372548767, 0.9333333333333333481 ) ;
#203 = SURFACE_SIDE_STYLE ('',( #341 ) ) ;
#204 = DIRECTION ( 'NONE',  ( 0.000000000000000000, 0.000000000000000000, -1.000000000000000000 ) ) ;
#205 = VECTOR ( 'NONE', #73, 39.37007874015748143 ) ;
#206 = DIRECTION ( 'NONE',  ( -1.000000000000000000, 0.000000000000000000, 0.000000000000000000 ) ) ;
#207 = DIRECTION ( 'NONE',  ( -1.367485596165987018E-16, 1.000000000000000000, -0.000000000000000000 ) ) ;
#208 = EDGE_CURVE ( 'NONE', #213, #153, #13, .T. ) ;
#209 = CARTESIAN_POINT ( 'NONE',  ( 7.654042494670959086E-18, 0.06250000000000001388, 0.06250000000000001388 ) ) ;
#210 = COLOUR_RGB ( '',1.000000000000000000, 0.000000000000000000, 0.000000000000000000 ) ;
#211 = DIRECTION ( 'NONE',  ( -1.000000000000000000, 0.000000000000000000, 0.000000000000000000 ) ) ;
#212 =( CONVERSION_BASED_UNIT ( 'INCH', #129 ) LENGTH_UNIT ( ) NAMED_UNIT ( #285 ) );
#213 = VERTEX_POINT ( 'NONE', #322 ) ;
#214 = DIRECTION ( 'NONE',  ( -1.000000000000000000, 0.000000000000000000, 0.000000000000000000 ) ) ;
#215 = EDGE_CURVE ( 'NONE', #265, #278, #60, .T. ) ;
#216 = ORIENTED_EDGE ( 'NONE', *, *, #164, .F. ) ;
#217 = APPLICATION_CONTEXT ( 'automotive_design' ) ;
#218 = FILL_AREA_STYLE_COLOUR ( '', #202 ) ;
#219 = ORIENTED_EDGE ( 'NONE', *, *, #349, .F. ) ;
#220 = ADVANCED_FACE ( 'NONE', ( #137 ), #77, .F. ) ;
#221 = DIRECTION ( 'NONE',  ( -1.000000000000000000, 0.000000000000000000, 0.000000000000000000 ) ) ;
#222 = UNCERTAINTY_MEASURE_WITH_UNIT (LENGTH_MEASURE( 1.000000000000000082E-05 ), #160, 'distance_accuracy_value', 'NONE');
#223 = FILL_AREA_STYLE ('',( #335 ) ) ;
#224 = FACE_OUTER_BOUND ( 'NONE', #115, .T. ) ;
#225 = VERTEX_POINT ( 'NONE', #110 ) ;
#226 =( LENGTH_UNIT ( ) NAMED_UNIT ( * ) SI_UNIT ( $, .METRE. ) );
#227 = AXIS2_PLACEMENT_3D ( 'NONE', #288, #258, #145 ) ;
#228 = SURFACE_SIDE_STYLE ('',( #287 ) ) ;
#229 = DIMENSIONAL_EXPONENTS ( 1.000000000000000000, 0.000000000000000000, 0.000000000000000000, 0.000000000000000000, 0.000000000000000000, 0.000000000000000000, 0.000000000000000000 ) ;
#230 = CYLINDRICAL_SURFACE ( 'NONE', #227, 0.06249999999999997918 ) ;
#231 = APPLICATION_CONTEXT ( 'automotive_design' ) ;
#232 =( NAMED_UNIT ( * ) PLANE_ANGLE_UNIT ( ) SI_UNIT ( $, .RADIAN. ) );
#233 =( LENGTH_UNIT ( ) NAMED_UNIT ( * ) SI_UNIT ( $, .METRE. ) );
#234 = COLOUR_RGB ( '',1.000000000000000000, 0.000000000000000000, 0.000000000000000000 ) ;
#235 = FACE_OUTER_BOUND ( 'NONE', #18, .T. ) ;
#236 = MANIFOLD_SOLID_BREP ( 'Revolve - Tool Body (Straight Shanked)', #178 ) ;
#237 = DIRECTION ( 'NONE',  ( 0.000000000000000000, 1.000000000000000000, 0.000000000000000000 ) ) ;
#238 = SURFACE_STYLE_USAGE ( .BOTH. , #263 ) ;
#239 = PRESENTATION_LAYER_ASSIGNMENT (  '', '', ( #332 ) ) ;
#240 = CIRCLE ( 'NONE', #301, 0.06249999999999963918 ) ;
#241 = CARTESIAN_POINT ( 'NONE',  ( 0.000000000000000000, 0.6250000000000000000, 0.000000000000000000 ) ) ;
#242 = DIRECTION ( 'NONE',  ( -0.000000000000000000, -1.000000000000000000, -0.000000000000000000 ) ) ;
#243 = CARTESIAN_POINT ( 'NONE',  ( 3.061616997868383141E-16, 2.500000000000000000, 0.000000000000000000 ) ) ;
#244 = EDGE_CURVE ( 'NONE', #153, #213, #240, .T. ) ;
#245 = VECTOR ( 'NONE', #2, 39.37007874015748143 ) ;
#246 = SURFACE_SIDE_STYLE ('',( #50 ) ) ;
#247 =( NAMED_UNIT ( * ) PLANE_ANGLE_UNIT ( ) SI_UNIT ( $, .RADIAN. ) );
#248 = CARTESIAN_POINT ( 'NONE',  ( 3.061616997868383141E-16, 2.500000000000000000, 0.000000000000000000 ) ) ;
#249 = CIRCLE ( 'NONE', #90, 0.06250000000000001388 ) ;
#250 = VERTEX_POINT ( 'NONE', #109 ) ;
#251 = EDGE_CURVE ( 'NONE', #39, #105, #361, .T. ) ;
#252 = ORIENTED_EDGE ( 'NONE', *, *, #215, .F. ) ;
#253 = LENGTH_MEASURE_WITH_UNIT ( LENGTH_MEASURE( 0.02539999999999999897 ), #233 );
#254 = CARTESIAN_POINT ( 'NONE',  ( 0.000000000000000000, 0.6250000000000000000, -0.06249999999999995143 ) ) ;
#255 = MECHANICAL_DESIGN_GEOMETRIC_PRESENTATION_REPRESENTATION (  '', ( #74 ), #274 ) ;
#256 =( NAMED_UNIT ( * ) SI_UNIT ( $, .STERADIAN. ) SOLID_ANGLE_UNIT ( ) );
#257 = SPHERICAL_SURFACE ( 'NONE', #54, 0.06250000000000001388 ) ;
#258 = DIRECTION ( 'NONE',  ( -0.000000000000000000, -1.000000000000000000, -0.000000000000000000 ) ) ;
#259 = MECHANICAL_DESIGN_GEOMETRIC_PRESENTATION_REPRESENTATION (  '', ( #332 ), #291 ) ;
#260 = VECTOR ( 'NONE', #330, 39.37007874015748143 ) ;
#261 =( NAMED_UNIT ( * ) SI_UNIT ( $, .STERADIAN. ) SOLID_ANGLE_UNIT ( ) );
#262 = EDGE_CURVE ( 'NONE', #39, #295, #339, .T. ) ;
#263 = SURFACE_SIDE_STYLE ('',( #182 ) ) ;
#264 = PLANE ( 'NONE',  #154 ) ;
#265 = VERTEX_POINT ( 'NONE', #364 ) ;
#266 = STYLED_ITEM ( 'NONE', ( #340 ), #23 ) ;
#267 = VECTOR ( 'NONE', #133, 39.37007874015748143 ) ;
#268 = FACE_OUTER_BOUND ( 'NONE', #329, .T. ) ;
#269 = ORIENTED_EDGE ( 'NONE', *, *, #100, .T. ) ;
#270 = ADVANCED_BREP_SHAPE_REPRESENTATION ( '83412', ( #366, #236, #328 ), #20 ) ;
#271 = DIRECTION ( 'NONE',  ( 0.000000000000000000, 0.000000000000000000, -1.000000000000000000 ) ) ;
#272 = UNCERTAINTY_MEASURE_WITH_UNIT (LENGTH_MEASURE( 1.000000000000000082E-05 ), #212, 'distance_accuracy_value', 'NONE');
#273 = MECHANICAL_DESIGN_GEOMETRIC_PRESENTATION_REPRESENTATION (  '', ( #266 ), #162 ) ;
#274 =( GEOMETRIC_REPRESENTATION_CONTEXT ( 3 ) GLOBAL_UNCERTAINTY_ASSIGNED_CONTEXT ( ( #222 ) ) GLOBAL_UNIT_ASSIGNED_CONTEXT ( ( #160, #45, #193 ) ) REPRESENTATION_CONTEXT ( 'NONE', 'WORKASPACE' ) );
#275 = ADVANCED_FACE ( 'NONE', ( #363 ), #168, .T. ) ;
#276 = SURFACE_STYLE_FILL_AREA ( #223 ) ;
#277 = STYLED_ITEM ( 'NONE', ( #99 ), #122 ) ;
#278 = VERTEX_POINT ( 'NONE', #308 ) ;
#279 = FILL_AREA_STYLE ('',( #337 ) ) ;
#280 = SURFACE_STYLE_USAGE ( .BOTH. , #89 ) ;
#281 = SURFACE_SIDE_STYLE ('',( #342 ) ) ;
#282 = FILL_AREA_STYLE_COLOUR ( '', #161 ) ;
#283 = AXIS2_PLACEMENT_3D ( 'NONE', #29, #173, #343 ) ;
#284 = DIRECTION ( 'NONE',  ( -0.000000000000000000, -1.000000000000000000, -0.000000000000000000 ) ) ;
#285 = DIMENSIONAL_EXPONENTS ( 1.000000000000000000, 0.000000000000000000, 0.000000000000000000, 0.000000000000000000, 0.000000000000000000, 0.000000000000000000, 0.000000000000000000 ) ;
#286 = CARTESIAN_POINT ( 'NONE',  ( 7.654042494670954463E-18, 0.6250000000000000000, 0.06249999999999995143 ) ) ;
#287 = SURFACE_STYLE_FILL_AREA ( #149 ) ;
#288 = CARTESIAN_POINT ( 'NONE',  ( 0.000000000000000000, 0.000000000000000000, 0.000000000000000000 ) ) ;
#289 = CARTESIAN_POINT ( 'NONE',  ( 0.000000000000000000, 0.000000000000000000, 0.000000000000000000 ) ) ;
#290 = DIRECTION ( 'NONE',  ( 0.000000000000000000, 0.000000000000000000, -1.000000000000000000 ) ) ;
#291 =( GEOMETRIC_REPRESENTATION_CONTEXT ( 3 ) GLOBAL_UNCERTAINTY_ASSIGNED_CONTEXT ( ( #165 ) ) GLOBAL_UNIT_ASSIGNED_CONTEXT ( ( #118, #94, #26 ) ) REPRESENTATION_CONTEXT ( 'NONE', 'WORKASPACE' ) );
#292 = STYLED_ITEM ( 'NONE', ( #177 ), #366 ) ;
#293 = CARTESIAN_POINT ( 'NONE',  ( -0.06249999999999920203, 2.500000000000000000, 0.000000000000000000 ) ) ;
#294 = DIRECTION ( 'NONE',  ( 1.000000000000000000, 1.367485596165987018E-16, 0.000000000000000000 ) ) ;
#295 = VERTEX_POINT ( 'NONE', #254 ) ;
#296 = DIRECTION ( 'NONE',  ( 0.000000000000000000, 0.000000000000000000, -1.000000000000000000 ) ) ;
#297 = CARTESIAN_POINT ( 'NONE',  ( -7.654042494670957545E-18, 0.06250000000000001388, 0.000000000000000000 ) ) ;
#298 = FILL_AREA_STYLE ('',( #218 ) ) ;
#299 =( LENGTH_UNIT ( ) NAMED_UNIT ( * ) SI_UNIT ( $, .METRE. ) );
#300 = AXIS2_PLACEMENT_3D ( 'NONE', #123, #314, #93 ) ;
#301 = AXIS2_PLACEMENT_3D ( 'NONE', #248, #106, #166 ) ;
#302 = UNCERTAINTY_MEASURE_WITH_UNIT (LENGTH_MEASURE( 1.000000000000000082E-05 ), #120, 'distance_accuracy_value', 'NONE');
#303 = ORIENTED_EDGE ( 'NONE', *, *, #208, .T. ) ;
#304 = DIRECTION ( 'NONE',  ( 0.000000000000000000, 0.000000000000000000, -1.000000000000000000 ) ) ;
#305 = ORIENTED_EDGE ( 'NONE', *, *, #53, .T. ) ;
#306 = AXIS2_PLACEMENT_3D ( 'NONE', #367, #117, #204 ) ;
#307 = CARTESIAN_POINT ( 'NONE',  ( 0.06250000000000001388, 0.06250000000000001388, 0.000000000000000000 ) ) ;
#308 = CARTESIAN_POINT ( 'NONE',  ( -0.06249999999999882039, 0.6250000000000000000, 0.000000000000000000 ) ) ;
#309 = FILL_AREA_STYLE ('',( #59 ) ) ;
#310 = CARTESIAN_POINT ( 'NONE',  ( 0.000000000000000000, 0.06250000000000001388, 0.000000000000000000 ) ) ;
#311 =( NAMED_UNIT ( * ) PLANE_ANGLE_UNIT ( ) SI_UNIT ( $, .RADIAN. ) );
#312 = SURFACE_STYLE_USAGE ( .BOTH. , #281 ) ;
#313 = AXIS2_PLACEMENT_3D ( 'NONE', #241, #242, #319 ) ;
#314 = DIRECTION ( 'NONE',  ( 1.224646799147353207E-16, -0.000000000000000000, 1.000000000000000000 ) ) ;
#315 = CIRCLE ( 'NONE', #48, 0.06249999999999938244 ) ;
#316 = LENGTH_MEASURE_WITH_UNIT ( LENGTH_MEASURE( 0.02539999999999999897 ), #25 );
#317 = LENGTH_MEASURE_WITH_UNIT ( LENGTH_MEASURE( 0.02539999999999999897 ), #56 );
#318 = EDGE_CURVE ( 'NONE', #295, #189, #179, .T. ) ;
#319 = DIRECTION ( 'NONE',  ( 0.000000000000000000, 0.000000000000000000, -1.000000000000000000 ) ) ;
#320 = DIRECTION ( 'NONE',  ( 0.000000000000000000, -0.000000000000000000, 1.000000000000000000 ) ) ;
#321 = STYLED_ITEM ( 'NONE', ( #1 ), #351 ) ;
#322 = CARTESIAN_POINT ( 'NONE',  ( -0.06249999999999933387, 2.500000000000000000, 0.000000000000000000 ) ) ;
#323 = CARTESIAN_POINT ( 'NONE',  ( 0.06249999999999995143, 2.500000000000000000, 7.654042494670906700E-18 ) ) ;
#324 = ORIENTED_EDGE ( 'NONE', *, *, #126, .F. ) ;
#325 = CYLINDRICAL_SURFACE ( 'NONE', #41, 0.06249999999999951428 ) ;
#326 = ORIENTED_EDGE ( 'NONE', *, *, #95, .T. ) ;
#327 = MECHANICAL_DESIGN_GEOMETRIC_PRESENTATION_REPRESENTATION (  '', ( #277 ), #171 ) ;
#328 = AXIS2_PLACEMENT_3D ( 'NONE', #289, #186, #7 ) ;
#329 = EDGE_LOOP ( 'NONE', ( #52, #355 ) ) ;
#330 = DIRECTION ( 'NONE',  ( -0.000000000000000000, -1.000000000000000000, -0.000000000000000000 ) ) ;
#331 = PRESENTATION_STYLE_ASSIGNMENT (( #194 ) ) ;
#332 = STYLED_ITEM ( 'NONE', ( #58 ), #16 ) ;
#333 = PRESENTATION_LAYER_ASSIGNMENT (  '', '', ( #74 ) ) ;
#334 = DIRECTION ( 'NONE',  ( -1.367485596165987018E-16, 1.000000000000000000, 0.000000000000000000 ) ) ;
#335 = FILL_AREA_STYLE_COLOUR ( '', #210 ) ;
#336 = ORIENTED_EDGE ( 'NONE', *, *, #349, .T. ) ;
#337 = FILL_AREA_STYLE_COLOUR ( '', #85 ) ;
#338 = ORIENTED_EDGE ( 'NONE', *, *, #215, .T. ) ;
#339 = CIRCLE ( 'NONE', #108, 0.06249999999999995143 ) ;
#340 = PRESENTATION_STYLE_ASSIGNMENT (( #32 ) ) ;
#341 = SURFACE_STYLE_FILL_AREA ( #28 ) ;
#342 = SURFACE_STYLE_FILL_AREA ( #279 ) ;
#343 = DIRECTION ( 'NONE',  ( 1.000000000000000000, 0.000000000000000000, 0.000000000000000000 ) ) ;
#344 = PRESENTATION_LAYER_ASSIGNMENT (  '', '', ( #266 ) ) ;
#345 = CIRCLE ( 'NONE', #111, 0.06250000000000001388 ) ;
#346 = APPLICATION_PROTOCOL_DEFINITION ( 'draft international standard', 'automotive_design', 1998, #231 ) ;
#347 = DIMENSIONAL_EXPONENTS ( 1.000000000000000000, 0.000000000000000000, 0.000000000000000000, 0.000000000000000000, 0.000000000000000000, 0.000000000000000000, 0.000000000000000000 ) ;
#348 = DIRECTION ( 'NONE',  ( -1.000000000000000000, 0.000000000000000000, 0.000000000000000000 ) ) ;
#349 = EDGE_CURVE ( 'NONE', #10, #105, #345, .T. ) ;
#350 =( LENGTH_UNIT ( ) NAMED_UNIT ( * ) SI_UNIT ( $, .METRE. ) );
#351 = ADVANCED_FACE ( 'NONE', ( #224 ), #87, .T. ) ;
#352 = CARTESIAN_POINT ( 'NONE',  ( 0.000000000000000000, 0.06250000000000001388, -0.06250000000000001388 ) ) ;
#353 = COLOUR_RGB ( '',0.7921568627450980005, 0.8196078431372548767, 0.9333333333333333481 ) ;
#354 = PLANE ( 'NONE',  #151 ) ;
#355 = ORIENTED_EDGE ( 'NONE', *, *, #262, .F. ) ;
#356 = ORIENTED_EDGE ( 'NONE', *, *, #262, .T. ) ;
#357 = DIRECTION ( 'NONE',  ( -0.000000000000000000, -1.000000000000000000, -0.000000000000000000 ) ) ;
#358 = EDGE_CURVE ( 'NONE', #278, #265, #315, .T. ) ;
#359 = CLOSED_SHELL ( 'NONE', ( #351, #16, #122, #275, #23 ) ) ;
#360 = AXIS2_PLACEMENT_3D ( 'NONE', #125, #43, #11 ) ;
#361 = LINE ( 'NONE', #195, #260 ) ;
#362 =( NAMED_UNIT ( * ) SI_UNIT ( $, .STERADIAN. ) SOLID_ANGLE_UNIT ( ) );
#363 = FACE_OUTER_BOUND ( 'NONE', #84, .T. ) ;
#364 = CARTESIAN_POINT ( 'NONE',  ( 0.06249999999999995143, 0.6250000000000000000, 7.654042494670906700E-18 ) ) ;
#365 = ORIENTED_EDGE ( 'NONE', *, *, #107, .T. ) ;
#366 = MANIFOLD_SOLID_BREP ( 'Revolve - Cutting Edge', #359 ) ;
#367 = CARTESIAN_POINT ( 'NONE',  ( 0.000000000000000000, 0.000000000000000000, 0.000000000000000000 ) ) ;
#368 = DIMENSIONAL_EXPONENTS ( 1.000000000000000000, 0.000000000000000000, 0.000000000000000000, 0.000000000000000000, 0.000000000000000000, 0.000000000000000000, 0.000000000000000000 ) ;
#369 = EDGE_LOOP ( 'NONE', ( #305, #83, #219, #12, #169 ) ) ;
#370 = SURFACE_STYLE_FILL_AREA ( #309 ) ;
#371 =( GEOMETRIC_REPRESENTATION_CONTEXT ( 3 ) GLOBAL_UNCERTAINTY_ASSIGNED_CONTEXT ( ( #49 ) ) GLOBAL_UNIT_ASSIGNED_CONTEXT ( ( #31, #232, #27 ) ) REPRESENTATION_CONTEXT ( 'NONE', 'WORKASPACE' ) );
#372 = FACE_OUTER_BOUND ( 'NONE', #51, .T. ) ;
#373 = PRODUCT_DEFINITION_FORMATION_WITH_SPECIFIED_SOURCE ( 'ANY', '', #132, .NOT_KNOWN. ) ;
ENDSEC;
END-ISO-10303-21;
